ISO-10303-21;
HEADER;
/* Generated by software containing ST-Developer
 * from STEP Tools, Inc. (www.steptools.com) 
 */

FILE_DESCRIPTION(
/* description */ (''),
/* implementation_level */ '2;1');

FILE_NAME(
/* name */ 
'Q:\\Ric010\\FF7\\FIPlastiCAD\\FIP\\Lavoro\\PVC Fittings\\PVC Fittings
 STEP\\DIFV\\DIFV025020034.ipt.stp',
/* time_stamp */ '2013-10-01T14:36:47+02:00',
/* author */ ('bfaro'),
/* organization */ (''),
/* preprocessor_version */ 'ST-DEVELOPER v15.2',
/* originating_system */ 'Autodesk Inventor 2014',
/* authorisation */ '');

FILE_SCHEMA (('AUTOMOTIVE_DESIGN { 1 0 10303 214 3 1 1 }'));
ENDSEC;

DATA;
#10=SHAPE_REPRESENTATION_RELATIONSHIP('SRR','None',#584,#11);
#11=ADVANCED_BREP_SHAPE_REPRESENTATION($,(#343),#575);
#12=STYLED_ITEM($,(#593),#336);
#13=STYLED_ITEM($,(#592),#343);
#14=TOROIDAL_SURFACE($,#365,13.5,1.);
#15=TOROIDAL_SURFACE($,#373,11.0585,1.00000000000001);
#16=CYLINDRICAL_SURFACE($,#355,13.6);
#17=CYLINDRICAL_SURFACE($,#363,12.5);
#18=CYLINDRICAL_SURFACE($,#368,17.4);
#19=CYLINDRICAL_SURFACE($,#371,12.0585);
#20=CYLINDRICAL_SURFACE($,#377,9.00000000000001);
#21=CYLINDRICAL_SURFACE($,#381,10.);
#22=FACE_BOUND($,#82,.T.);
#23=FACE_BOUND($,#83,.T.);
#24=FACE_BOUND($,#85,.T.);
#25=FACE_BOUND($,#86,.T.);
#26=FACE_BOUND($,#87,.T.);
#27=FACE_BOUND($,#89,.T.);
#28=FACE_BOUND($,#91,.T.);
#29=FACE_BOUND($,#93,.T.);
#30=FACE_BOUND($,#95,.T.);
#31=FACE_BOUND($,#97,.T.);
#32=FACE_BOUND($,#98,.T.);
#33=FACE_BOUND($,#99,.T.);
#34=FACE_BOUND($,#101,.T.);
#35=FACE_BOUND($,#103,.T.);
#36=FACE_BOUND($,#104,.T.);
#37=FACE_BOUND($,#105,.T.);
#38=FACE_BOUND($,#107,.T.);
#39=FACE_BOUND($,#109,.T.);
#40=FACE_BOUND($,#111,.T.);
#41=CIRCLE($,#354,17.4);
#42=CIRCLE($,#356,13.6);
#43=CIRCLE($,#357,13.6);
#44=CIRCLE($,#359,12.0585);
#45=CIRCLE($,#361,12.5);
#46=CIRCLE($,#362,10.);
#47=CIRCLE($,#364,12.5);
#48=CIRCLE($,#366,13.5);
#49=CIRCLE($,#369,17.4);
#50=CIRCLE($,#372,12.0585);
#51=CIRCLE($,#374,11.0585);
#52=CIRCLE($,#376,9.00000000000001);
#53=CIRCLE($,#378,9.00000000000001);
#54=CIRCLE($,#380,10.);
#55=FACE_OUTER_BOUND($,#74,.T.);
#56=FACE_OUTER_BOUND($,#75,.T.);
#57=FACE_OUTER_BOUND($,#76,.T.);
#58=FACE_OUTER_BOUND($,#77,.T.);
#59=FACE_OUTER_BOUND($,#78,.T.);
#60=FACE_OUTER_BOUND($,#79,.T.);
#61=FACE_OUTER_BOUND($,#80,.T.);
#62=FACE_OUTER_BOUND($,#81,.T.);
#63=FACE_OUTER_BOUND($,#84,.T.);
#64=FACE_OUTER_BOUND($,#88,.T.);
#65=FACE_OUTER_BOUND($,#90,.T.);
#66=FACE_OUTER_BOUND($,#92,.T.);
#67=FACE_OUTER_BOUND($,#94,.T.);
#68=FACE_OUTER_BOUND($,#96,.T.);
#69=FACE_OUTER_BOUND($,#100,.T.);
#70=FACE_OUTER_BOUND($,#102,.T.);
#71=FACE_OUTER_BOUND($,#106,.T.);
#72=FACE_OUTER_BOUND($,#108,.T.);
#73=FACE_OUTER_BOUND($,#110,.T.);
#74=EDGE_LOOP($,(#228,#229,#230,#231));
#75=EDGE_LOOP($,(#232,#233,#234,#235));
#76=EDGE_LOOP($,(#236,#237,#238,#239));
#77=EDGE_LOOP($,(#240,#241,#242,#243));
#78=EDGE_LOOP($,(#244,#245,#246,#247));
#79=EDGE_LOOP($,(#248,#249,#250,#251));
#80=EDGE_LOOP($,(#252,#253,#254,#255));
#81=EDGE_LOOP($,(#256,#257,#258,#259));
#82=EDGE_LOOP($,(#260));
#83=EDGE_LOOP($,(#261,#262,#263,#264,#265,#266,#267,#268));
#84=EDGE_LOOP($,(#269));
#85=EDGE_LOOP($,(#270));
#86=EDGE_LOOP($,(#271));
#87=EDGE_LOOP($,(#272));
#88=EDGE_LOOP($,(#273));
#89=EDGE_LOOP($,(#274));
#90=EDGE_LOOP($,(#275));
#91=EDGE_LOOP($,(#276));
#92=EDGE_LOOP($,(#277));
#93=EDGE_LOOP($,(#278));
#94=EDGE_LOOP($,(#279,#280,#281,#282,#283,#284,#285,#286));
#95=EDGE_LOOP($,(#287));
#96=EDGE_LOOP($,(#288));
#97=EDGE_LOOP($,(#289));
#98=EDGE_LOOP($,(#290));
#99=EDGE_LOOP($,(#291));
#100=EDGE_LOOP($,(#292));
#101=EDGE_LOOP($,(#293));
#102=EDGE_LOOP($,(#294));
#103=EDGE_LOOP($,(#295));
#104=EDGE_LOOP($,(#296));
#105=EDGE_LOOP($,(#297));
#106=EDGE_LOOP($,(#298));
#107=EDGE_LOOP($,(#299));
#108=EDGE_LOOP($,(#300));
#109=EDGE_LOOP($,(#301));
#110=EDGE_LOOP($,(#302));
#111=EDGE_LOOP($,(#303));
#112=LINE($,#486,#136);
#113=LINE($,#488,#137);
#114=LINE($,#490,#138);
#115=LINE($,#491,#139);
#116=LINE($,#494,#140);
#117=LINE($,#496,#141);
#118=LINE($,#497,#142);
#119=LINE($,#500,#143);
#120=LINE($,#502,#144);
#121=LINE($,#503,#145);
#122=LINE($,#506,#146);
#123=LINE($,#508,#147);
#124=LINE($,#509,#148);
#125=LINE($,#512,#149);
#126=LINE($,#514,#150);
#127=LINE($,#515,#151);
#128=LINE($,#518,#152);
#129=LINE($,#520,#153);
#130=LINE($,#521,#154);
#131=LINE($,#524,#155);
#132=LINE($,#526,#156);
#133=LINE($,#527,#157);
#134=LINE($,#529,#158);
#135=LINE($,#530,#159);
#136=VECTOR($,#386,14.9116882454314);
#137=VECTOR($,#387,11.4);
#138=VECTOR($,#388,14.9116882454314);
#139=VECTOR($,#389,11.4);
#140=VECTOR($,#392,14.9116882454314);
#141=VECTOR($,#393,14.9116882454314);
#142=VECTOR($,#394,11.4);
#143=VECTOR($,#397,14.9116882454314);
#144=VECTOR($,#398,14.9116882454314);
#145=VECTOR($,#399,11.4);
#146=VECTOR($,#402,14.9116882454314);
#147=VECTOR($,#403,14.9116882454314);
#148=VECTOR($,#404,11.4);
#149=VECTOR($,#407,14.9116882454314);
#150=VECTOR($,#408,14.9116882454314);
#151=VECTOR($,#409,11.4);
#152=VECTOR($,#412,14.9116882454314);
#153=VECTOR($,#413,14.9116882454314);
#154=VECTOR($,#414,11.4);
#155=VECTOR($,#417,14.9116882454314);
#156=VECTOR($,#418,14.9116882454314);
#157=VECTOR($,#419,11.4);
#158=VECTOR($,#422,14.9116882454314);
#159=VECTOR($,#423,14.9116882454314);
#160=VERTEX_POINT($,#484);
#161=VERTEX_POINT($,#485);
#162=VERTEX_POINT($,#487);
#163=VERTEX_POINT($,#489);
#164=VERTEX_POINT($,#493);
#165=VERTEX_POINT($,#495);
#166=VERTEX_POINT($,#499);
#167=VERTEX_POINT($,#501);
#168=VERTEX_POINT($,#505);
#169=VERTEX_POINT($,#507);
#170=VERTEX_POINT($,#511);
#171=VERTEX_POINT($,#513);
#172=VERTEX_POINT($,#517);
#173=VERTEX_POINT($,#519);
#174=VERTEX_POINT($,#523);
#175=VERTEX_POINT($,#525);
#176=VERTEX_POINT($,#532);
#177=VERTEX_POINT($,#535);
#178=VERTEX_POINT($,#537);
#179=VERTEX_POINT($,#540);
#180=VERTEX_POINT($,#543);
#181=VERTEX_POINT($,#545);
#182=VERTEX_POINT($,#548);
#183=VERTEX_POINT($,#551);
#184=VERTEX_POINT($,#555);
#185=VERTEX_POINT($,#559);
#186=VERTEX_POINT($,#562);
#187=VERTEX_POINT($,#565);
#188=VERTEX_POINT($,#568);
#189=VERTEX_POINT($,#571);
#190=EDGE_CURVE($,#160,#161,#112,.T.);
#191=EDGE_CURVE($,#161,#162,#113,.T.);
#192=EDGE_CURVE($,#163,#162,#114,.T.);
#193=EDGE_CURVE($,#160,#163,#115,.T.);
#194=EDGE_CURVE($,#164,#160,#116,.T.);
#195=EDGE_CURVE($,#165,#163,#117,.T.);
#196=EDGE_CURVE($,#164,#165,#118,.T.);
#197=EDGE_CURVE($,#166,#164,#119,.T.);
#198=EDGE_CURVE($,#167,#165,#120,.T.);
#199=EDGE_CURVE($,#166,#167,#121,.T.);
#200=EDGE_CURVE($,#168,#166,#122,.T.);
#201=EDGE_CURVE($,#169,#167,#123,.T.);
#202=EDGE_CURVE($,#168,#169,#124,.T.);
#203=EDGE_CURVE($,#170,#168,#125,.T.);
#204=EDGE_CURVE($,#171,#169,#126,.T.);
#205=EDGE_CURVE($,#170,#171,#127,.T.);
#206=EDGE_CURVE($,#172,#170,#128,.T.);
#207=EDGE_CURVE($,#173,#171,#129,.T.);
#208=EDGE_CURVE($,#172,#173,#130,.T.);
#209=EDGE_CURVE($,#174,#172,#131,.T.);
#210=EDGE_CURVE($,#175,#173,#132,.T.);
#211=EDGE_CURVE($,#174,#175,#133,.T.);
#212=EDGE_CURVE($,#161,#174,#134,.T.);
#213=EDGE_CURVE($,#162,#175,#135,.T.);
#214=EDGE_CURVE($,#176,#176,#41,.T.);
#215=EDGE_CURVE($,#177,#177,#42,.T.);
#216=EDGE_CURVE($,#178,#178,#43,.T.);
#217=EDGE_CURVE($,#179,#179,#44,.T.);
#218=EDGE_CURVE($,#180,#180,#45,.T.);
#219=EDGE_CURVE($,#181,#181,#46,.T.);
#220=EDGE_CURVE($,#182,#182,#47,.T.);
#221=EDGE_CURVE($,#183,#183,#48,.T.);
#222=EDGE_CURVE($,#184,#184,#49,.T.);
#223=EDGE_CURVE($,#185,#185,#50,.T.);
#224=EDGE_CURVE($,#186,#186,#51,.T.);
#225=EDGE_CURVE($,#187,#187,#52,.T.);
#226=EDGE_CURVE($,#188,#188,#53,.T.);
#227=EDGE_CURVE($,#189,#189,#54,.T.);
#228=ORIENTED_EDGE($,*,*,#190,.T.);
#229=ORIENTED_EDGE($,*,*,#191,.T.);
#230=ORIENTED_EDGE($,*,*,#192,.F.);
#231=ORIENTED_EDGE($,*,*,#193,.F.);
#232=ORIENTED_EDGE($,*,*,#194,.T.);
#233=ORIENTED_EDGE($,*,*,#193,.T.);
#234=ORIENTED_EDGE($,*,*,#195,.F.);
#235=ORIENTED_EDGE($,*,*,#196,.F.);
#236=ORIENTED_EDGE($,*,*,#197,.T.);
#237=ORIENTED_EDGE($,*,*,#196,.T.);
#238=ORIENTED_EDGE($,*,*,#198,.F.);
#239=ORIENTED_EDGE($,*,*,#199,.F.);
#240=ORIENTED_EDGE($,*,*,#200,.T.);
#241=ORIENTED_EDGE($,*,*,#199,.T.);
#242=ORIENTED_EDGE($,*,*,#201,.F.);
#243=ORIENTED_EDGE($,*,*,#202,.F.);
#244=ORIENTED_EDGE($,*,*,#203,.T.);
#245=ORIENTED_EDGE($,*,*,#202,.T.);
#246=ORIENTED_EDGE($,*,*,#204,.F.);
#247=ORIENTED_EDGE($,*,*,#205,.F.);
#248=ORIENTED_EDGE($,*,*,#206,.T.);
#249=ORIENTED_EDGE($,*,*,#205,.T.);
#250=ORIENTED_EDGE($,*,*,#207,.F.);
#251=ORIENTED_EDGE($,*,*,#208,.F.);
#252=ORIENTED_EDGE($,*,*,#209,.T.);
#253=ORIENTED_EDGE($,*,*,#208,.T.);
#254=ORIENTED_EDGE($,*,*,#210,.F.);
#255=ORIENTED_EDGE($,*,*,#211,.F.);
#256=ORIENTED_EDGE($,*,*,#212,.T.);
#257=ORIENTED_EDGE($,*,*,#211,.T.);
#258=ORIENTED_EDGE($,*,*,#213,.F.);
#259=ORIENTED_EDGE($,*,*,#191,.F.);
#260=ORIENTED_EDGE($,*,*,#214,.F.);
#261=ORIENTED_EDGE($,*,*,#213,.T.);
#262=ORIENTED_EDGE($,*,*,#210,.T.);
#263=ORIENTED_EDGE($,*,*,#207,.T.);
#264=ORIENTED_EDGE($,*,*,#204,.T.);
#265=ORIENTED_EDGE($,*,*,#201,.T.);
#266=ORIENTED_EDGE($,*,*,#198,.T.);
#267=ORIENTED_EDGE($,*,*,#195,.T.);
#268=ORIENTED_EDGE($,*,*,#192,.T.);
#269=ORIENTED_EDGE($,*,*,#215,.T.);
#270=ORIENTED_EDGE($,*,*,#216,.F.);
#271=ORIENTED_EDGE($,*,*,#217,.F.);
#272=ORIENTED_EDGE($,*,*,#215,.F.);
#273=ORIENTED_EDGE($,*,*,#218,.F.);
#274=ORIENTED_EDGE($,*,*,#219,.T.);
#275=ORIENTED_EDGE($,*,*,#220,.F.);
#276=ORIENTED_EDGE($,*,*,#218,.T.);
#277=ORIENTED_EDGE($,*,*,#221,.F.);
#278=ORIENTED_EDGE($,*,*,#220,.T.);
#279=ORIENTED_EDGE($,*,*,#212,.F.);
#280=ORIENTED_EDGE($,*,*,#190,.F.);
#281=ORIENTED_EDGE($,*,*,#194,.F.);
#282=ORIENTED_EDGE($,*,*,#197,.F.);
#283=ORIENTED_EDGE($,*,*,#200,.F.);
#284=ORIENTED_EDGE($,*,*,#203,.F.);
#285=ORIENTED_EDGE($,*,*,#206,.F.);
#286=ORIENTED_EDGE($,*,*,#209,.F.);
#287=ORIENTED_EDGE($,*,*,#221,.T.);
#288=ORIENTED_EDGE($,*,*,#214,.T.);
#289=ORIENTED_EDGE($,*,*,#222,.F.);
#290=ORIENTED_EDGE($,*,*,#216,.T.);
#291=ORIENTED_EDGE($,*,*,#222,.T.);
#292=ORIENTED_EDGE($,*,*,#217,.T.);
#293=ORIENTED_EDGE($,*,*,#223,.F.);
#294=ORIENTED_EDGE($,*,*,#224,.F.);
#295=ORIENTED_EDGE($,*,*,#223,.T.);
#296=ORIENTED_EDGE($,*,*,#225,.F.);
#297=ORIENTED_EDGE($,*,*,#224,.T.);
#298=ORIENTED_EDGE($,*,*,#226,.F.);
#299=ORIENTED_EDGE($,*,*,#225,.T.);
#300=ORIENTED_EDGE($,*,*,#227,.F.);
#301=ORIENTED_EDGE($,*,*,#226,.T.);
#302=ORIENTED_EDGE($,*,*,#219,.F.);
#303=ORIENTED_EDGE($,*,*,#227,.T.);
#304=PLANE($,#345);
#305=PLANE($,#346);
#306=PLANE($,#347);
#307=PLANE($,#348);
#308=PLANE($,#349);
#309=PLANE($,#350);
#310=PLANE($,#351);
#311=PLANE($,#352);
#312=PLANE($,#353);
#313=PLANE($,#358);
#314=PLANE($,#360);
#315=PLANE($,#367);
#316=PLANE($,#370);
#317=PLANE($,#375);
#318=PLANE($,#379);
#319=ADVANCED_FACE($,(#55),#304,.T.);
#320=ADVANCED_FACE($,(#56),#305,.T.);
#321=ADVANCED_FACE($,(#57),#306,.T.);
#322=ADVANCED_FACE($,(#58),#307,.T.);
#323=ADVANCED_FACE($,(#59),#308,.T.);
#324=ADVANCED_FACE($,(#60),#309,.T.);
#325=ADVANCED_FACE($,(#61),#310,.T.);
#326=ADVANCED_FACE($,(#62),#311,.T.);
#327=ADVANCED_FACE($,(#22,#23),#312,.T.);
#328=ADVANCED_FACE($,(#63,#24),#16,.F.);
#329=ADVANCED_FACE($,(#25,#26),#313,.T.);
#330=ADVANCED_FACE($,(#64,#27),#314,.T.);
#331=ADVANCED_FACE($,(#65,#28),#17,.T.);
#332=ADVANCED_FACE($,(#66,#29),#14,.F.);
#333=ADVANCED_FACE($,(#67,#30),#315,.T.);
#334=ADVANCED_FACE($,(#68,#31),#18,.T.);
#335=ADVANCED_FACE($,(#32,#33),#316,.T.);
#336=ADVANCED_FACE($,(#69,#34),#19,.F.);
#337=ADVANCED_FACE($,(#70,#35),#15,.F.);
#338=ADVANCED_FACE($,(#36,#37),#317,.T.);
#339=ADVANCED_FACE($,(#71,#38),#20,.F.);
#340=ADVANCED_FACE($,(#72,#39),#318,.T.);
#341=ADVANCED_FACE($,(#73,#40),#21,.F.);
#342=CLOSED_SHELL($,(#319,#320,#321,#322,#323,#324,#325,#326,#327,#328,
#329,#330,#331,#332,#333,#334,#335,#336,#337,#338,#339,#340,#341));
#343=MANIFOLD_SOLID_BREP('Solido1',#342);
#344=AXIS2_PLACEMENT_3D('placement',#482,#382,#383);
#345=AXIS2_PLACEMENT_3D($,#483,#384,#385);
#346=AXIS2_PLACEMENT_3D($,#492,#390,#391);
#347=AXIS2_PLACEMENT_3D($,#498,#395,#396);
#348=AXIS2_PLACEMENT_3D($,#504,#400,#401);
#349=AXIS2_PLACEMENT_3D($,#510,#405,#406);
#350=AXIS2_PLACEMENT_3D($,#516,#410,#411);
#351=AXIS2_PLACEMENT_3D($,#522,#415,#416);
#352=AXIS2_PLACEMENT_3D($,#528,#420,#421);
#353=AXIS2_PLACEMENT_3D($,#531,#424,#425);
#354=AXIS2_PLACEMENT_3D($,#533,#426,#427);
#355=AXIS2_PLACEMENT_3D($,#534,#428,#429);
#356=AXIS2_PLACEMENT_3D($,#536,#430,#431);
#357=AXIS2_PLACEMENT_3D($,#538,#432,#433);
#358=AXIS2_PLACEMENT_3D($,#539,#434,#435);
#359=AXIS2_PLACEMENT_3D($,#541,#436,#437);
#360=AXIS2_PLACEMENT_3D($,#542,#438,#439);
#361=AXIS2_PLACEMENT_3D($,#544,#440,#441);
#362=AXIS2_PLACEMENT_3D($,#546,#442,#443);
#363=AXIS2_PLACEMENT_3D($,#547,#444,#445);
#364=AXIS2_PLACEMENT_3D($,#549,#446,#447);
#365=AXIS2_PLACEMENT_3D($,#550,#448,#449);
#366=AXIS2_PLACEMENT_3D($,#552,#450,#451);
#367=AXIS2_PLACEMENT_3D($,#553,#452,#453);
#368=AXIS2_PLACEMENT_3D($,#554,#454,#455);
#369=AXIS2_PLACEMENT_3D($,#556,#456,#457);
#370=AXIS2_PLACEMENT_3D($,#557,#458,#459);
#371=AXIS2_PLACEMENT_3D($,#558,#460,#461);
#372=AXIS2_PLACEMENT_3D($,#560,#462,#463);
#373=AXIS2_PLACEMENT_3D($,#561,#464,#465);
#374=AXIS2_PLACEMENT_3D($,#563,#466,#467);
#375=AXIS2_PLACEMENT_3D($,#564,#468,#469);
#376=AXIS2_PLACEMENT_3D($,#566,#470,#471);
#377=AXIS2_PLACEMENT_3D($,#567,#472,#473);
#378=AXIS2_PLACEMENT_3D($,#569,#474,#475);
#379=AXIS2_PLACEMENT_3D($,#570,#476,#477);
#380=AXIS2_PLACEMENT_3D($,#572,#478,#479);
#381=AXIS2_PLACEMENT_3D($,#573,#480,#481);
#382=DIRECTION('axis',(0.,0.,1.));
#383=DIRECTION('refdir',(1.,0.,0.));
#384=DIRECTION('center_axis',(0.38268343236509,0.923879532511287,0.));
#385=DIRECTION('ref_axis',(-0.923879532511287,0.38268343236509,0.));
#386=DIRECTION($,(-0.923879532511287,0.38268343236509,0.));
#387=DIRECTION($,(0.,0.,1.));
#388=DIRECTION($,(-0.923879532511287,0.38268343236509,0.));
#389=DIRECTION($,(0.,0.,1.));
#390=DIRECTION('center_axis',(0.923879532511287,0.38268343236509,0.));
#391=DIRECTION('ref_axis',(-0.38268343236509,0.923879532511287,0.));
#392=DIRECTION($,(-0.38268343236509,0.923879532511287,0.));
#393=DIRECTION($,(-0.38268343236509,0.923879532511287,0.));
#394=DIRECTION($,(0.,0.,1.));
#395=DIRECTION('center_axis',(0.923879532511287,-0.38268343236509,0.));
#396=DIRECTION('ref_axis',(0.38268343236509,0.923879532511287,0.));
#397=DIRECTION($,(0.38268343236509,0.923879532511287,0.));
#398=DIRECTION($,(0.38268343236509,0.923879532511287,0.));
#399=DIRECTION($,(0.,0.,1.));
#400=DIRECTION('center_axis',(0.38268343236509,-0.923879532511287,0.));
#401=DIRECTION('ref_axis',(0.923879532511287,0.38268343236509,0.));
#402=DIRECTION($,(0.923879532511287,0.38268343236509,0.));
#403=DIRECTION($,(0.923879532511287,0.38268343236509,0.));
#404=DIRECTION($,(0.,0.,1.));
#405=DIRECTION('center_axis',(-0.38268343236509,-0.923879532511287,0.));
#406=DIRECTION('ref_axis',(0.923879532511287,-0.38268343236509,0.));
#407=DIRECTION($,(0.923879532511287,-0.38268343236509,0.));
#408=DIRECTION($,(0.923879532511287,-0.38268343236509,0.));
#409=DIRECTION($,(0.,0.,1.));
#410=DIRECTION('center_axis',(-0.923879532511287,-0.38268343236509,0.));
#411=DIRECTION('ref_axis',(0.38268343236509,-0.923879532511287,0.));
#412=DIRECTION($,(0.38268343236509,-0.923879532511287,0.));
#413=DIRECTION($,(0.38268343236509,-0.923879532511287,0.));
#414=DIRECTION($,(0.,0.,1.));
#415=DIRECTION('center_axis',(-0.923879532511287,0.38268343236509,0.));
#416=DIRECTION('ref_axis',(-0.38268343236509,-0.923879532511287,0.));
#417=DIRECTION($,(-0.38268343236509,-0.923879532511287,0.));
#418=DIRECTION($,(-0.38268343236509,-0.923879532511287,0.));
#419=DIRECTION($,(0.,0.,1.));
#420=DIRECTION('center_axis',(-0.38268343236509,0.923879532511287,0.));
#421=DIRECTION('ref_axis',(-0.923879532511287,-0.38268343236509,0.));
#422=DIRECTION($,(-0.923879532511287,-0.38268343236509,0.));
#423=DIRECTION($,(-0.923879532511287,-0.38268343236509,0.));
#424=DIRECTION('center_axis',(0.,0.,1.));
#425=DIRECTION('ref_axis',(1.,0.,0.));
#426=DIRECTION('center_axis',(0.,0.,1.));
#427=DIRECTION('ref_axis',(0.,-1.,0.));
#428=DIRECTION('center_axis',(0.,0.,-1.));
#429=DIRECTION('ref_axis',(-1.,0.,0.));
#430=DIRECTION('center_axis',(0.,0.,-1.));
#431=DIRECTION('ref_axis',(-1.,0.,0.));
#432=DIRECTION('center_axis',(0.,0.,-1.));
#433=DIRECTION('ref_axis',(-1.,0.,0.));
#434=DIRECTION('center_axis',(0.,0.,1.));
#435=DIRECTION('ref_axis',(1.,0.,0.));
#436=DIRECTION('center_axis',(0.,0.,1.));
#437=DIRECTION('ref_axis',(0.,-1.,0.));
#438=DIRECTION('center_axis',(0.,0.,-1.));
#439=DIRECTION('ref_axis',(-1.,0.,0.));
#440=DIRECTION('center_axis',(0.,0.,1.));
#441=DIRECTION('ref_axis',(0.,-1.,0.));
#442=DIRECTION('center_axis',(0.,0.,1.));
#443=DIRECTION('ref_axis',(0.,-1.,0.));
#444=DIRECTION('center_axis',(0.,0.,1.));
#445=DIRECTION('ref_axis',(0.,-1.,0.));
#446=DIRECTION('center_axis',(0.,0.,1.));
#447=DIRECTION('ref_axis',(0.,-1.,0.));
#448=DIRECTION('center_axis',(0.,0.,1.));
#449=DIRECTION('ref_axis',(1.,0.,0.));
#450=DIRECTION('center_axis',(0.,0.,1.));
#451=DIRECTION('ref_axis',(0.,-1.,0.));
#452=DIRECTION('center_axis',(0.,0.,-1.));
#453=DIRECTION('ref_axis',(-1.,0.,0.));
#454=DIRECTION('center_axis',(0.,0.,1.));
#455=DIRECTION('ref_axis',(0.,-1.,0.));
#456=DIRECTION('center_axis',(0.,0.,1.));
#457=DIRECTION('ref_axis',(0.,-1.,0.));
#458=DIRECTION('center_axis',(0.,0.,1.));
#459=DIRECTION('ref_axis',(1.,0.,0.));
#460=DIRECTION('center_axis',(0.,0.,1.));
#461=DIRECTION('ref_axis',(0.,-1.,0.));
#462=DIRECTION('center_axis',(0.,0.,1.));
#463=DIRECTION('ref_axis',(0.,-1.,0.));
#464=DIRECTION('center_axis',(0.,0.,1.));
#465=DIRECTION('ref_axis',(1.,0.,0.));
#466=DIRECTION('center_axis',(0.,0.,1.));
#467=DIRECTION('ref_axis',(0.,-1.,0.));
#468=DIRECTION('center_axis',(0.,0.,1.));
#469=DIRECTION('ref_axis',(1.,0.,0.));
#470=DIRECTION('center_axis',(0.,0.,1.));
#471=DIRECTION('ref_axis',(0.,-1.,0.));
#472=DIRECTION('center_axis',(0.,0.,1.));
#473=DIRECTION('ref_axis',(0.,-1.,0.));
#474=DIRECTION('center_axis',(0.,0.,1.));
#475=DIRECTION('ref_axis',(0.,-1.,0.));
#476=DIRECTION('center_axis',(0.,0.,-1.));
#477=DIRECTION('ref_axis',(-1.,0.,0.));
#478=DIRECTION('center_axis',(0.,0.,1.));
#479=DIRECTION('ref_axis',(0.,-1.,0.));
#480=DIRECTION('center_axis',(0.,0.,1.));
#481=DIRECTION('ref_axis',(0.,-1.,0.));
#482=CARTESIAN_POINT('',(0.,0.,0.));
#483=CARTESIAN_POINT('Origin',(13.7766035651432,13.7766035651432,16.2));
#484=CARTESIAN_POINT('',(13.7766035651432,13.7766035651432,16.2));
#485=CARTESIAN_POINT('',(0.,19.4830596052631,16.2));
#486=CARTESIAN_POINT($,(13.7766035651432,13.7766035651432,16.2));
#487=CARTESIAN_POINT('',(0.,19.4830596052631,27.6));
#488=CARTESIAN_POINT($,(0.,19.4830596052631,16.2));
#489=CARTESIAN_POINT('',(13.7766035651432,13.7766035651432,27.6));
#490=CARTESIAN_POINT($,(13.7766035651432,13.7766035651432,27.6));
#491=CARTESIAN_POINT($,(13.7766035651432,13.7766035651432,16.2));
#492=CARTESIAN_POINT('Origin',(19.4830596052631,9.45357567418561E-017,16.2));
#493=CARTESIAN_POINT('',(19.4830596052631,9.45357567418561E-017,16.2));
#494=CARTESIAN_POINT($,(19.4830596052631,9.45357567418561E-017,16.2));
#495=CARTESIAN_POINT('',(19.4830596052631,0.,27.6));
#496=CARTESIAN_POINT($,(19.4830596052631,9.45357567418561E-017,27.6));
#497=CARTESIAN_POINT($,(19.4830596052631,9.45357567418561E-017,16.2));
#498=CARTESIAN_POINT('Origin',(13.7766035651432,-13.7766035651432,16.2));
#499=CARTESIAN_POINT('',(13.7766035651432,-13.7766035651432,16.2));
#500=CARTESIAN_POINT($,(13.7766035651432,-13.7766035651432,16.2));
#501=CARTESIAN_POINT('',(13.7766035651432,-13.7766035651432,27.6));
#502=CARTESIAN_POINT($,(13.7766035651432,-13.7766035651432,27.6));
#503=CARTESIAN_POINT($,(13.7766035651432,-13.7766035651432,16.2));
#504=CARTESIAN_POINT('Origin',(1.42007424357687E-016,-19.4830596052631,
16.2));
#505=CARTESIAN_POINT('',(1.42007424357687E-016,-19.4830596052631,16.2));
#506=CARTESIAN_POINT($,(1.42007424357687E-016,-19.4830596052631,16.2));
#507=CARTESIAN_POINT('',(1.42007424357687E-016,-19.4830596052631,27.6));
#508=CARTESIAN_POINT($,(1.42007424357687E-016,-19.4830596052631,27.6));
#509=CARTESIAN_POINT($,(1.42007424357687E-016,-19.4830596052631,16.2));
#510=CARTESIAN_POINT('Origin',(-13.7766035651432,-13.7766035651432,16.2));
#511=CARTESIAN_POINT('',(-13.7766035651432,-13.7766035651432,16.2));
#512=CARTESIAN_POINT($,(-13.7766035651432,-13.7766035651432,16.2));
#513=CARTESIAN_POINT('',(-13.7766035651432,-13.7766035651432,27.6));
#514=CARTESIAN_POINT($,(-13.7766035651432,-13.7766035651432,27.6));
#515=CARTESIAN_POINT($,(-13.7766035651432,-13.7766035651432,16.2));
#516=CARTESIAN_POINT('Origin',(-19.4830596052631,-2.08201464776999E-015,
16.2));
#517=CARTESIAN_POINT('',(-19.4830596052631,-2.08201464776999E-015,16.2));
#518=CARTESIAN_POINT($,(-19.4830596052631,-2.08201464776999E-015,16.2));
#519=CARTESIAN_POINT('',(-19.4830596052631,-2.22044604925031E-015,27.6));
#520=CARTESIAN_POINT($,(-19.4830596052631,-2.08201464776999E-015,27.6));
#521=CARTESIAN_POINT($,(-19.4830596052631,-2.08201464776999E-015,16.2));
#522=CARTESIAN_POINT('Origin',(-13.7766035651432,13.7766035651432,16.2));
#523=CARTESIAN_POINT('',(-13.7766035651432,13.7766035651432,16.2));
#524=CARTESIAN_POINT($,(-13.7766035651432,13.7766035651432,16.2));
#525=CARTESIAN_POINT('',(-13.7766035651432,13.7766035651432,27.6));
#526=CARTESIAN_POINT($,(-13.7766035651432,13.7766035651432,27.6));
#527=CARTESIAN_POINT($,(-13.7766035651432,13.7766035651432,16.2));
#528=CARTESIAN_POINT('Origin',(0.,19.4830596052631,16.2));
#529=CARTESIAN_POINT($,(0.,19.4830596052631,16.2));
#530=CARTESIAN_POINT($,(0.,19.4830596052631,27.6));
#531=CARTESIAN_POINT('Origin',(-1.39599764755673E-016,5.58399059022694E-016,
27.6));
#532=CARTESIAN_POINT('',(-17.4,2.13088543051639E-015,27.6));
#533=CARTESIAN_POINT('Origin',(0.,0.,27.6));
#534=CARTESIAN_POINT('Origin',(0.,0.,45.));
#535=CARTESIAN_POINT('',(13.6,1.6655196468404E-015,43.3));
#536=CARTESIAN_POINT('Origin',(0.,0.,43.3));
#537=CARTESIAN_POINT('',(13.6,1.6655196468404E-015,45.));
#538=CARTESIAN_POINT('Origin',(0.,0.,45.));
#539=CARTESIAN_POINT('Origin',(-6.83020276758835E-016,-2.72113486427734E-016,
43.3));
#540=CARTESIAN_POINT('',(12.0585,1.47674034275184E-015,43.3));
#541=CARTESIAN_POINT('Origin',(0.,0.,43.3));
#542=CARTESIAN_POINT('Origin',(0.,-11.25,-1.19884738778653E-016));
#543=CARTESIAN_POINT('',(0.,-12.5,0.));
#544=CARTESIAN_POINT('Origin',(0.,0.,0.));
#545=CARTESIAN_POINT('',(0.,-10.,-2.39769477557306E-016));
#546=CARTESIAN_POINT('Origin',(0.,0.,-2.38524477946811E-016));
#547=CARTESIAN_POINT('Origin',(0.,0.,7.60000000000001));
#548=CARTESIAN_POINT('',(0.,-12.5,15.2));
#549=CARTESIAN_POINT('Origin',(0.,0.,15.2));
#550=CARTESIAN_POINT('Origin',(0.,0.,15.2));
#551=CARTESIAN_POINT('',(0.,-13.5,16.2));
#552=CARTESIAN_POINT('Origin',(0.,0.,16.2));
#553=CARTESIAN_POINT('Origin',(0.,-15.45,16.2));
#554=CARTESIAN_POINT('Origin',(0.,0.,30.6));
#555=CARTESIAN_POINT('',(0.,-17.4,45.));
#556=CARTESIAN_POINT('Origin',(0.,0.,45.));
#557=CARTESIAN_POINT('Origin',(0.,-14.72925,45.));
#558=CARTESIAN_POINT('Origin',(0.,0.,35.25));
#559=CARTESIAN_POINT('',(0.,-12.0585,25.5));
#560=CARTESIAN_POINT('Origin',(0.,0.,25.5));
#561=CARTESIAN_POINT('Origin',(0.,0.,25.5));
#562=CARTESIAN_POINT('',(0.,-11.0585,24.5));
#563=CARTESIAN_POINT('Origin',(0.,0.,24.5));
#564=CARTESIAN_POINT('Origin',(0.,-10.02925,24.5));
#565=CARTESIAN_POINT('',(0.,-9.00000000000001,24.5));
#566=CARTESIAN_POINT('Origin',(0.,0.,24.5));
#567=CARTESIAN_POINT('Origin',(0.,0.,20.35));
#568=CARTESIAN_POINT('',(0.,-9.00000000000001,16.2));
#569=CARTESIAN_POINT('Origin',(0.,0.,16.2));
#570=CARTESIAN_POINT('Origin',(0.,-9.50000000000001,16.2));
#571=CARTESIAN_POINT('',(0.,-10.,16.2));
#572=CARTESIAN_POINT('Origin',(0.,0.,16.2));
#573=CARTESIAN_POINT('Origin',(0.,0.,8.1));
#574=UNCERTAINTY_MEASURE_WITH_UNIT(LENGTH_MEASURE(0.01),#576,
'DISTANCE_ACCURACY_VALUE',
'Maximum model space distance between geometric entities at asserted c
onnectivities');
#575=(
GEOMETRIC_REPRESENTATION_CONTEXT(3)
GLOBAL_UNCERTAINTY_ASSIGNED_CONTEXT((#574))
GLOBAL_UNIT_ASSIGNED_CONTEXT((#576,#579,#577))
REPRESENTATION_CONTEXT('','3D')
);
#576=(
LENGTH_UNIT()
NAMED_UNIT(*)
SI_UNIT(.MILLI.,.METRE.)
);
#577=(
NAMED_UNIT(*)
SI_UNIT($,.STERADIAN.)
SOLID_ANGLE_UNIT()
);
#578=DIMENSIONAL_EXPONENTS(0.,0.,0.,0.,0.,0.,0.);
#579=(
CONVERSION_BASED_UNIT('degree',#581)
NAMED_UNIT(#578)
PLANE_ANGLE_UNIT()
);
#580=(
NAMED_UNIT(*)
PLANE_ANGLE_UNIT()
SI_UNIT($,.RADIAN.)
);
#581=PLANE_ANGLE_MEASURE_WITH_UNIT(PLANE_ANGLE_MEASURE(0.01745329252),#580);
#582=SHAPE_DEFINITION_REPRESENTATION(#583,#584);
#583=PRODUCT_DEFINITION_SHAPE('',$,#586);
#584=SHAPE_REPRESENTATION('',(#344),#575);
#585=PRODUCT_DEFINITION_CONTEXT('3D Mechanical Parts',#589,'design');
#586=PRODUCT_DEFINITION('DIFV025020034','DIFV025020034',#587,#585);
#587=PRODUCT_DEFINITION_FORMATION('',$,#591);
#588=APPLICATION_PROTOCOL_DEFINITION('international standard',
'automotive_design',2009,#589);
#589=APPLICATION_CONTEXT(
'Core Data for Automotive Mechanical Design Process');
#590=PRODUCT_CONTEXT('3D Mechanical Parts',#589,'mechanical');
#591=PRODUCT('DIFV025020034','DIFV025020034',$,(#590));
#592=PRESENTATION_STYLE_ASSIGNMENT((#594));
#593=PRESENTATION_STYLE_ASSIGNMENT((#595));
#594=SURFACE_STYLE_USAGE(.BOTH.,#596);
#595=SURFACE_STYLE_USAGE(.BOTH.,#597);
#596=SURFACE_SIDE_STYLE($,(#598));
#597=SURFACE_SIDE_STYLE($,(#599));
#598=SURFACE_STYLE_FILL_AREA(#600);
#599=SURFACE_STYLE_FILL_AREA(#601);
#600=FILL_AREA_STYLE($,(#602));
#601=FILL_AREA_STYLE($,(#603));
#602=FILL_AREA_STYLE_COLOUR($,#604);
#603=FILL_AREA_STYLE_COLOUR($,#605);
#604=COLOUR_RGB('',0.509803921568627,0.509803921568627,0.588235294117647);
#605=COLOUR_RGB('',1.,0.,0.);
ENDSEC;
END-ISO-10303-21;
