ISO-10303-21;
HEADER;
/* Generated by software containing ST-Developer
 * from STEP Tools, Inc. (www.steptools.com) 
 */

FILE_DESCRIPTION(
/* description */ (''),
/* implementation_level */ '2;1');

FILE_NAME(
/* name */ 'C:\\Users\\Gabriele\\Desktop\\catalogo\\EY50\\EY500900.stp',

/* time_stamp */ '2016-10-17T15:02:11+02:00',
/* author */ ('Gabriele'),
/* organization */ (''),
/* preprocessor_version */ 'ST-DEVELOPER v16.5',
/* originating_system */ 'Autodesk Inventor 2017',
/* authorisation */ '');

FILE_SCHEMA (('AUTOMOTIVE_DESIGN { 1 0 10303 214 3 1 1 }'));
ENDSEC;

DATA;
#10=MECHANICAL_DESIGN_GEOMETRIC_PRESENTATION_REPRESENTATION('',(#13),#303);
#11=SHAPE_REPRESENTATION_RELATIONSHIP('SRR','None',#312,#12);
#12=ADVANCED_BREP_SHAPE_REPRESENTATION('',(#14),#302);
#13=STYLED_ITEM('',(#321),#14);
#14=MANIFOLD_SOLID_BREP('Solido1',#169);
#15=CYLINDRICAL_SURFACE('',#176,45.);
#16=CYLINDRICAL_SURFACE('',#180,53.);
#17=CYLINDRICAL_SURFACE('',#187,45.);
#18=CYLINDRICAL_SURFACE('',#191,53.);
#19=PLANE('',#174);
#20=PLANE('',#185);
#21=PLANE('',#196);
#22=PLANE('',#197);
#23=FACE_BOUND('',#52,.T.);
#24=FACE_BOUND('',#54,.T.);
#25=FACE_BOUND('',#56,.T.);
#26=FACE_BOUND('',#58,.T.);
#27=FACE_BOUND('',#60,.T.);
#28=FACE_BOUND('',#62,.T.);
#29=FACE_BOUND('',#64,.T.);
#30=FACE_BOUND('',#66,.T.);
#31=FACE_BOUND('',#68,.T.);
#32=FACE_BOUND('',#70,.T.);
#33=FACE_BOUND('',#72,.T.);
#34=FACE_BOUND('',#74,.T.);
#35=FACE_BOUND('',#76,.T.);
#36=FACE_BOUND('',#78,.T.);
#37=FACE_OUTER_BOUND('',#51,.T.);
#38=FACE_OUTER_BOUND('',#53,.T.);
#39=FACE_OUTER_BOUND('',#55,.T.);
#40=FACE_OUTER_BOUND('',#57,.T.);
#41=FACE_OUTER_BOUND('',#59,.T.);
#42=FACE_OUTER_BOUND('',#61,.T.);
#43=FACE_OUTER_BOUND('',#63,.T.);
#44=FACE_OUTER_BOUND('',#65,.T.);
#45=FACE_OUTER_BOUND('',#67,.T.);
#46=FACE_OUTER_BOUND('',#69,.T.);
#47=FACE_OUTER_BOUND('',#71,.T.);
#48=FACE_OUTER_BOUND('',#73,.T.);
#49=FACE_OUTER_BOUND('',#75,.T.);
#50=FACE_OUTER_BOUND('',#77,.T.);
#51=EDGE_LOOP('',(#121));
#52=EDGE_LOOP('',(#122));
#53=EDGE_LOOP('',(#123));
#54=EDGE_LOOP('',(#124));
#55=EDGE_LOOP('',(#125));
#56=EDGE_LOOP('',(#126));
#57=EDGE_LOOP('',(#127));
#58=EDGE_LOOP('',(#128));
#59=EDGE_LOOP('',(#129));
#60=EDGE_LOOP('',(#130));
#61=EDGE_LOOP('',(#131));
#62=EDGE_LOOP('',(#132));
#63=EDGE_LOOP('',(#133));
#64=EDGE_LOOP('',(#134));
#65=EDGE_LOOP('',(#135));
#66=EDGE_LOOP('',(#136));
#67=EDGE_LOOP('',(#137));
#68=EDGE_LOOP('',(#138));
#69=EDGE_LOOP('',(#139));
#70=EDGE_LOOP('',(#140));
#71=EDGE_LOOP('',(#141));
#72=EDGE_LOOP('',(#142));
#73=EDGE_LOOP('',(#143));
#74=EDGE_LOOP('',(#144));
#75=EDGE_LOOP('',(#145));
#76=EDGE_LOOP('',(#146));
#77=EDGE_LOOP('',(#147));
#78=EDGE_LOOP('',(#148));
#79=CIRCLE('',#172,45.);
#80=CIRCLE('',#173,45.5);
#81=CIRCLE('',#175,52.5);
#82=CIRCLE('',#177,45.);
#83=CIRCLE('',#179,53.);
#84=CIRCLE('',#181,53.);
#85=CIRCLE('',#183,45.);
#86=CIRCLE('',#184,45.5);
#87=CIRCLE('',#186,52.5);
#88=CIRCLE('',#188,45.);
#89=CIRCLE('',#190,53.);
#90=CIRCLE('',#192,53.);
#91=CIRCLE('',#194,44.);
#92=CIRCLE('',#195,44.);
#93=VERTEX_POINT('',#259);
#94=VERTEX_POINT('',#261);
#95=VERTEX_POINT('',#264);
#96=VERTEX_POINT('',#267);
#97=VERTEX_POINT('',#270);
#98=VERTEX_POINT('',#273);
#99=VERTEX_POINT('',#276);
#100=VERTEX_POINT('',#278);
#101=VERTEX_POINT('',#281);
#102=VERTEX_POINT('',#284);
#103=VERTEX_POINT('',#287);
#104=VERTEX_POINT('',#290);
#105=VERTEX_POINT('',#293);
#106=VERTEX_POINT('',#295);
#107=EDGE_CURVE('',#93,#93,#79,.T.);
#108=EDGE_CURVE('',#94,#94,#80,.T.);
#109=EDGE_CURVE('',#95,#95,#81,.T.);
#110=EDGE_CURVE('',#96,#96,#82,.T.);
#111=EDGE_CURVE('',#97,#97,#83,.T.);
#112=EDGE_CURVE('',#98,#98,#84,.T.);
#113=EDGE_CURVE('',#99,#99,#85,.T.);
#114=EDGE_CURVE('',#100,#100,#86,.T.);
#115=EDGE_CURVE('',#101,#101,#87,.T.);
#116=EDGE_CURVE('',#102,#102,#88,.T.);
#117=EDGE_CURVE('',#103,#103,#89,.T.);
#118=EDGE_CURVE('',#104,#104,#90,.T.);
#119=EDGE_CURVE('',#105,#105,#91,.T.);
#120=EDGE_CURVE('',#106,#106,#92,.T.);
#121=ORIENTED_EDGE('',*,*,#107,.T.);
#122=ORIENTED_EDGE('',*,*,#108,.T.);
#123=ORIENTED_EDGE('',*,*,#109,.F.);
#124=ORIENTED_EDGE('',*,*,#108,.F.);
#125=ORIENTED_EDGE('',*,*,#110,.T.);
#126=ORIENTED_EDGE('',*,*,#107,.F.);
#127=ORIENTED_EDGE('',*,*,#111,.T.);
#128=ORIENTED_EDGE('',*,*,#109,.T.);
#129=ORIENTED_EDGE('',*,*,#112,.F.);
#130=ORIENTED_EDGE('',*,*,#111,.F.);
#131=ORIENTED_EDGE('',*,*,#113,.T.);
#132=ORIENTED_EDGE('',*,*,#114,.T.);
#133=ORIENTED_EDGE('',*,*,#115,.F.);
#134=ORIENTED_EDGE('',*,*,#114,.F.);
#135=ORIENTED_EDGE('',*,*,#116,.F.);
#136=ORIENTED_EDGE('',*,*,#113,.F.);
#137=ORIENTED_EDGE('',*,*,#117,.T.);
#138=ORIENTED_EDGE('',*,*,#115,.T.);
#139=ORIENTED_EDGE('',*,*,#118,.T.);
#140=ORIENTED_EDGE('',*,*,#117,.F.);
#141=ORIENTED_EDGE('',*,*,#119,.F.);
#142=ORIENTED_EDGE('',*,*,#120,.F.);
#143=ORIENTED_EDGE('',*,*,#116,.T.);
#144=ORIENTED_EDGE('',*,*,#119,.T.);
#145=ORIENTED_EDGE('',*,*,#110,.F.);
#146=ORIENTED_EDGE('',*,*,#120,.T.);
#147=ORIENTED_EDGE('',*,*,#118,.F.);
#148=ORIENTED_EDGE('',*,*,#112,.T.);
#149=TOROIDAL_SURFACE('',#171,45.5,0.5);
#150=TOROIDAL_SURFACE('',#178,52.5,0.5);
#151=TOROIDAL_SURFACE('',#182,45.5,0.5);
#152=TOROIDAL_SURFACE('',#189,52.5,0.5);
#153=TOROIDAL_SURFACE('',#193,54.8756445248078,44.);
#154=TOROIDAL_SURFACE('',#198,54.8756445248078,53.);
#155=ADVANCED_FACE('',(#37,#23),#149,.T.);
#156=ADVANCED_FACE('',(#38,#24),#19,.F.);
#157=ADVANCED_FACE('',(#39,#25),#15,.F.);
#158=ADVANCED_FACE('',(#40,#26),#150,.T.);
#159=ADVANCED_FACE('',(#41,#27),#16,.T.);
#160=ADVANCED_FACE('',(#42,#28),#151,.T.);
#161=ADVANCED_FACE('',(#43,#29),#20,.T.);
#162=ADVANCED_FACE('',(#44,#30),#17,.F.);
#163=ADVANCED_FACE('',(#45,#31),#152,.T.);
#164=ADVANCED_FACE('',(#46,#32),#18,.T.);
#165=ADVANCED_FACE('',(#47,#33),#153,.F.);
#166=ADVANCED_FACE('',(#48,#34),#21,.T.);
#167=ADVANCED_FACE('',(#49,#35),#22,.F.);
#168=ADVANCED_FACE('',(#50,#36),#154,.T.);
#169=CLOSED_SHELL('',(#155,#156,#157,#158,#159,#160,#161,#162,#163,#164,
#165,#166,#167,#168));
#170=AXIS2_PLACEMENT_3D('placement',#257,#199,#200);
#171=AXIS2_PLACEMENT_3D('',#258,#201,#202);
#172=AXIS2_PLACEMENT_3D('',#260,#203,#204);
#173=AXIS2_PLACEMENT_3D('',#262,#205,#206);
#174=AXIS2_PLACEMENT_3D('',#263,#207,#208);
#175=AXIS2_PLACEMENT_3D('',#265,#209,#210);
#176=AXIS2_PLACEMENT_3D('',#266,#211,#212);
#177=AXIS2_PLACEMENT_3D('',#268,#213,#214);
#178=AXIS2_PLACEMENT_3D('',#269,#215,#216);
#179=AXIS2_PLACEMENT_3D('',#271,#217,#218);
#180=AXIS2_PLACEMENT_3D('',#272,#219,#220);
#181=AXIS2_PLACEMENT_3D('',#274,#221,#222);
#182=AXIS2_PLACEMENT_3D('',#275,#223,#224);
#183=AXIS2_PLACEMENT_3D('',#277,#225,#226);
#184=AXIS2_PLACEMENT_3D('',#279,#227,#228);
#185=AXIS2_PLACEMENT_3D('',#280,#229,#230);
#186=AXIS2_PLACEMENT_3D('',#282,#231,#232);
#187=AXIS2_PLACEMENT_3D('',#283,#233,#234);
#188=AXIS2_PLACEMENT_3D('',#285,#235,#236);
#189=AXIS2_PLACEMENT_3D('',#286,#237,#238);
#190=AXIS2_PLACEMENT_3D('',#288,#239,#240);
#191=AXIS2_PLACEMENT_3D('',#289,#241,#242);
#192=AXIS2_PLACEMENT_3D('',#291,#243,#244);
#193=AXIS2_PLACEMENT_3D('',#292,#245,#246);
#194=AXIS2_PLACEMENT_3D('',#294,#247,#248);
#195=AXIS2_PLACEMENT_3D('',#296,#249,#250);
#196=AXIS2_PLACEMENT_3D('',#297,#251,#252);
#197=AXIS2_PLACEMENT_3D('',#298,#253,#254);
#198=AXIS2_PLACEMENT_3D('',#299,#255,#256);
#199=DIRECTION('axis',(0.,0.,1.));
#200=DIRECTION('refdir',(1.,0.,0.));
#201=DIRECTION('center_axis',(0.,1.,0.));
#202=DIRECTION('ref_axis',(0.,0.,1.));
#203=DIRECTION('center_axis',(0.,1.,0.));
#204=DIRECTION('ref_axis',(-1.,0.,0.));
#205=DIRECTION('center_axis',(0.,-1.,0.));
#206=DIRECTION('ref_axis',(-1.,0.,0.));
#207=DIRECTION('center_axis',(0.,1.,0.));
#208=DIRECTION('ref_axis',(0.,0.,1.));
#209=DIRECTION('center_axis',(0.,1.,0.));
#210=DIRECTION('ref_axis',(1.,0.,0.));
#211=DIRECTION('center_axis',(0.,1.,0.));
#212=DIRECTION('ref_axis',(-1.,0.,0.));
#213=DIRECTION('center_axis',(0.,1.,0.));
#214=DIRECTION('ref_axis',(-1.,0.,0.));
#215=DIRECTION('center_axis',(0.,-1.,0.));
#216=DIRECTION('ref_axis',(0.,0.,-1.));
#217=DIRECTION('center_axis',(0.,-1.,0.));
#218=DIRECTION('ref_axis',(1.,0.,0.));
#219=DIRECTION('center_axis',(6.87997186878055E-17,1.,0.));
#220=DIRECTION('ref_axis',(1.,-6.87997186878055E-17,0.));
#221=DIRECTION('center_axis',(0.,1.,0.));
#222=DIRECTION('ref_axis',(1.,0.,0.));
#223=DIRECTION('center_axis',(-0.707106781186548,-0.707106781186548,0.));
#224=DIRECTION('ref_axis',(0.,0.,1.));
#225=DIRECTION('center_axis',(-0.707106781186548,-0.707106781186548,0.));
#226=DIRECTION('ref_axis',(-0.707106781186548,0.707106781186548,0.));
#227=DIRECTION('center_axis',(0.707106781186548,0.707106781186548,0.));
#228=DIRECTION('ref_axis',(-0.707106781186547,0.707106781186547,0.));
#229=DIRECTION('center_axis',(0.707106781186548,0.707106781186548,0.));
#230=DIRECTION('ref_axis',(0.,0.,1.));
#231=DIRECTION('center_axis',(-0.707106781186548,-0.707106781186548,0.));
#232=DIRECTION('ref_axis',(0.707106781186548,-0.707106781186548,0.));
#233=DIRECTION('center_axis',(0.707106781186548,0.707106781186547,0.));
#234=DIRECTION('ref_axis',(-0.707106781186547,0.707106781186548,0.));
#235=DIRECTION('center_axis',(0.707106781186548,0.707106781186547,0.));
#236=DIRECTION('ref_axis',(-0.707106781186547,0.707106781186548,0.));
#237=DIRECTION('center_axis',(0.707106781186548,0.707106781186548,0.));
#238=DIRECTION('ref_axis',(0.,0.,-1.));
#239=DIRECTION('center_axis',(0.707106781186548,0.707106781186548,0.));
#240=DIRECTION('ref_axis',(0.707106781186547,-0.707106781186547,0.));
#241=DIRECTION('center_axis',(0.707106781186547,0.707106781186548,0.));
#242=DIRECTION('ref_axis',(0.707106781186548,-0.707106781186547,0.));
#243=DIRECTION('center_axis',(0.707106781186548,0.707106781186548,0.));
#244=DIRECTION('ref_axis',(0.707106781186547,-0.707106781186547,0.));
#245=DIRECTION('center_axis',(0.,0.,-1.));
#246=DIRECTION('ref_axis',(-1.,0.,0.));
#247=DIRECTION('center_axis',(-0.707106781186548,-0.707106781186547,0.));
#248=DIRECTION('ref_axis',(-0.707106781186547,0.707106781186548,0.));
#249=DIRECTION('center_axis',(0.,1.,0.));
#250=DIRECTION('ref_axis',(-1.,0.,0.));
#251=DIRECTION('center_axis',(0.707106781186548,0.707106781186547,0.));
#252=DIRECTION('ref_axis',(0.,0.,1.));
#253=DIRECTION('center_axis',(0.,1.,0.));
#254=DIRECTION('ref_axis',(0.,0.,1.));
#255=DIRECTION('center_axis',(0.,0.,-1.));
#256=DIRECTION('ref_axis',(-1.,0.,0.));
#257=CARTESIAN_POINT('',(0.,0.,0.));
#258=CARTESIAN_POINT('Origin',(0.,0.5,0.));
#259=CARTESIAN_POINT('',(45.,0.5,-5.51091059616309E-15));
#260=CARTESIAN_POINT('Origin',(0.,0.5,0.));
#261=CARTESIAN_POINT('',(45.5,0.,5.57214293612046E-15));
#262=CARTESIAN_POINT('Origin',(0.,0.,0.));
#263=CARTESIAN_POINT('Origin',(5.40885669623414E-16,0.,0.));
#264=CARTESIAN_POINT('',(-52.5,0.,6.4293956955236E-15));
#265=CARTESIAN_POINT('Origin',(3.43998593439027E-17,0.,0.));
#266=CARTESIAN_POINT('Origin',(0.,0.,0.));
#267=CARTESIAN_POINT('',(45.,51.,5.51091059616309E-15));
#268=CARTESIAN_POINT('Origin',(0.,51.,0.));
#269=CARTESIAN_POINT('Origin',(3.43998593439027E-17,0.5,0.));
#270=CARTESIAN_POINT('',(-53.,0.5,-6.49062803548097E-15));
#271=CARTESIAN_POINT('Origin',(3.43998593439027E-17,0.5,0.));
#272=CARTESIAN_POINT('Origin',(0.,0.,0.));
#273=CARTESIAN_POINT('',(-53.,51.,6.49062803548097E-15));
#274=CARTESIAN_POINT('Origin',(3.50878565307808E-15,51.,0.));
#275=CARTESIAN_POINT('Origin',(51.7815966092544,125.511832815395,0.));
#276=CARTESIAN_POINT('',(83.6014017626491,93.6920276620001,5.51091059616309E-15));
#277=CARTESIAN_POINT('Origin',(51.7815966092544,125.511832815395,0.));
#278=CARTESIAN_POINT('',(84.3085085438356,93.6920276620001,-5.57214293612046E-15));
#279=CARTESIAN_POINT('Origin',(52.1351499998477,125.865386205988,0.));
#280=CARTESIAN_POINT('Origin',(52.1351499998477,125.865386205988,0.));
#281=CARTESIAN_POINT('',(15.012043987554,162.988492218282,-6.4293956955236E-15));
#282=CARTESIAN_POINT('Origin',(52.1351499998477,125.865386205988,0.));
#283=CARTESIAN_POINT('Origin',(52.1351499998477,125.865386205988,0.));
#284=CARTESIAN_POINT('',(47.8925093127284,57.9831352120794,5.51091059616309E-15));
#285=CARTESIAN_POINT('Origin',(16.0727041593338,89.8029403654741,0.));
#286=CARTESIAN_POINT('Origin',(51.7815966092544,125.511832815395,0.));
#287=CARTESIAN_POINT('',(14.3049372063674,162.988492218282,6.49062803548097E-15));
#288=CARTESIAN_POINT('Origin',(51.7815966092544,125.511832815395,0.));
#289=CARTESIAN_POINT('Origin',(16.0727041593338,89.8029403654741,0.));
#290=CARTESIAN_POINT('',(-21.4039552435533,127.279599768361,6.49062803548097E-15));
#291=CARTESIAN_POINT('Origin',(16.0727041593338,89.8029403654741,0.));
#292=CARTESIAN_POINT('Origin',(54.8756445248078,51.,0.));
#293=CARTESIAN_POINT('',(-15.0399942128743,120.915638737682,5.38844591624836E-15));
#294=CARTESIAN_POINT('Origin',(16.0727041593338,89.8029403654741,0.));
#295=CARTESIAN_POINT('',(-44.,51.,5.38844591624835E-15));
#296=CARTESIAN_POINT('Origin',(0.,51.,0.));
#297=CARTESIAN_POINT('Origin',(16.0727041593338,89.8029403654741,0.));
#298=CARTESIAN_POINT('Origin',(-1.77506243071748E-15,51.,0.));
#299=CARTESIAN_POINT('Origin',(54.8756445248078,51.,0.));
#300=UNCERTAINTY_MEASURE_WITH_UNIT(LENGTH_MEASURE(0.01),#304,
'DISTANCE_ACCURACY_VALUE',
'Maximum model space distance between geometric entities at asserted c
onnectivities');
#301=UNCERTAINTY_MEASURE_WITH_UNIT(LENGTH_MEASURE(1.E-6),#304,
'DISTANCE_ACCURACY_VALUE',
'Maximum model space distance between geometric entities at asserted c
onnectivities');
#302=(
GEOMETRIC_REPRESENTATION_CONTEXT(3)
GLOBAL_UNCERTAINTY_ASSIGNED_CONTEXT((#300))
GLOBAL_UNIT_ASSIGNED_CONTEXT((#304,#307,#305))
REPRESENTATION_CONTEXT('','3D')
);
#303=(
GEOMETRIC_REPRESENTATION_CONTEXT(3)
GLOBAL_UNCERTAINTY_ASSIGNED_CONTEXT((#301))
GLOBAL_UNIT_ASSIGNED_CONTEXT((#304,#307,#305))
REPRESENTATION_CONTEXT('','3D')
);
#304=(
LENGTH_UNIT()
NAMED_UNIT(*)
SI_UNIT(.MILLI.,.METRE.)
);
#305=(
NAMED_UNIT(*)
SI_UNIT($,.STERADIAN.)
SOLID_ANGLE_UNIT()
);
#306=DIMENSIONAL_EXPONENTS(0.,0.,0.,0.,0.,0.,0.);
#307=(
CONVERSION_BASED_UNIT('degree',#309)
NAMED_UNIT(#306)
PLANE_ANGLE_UNIT()
);
#308=(
NAMED_UNIT(*)
PLANE_ANGLE_UNIT()
SI_UNIT($,.RADIAN.)
);
#309=PLANE_ANGLE_MEASURE_WITH_UNIT(PLANE_ANGLE_MEASURE(0.01745329252),#308);
#310=SHAPE_DEFINITION_REPRESENTATION(#311,#312);
#311=PRODUCT_DEFINITION_SHAPE('',$,#314);
#312=SHAPE_REPRESENTATION('',(#170),#302);
#313=PRODUCT_DEFINITION_CONTEXT('part definition',#318,'design');
#314=PRODUCT_DEFINITION('EY500900','EY500900',#315,#313);
#315=PRODUCT_DEFINITION_FORMATION('',$,#320);
#316=PRODUCT_RELATED_PRODUCT_CATEGORY('EY500900','EY500900',(#320));
#317=APPLICATION_PROTOCOL_DEFINITION('international standard',
'automotive_design',2009,#318);
#318=APPLICATION_CONTEXT(
'Core Data for Automotive Mechanical Design Process');
#319=PRODUCT_CONTEXT('part definition',#318,'mechanical');
#320=PRODUCT('EY500900','EY500900',$,(#319));
#321=PRESENTATION_STYLE_ASSIGNMENT((#322));
#322=SURFACE_STYLE_USAGE(.BOTH.,#323);
#323=SURFACE_SIDE_STYLE('',(#324));
#324=SURFACE_STYLE_FILL_AREA(#325);
#325=FILL_AREA_STYLE('',(#326));
#326=FILL_AREA_STYLE_COLOUR('',#327);
#327=COLOUR_RGB('',0.8,0.8,0.8);
ENDSEC;
END-ISO-10303-21;
