ISO-10303-21;
HEADER;
/* Generated by software containing ST-Developer
 * from STEP Tools, Inc. (www.steptools.com) 
 */

FILE_DESCRIPTION(
/* description */ (''),
/* implementation_level */ '2;1');

FILE_NAME(
/* name */ 'C:\\Users\\Gabriele\\Desktop\\catalogo\\EL50\\EL501400.stp',

/* time_stamp */ '2016-10-17T17:07:59+02:00',
/* author */ ('Gabriele'),
/* organization */ (''),
/* preprocessor_version */ 'ST-DEVELOPER v16.5',
/* originating_system */ 'Autodesk Inventor 2017',
/* authorisation */ '');

FILE_SCHEMA (('AUTOMOTIVE_DESIGN { 1 0 10303 214 3 1 1 }'));
ENDSEC;

DATA;
#10=MECHANICAL_DESIGN_GEOMETRIC_PRESENTATION_REPRESENTATION('',(#13),#399);
#11=SHAPE_REPRESENTATION_RELATIONSHIP('SRR','None',#408,#12);
#12=ADVANCED_BREP_SHAPE_REPRESENTATION('',(#14),#398);
#13=STYLED_ITEM('',(#417),#14);
#14=MANIFOLD_SOLID_BREP('Solido1',#189);
#15=PLANE('',#202);
#16=PLANE('',#212);
#17=PLANE('',#220);
#18=PLANE('',#221);
#19=TOROIDAL_SURFACE('',#199,70.5,0.5);
#20=TOROIDAL_SURFACE('',#206,81.5,0.5);
#21=TOROIDAL_SURFACE('',#209,70.5,0.5);
#22=TOROIDAL_SURFACE('',#216,81.5,0.5);
#23=TOROIDAL_SURFACE('',#217,73.,68.5);
#24=FACE_BOUND('',#74,.T.);
#25=FACE_BOUND('',#76,.T.);
#26=FACE_BOUND('',#78,.T.);
#27=FACE_BOUND('',#80,.T.);
#28=FACE_BOUND('',#82,.T.);
#29=FACE_BOUND('',#84,.T.);
#30=FACE_BOUND('',#86,.T.);
#31=FACE_BOUND('',#88,.T.);
#32=FACE_BOUND('',#90,.T.);
#33=FACE_BOUND('',#92,.T.);
#34=FACE_BOUND('',#94,.T.);
#35=FACE_BOUND('',#96,.T.);
#36=FACE_BOUND('',#98,.T.);
#37=CYLINDRICAL_SURFACE('',#197,82.);
#38=CYLINDRICAL_SURFACE('',#204,70.);
#39=CYLINDRICAL_SURFACE('',#208,82.);
#40=CYLINDRICAL_SURFACE('',#214,70.);
#41=CIRCLE('',#195,82.);
#42=CIRCLE('',#196,82.);
#43=CIRCLE('',#198,82.);
#44=CIRCLE('',#200,70.);
#45=CIRCLE('',#201,70.5);
#46=CIRCLE('',#203,81.5);
#47=CIRCLE('',#205,70.);
#48=CIRCLE('',#207,82.);
#49=CIRCLE('',#210,70.);
#50=CIRCLE('',#211,70.5);
#51=CIRCLE('',#213,81.5);
#52=CIRCLE('',#215,70.);
#53=CIRCLE('',#218,68.5);
#54=CIRCLE('',#219,68.5);
#55=(
BOUNDED_SURFACE()
B_SPLINE_SURFACE(2,2,((#330,#331,#332),(#333,#334,#335),(#336,#337,#338),
(#339,#340,#341),(#342,#343,#344),(#345,#346,#347),(#348,#349,#350),(#351,
#352,#353),(#354,#355,#356)),.UNSPECIFIED.,.F.,.F.,.F.)
B_SPLINE_SURFACE_WITH_KNOTS((3,2,2,2,3),(3,3),(-2.65757383677977,-1.32878691838988,
4.44089209850063E-16,1.32878691838989,2.65757383677977),(0.,1.57079632682029),
 .UNSPECIFIED.)
GEOMETRIC_REPRESENTATION_ITEM()
RATIONAL_B_SPLINE_SURFACE(((1.,0.707106781177571,1.),(0.787290911898521,
0.556698742562918,0.787290911898521),(1.,0.707106781177571,1.),(0.787290911898522,
0.556698742562918,0.787290911898522),(1.,0.707106781177571,1.),(0.787290911898521,
0.556698742562918,0.787290911898521),(1.,0.707106781177571,1.),(0.787290911898522,
0.556698742562919,0.787290911898522),(1.,0.707106781177571,1.)))
REPRESENTATION_ITEM('')
SURFACE()
);
#56=FACE_OUTER_BOUND('',#71,.T.);
#57=FACE_OUTER_BOUND('',#72,.T.);
#58=FACE_OUTER_BOUND('',#73,.T.);
#59=FACE_OUTER_BOUND('',#75,.T.);
#60=FACE_OUTER_BOUND('',#77,.T.);
#61=FACE_OUTER_BOUND('',#79,.T.);
#62=FACE_OUTER_BOUND('',#81,.T.);
#63=FACE_OUTER_BOUND('',#83,.T.);
#64=FACE_OUTER_BOUND('',#85,.T.);
#65=FACE_OUTER_BOUND('',#87,.T.);
#66=FACE_OUTER_BOUND('',#89,.T.);
#67=FACE_OUTER_BOUND('',#91,.T.);
#68=FACE_OUTER_BOUND('',#93,.T.);
#69=FACE_OUTER_BOUND('',#95,.T.);
#70=FACE_OUTER_BOUND('',#97,.T.);
#71=EDGE_LOOP('',(#137,#138,#139,#140));
#72=EDGE_LOOP('',(#141,#142,#143,#144));
#73=EDGE_LOOP('',(#145));
#74=EDGE_LOOP('',(#146,#147));
#75=EDGE_LOOP('',(#148));
#76=EDGE_LOOP('',(#149));
#77=EDGE_LOOP('',(#150));
#78=EDGE_LOOP('',(#151));
#79=EDGE_LOOP('',(#152));
#80=EDGE_LOOP('',(#153));
#81=EDGE_LOOP('',(#154));
#82=EDGE_LOOP('',(#155));
#83=EDGE_LOOP('',(#156,#157));
#84=EDGE_LOOP('',(#158));
#85=EDGE_LOOP('',(#159));
#86=EDGE_LOOP('',(#160));
#87=EDGE_LOOP('',(#161));
#88=EDGE_LOOP('',(#162));
#89=EDGE_LOOP('',(#163));
#90=EDGE_LOOP('',(#164));
#91=EDGE_LOOP('',(#165));
#92=EDGE_LOOP('',(#166));
#93=EDGE_LOOP('',(#167));
#94=EDGE_LOOP('',(#168));
#95=EDGE_LOOP('',(#169));
#96=EDGE_LOOP('',(#170));
#97=EDGE_LOOP('',(#171));
#98=EDGE_LOOP('',(#172));
#99=ELLIPSE('',#191,0.53060956440061,0.5000669354304);
#100=ELLIPSE('',#192,116.319602819129,82.);
#101=ELLIPSE('',#193,0.530609564398004,0.500066935429345);
#102=ELLIPSE('',#194,116.319602819129,82.);
#103=VERTEX_POINT('',#322);
#104=VERTEX_POINT('',#323);
#105=VERTEX_POINT('',#325);
#106=VERTEX_POINT('',#327);
#107=VERTEX_POINT('',#360);
#108=VERTEX_POINT('',#363);
#109=VERTEX_POINT('',#365);
#110=VERTEX_POINT('',#368);
#111=VERTEX_POINT('',#371);
#112=VERTEX_POINT('',#374);
#113=VERTEX_POINT('',#378);
#114=VERTEX_POINT('',#380);
#115=VERTEX_POINT('',#383);
#116=VERTEX_POINT('',#386);
#117=VERTEX_POINT('',#390);
#118=VERTEX_POINT('',#392);
#119=EDGE_CURVE('',#103,#104,#99,.T.);
#120=EDGE_CURVE('',#103,#105,#100,.T.);
#121=EDGE_CURVE('',#106,#105,#101,.T.);
#122=EDGE_CURVE('',#106,#104,#102,.T.);
#123=EDGE_CURVE('',#105,#103,#41,.T.);
#124=EDGE_CURVE('',#106,#104,#42,.T.);
#125=EDGE_CURVE('',#107,#107,#43,.T.);
#126=EDGE_CURVE('',#108,#108,#44,.T.);
#127=EDGE_CURVE('',#109,#109,#45,.T.);
#128=EDGE_CURVE('',#110,#110,#46,.T.);
#129=EDGE_CURVE('',#111,#111,#47,.T.);
#130=EDGE_CURVE('',#112,#112,#48,.T.);
#131=EDGE_CURVE('',#113,#113,#49,.T.);
#132=EDGE_CURVE('',#114,#114,#50,.T.);
#133=EDGE_CURVE('',#115,#115,#51,.T.);
#134=EDGE_CURVE('',#116,#116,#52,.T.);
#135=EDGE_CURVE('',#117,#117,#53,.T.);
#136=EDGE_CURVE('',#118,#118,#54,.T.);
#137=ORIENTED_EDGE('',*,*,#119,.F.);
#138=ORIENTED_EDGE('',*,*,#120,.T.);
#139=ORIENTED_EDGE('',*,*,#121,.F.);
#140=ORIENTED_EDGE('',*,*,#122,.T.);
#141=ORIENTED_EDGE('',*,*,#121,.T.);
#142=ORIENTED_EDGE('',*,*,#123,.T.);
#143=ORIENTED_EDGE('',*,*,#119,.T.);
#144=ORIENTED_EDGE('',*,*,#124,.F.);
#145=ORIENTED_EDGE('',*,*,#125,.F.);
#146=ORIENTED_EDGE('',*,*,#120,.F.);
#147=ORIENTED_EDGE('',*,*,#123,.F.);
#148=ORIENTED_EDGE('',*,*,#126,.T.);
#149=ORIENTED_EDGE('',*,*,#127,.T.);
#150=ORIENTED_EDGE('',*,*,#128,.F.);
#151=ORIENTED_EDGE('',*,*,#127,.F.);
#152=ORIENTED_EDGE('',*,*,#129,.F.);
#153=ORIENTED_EDGE('',*,*,#126,.F.);
#154=ORIENTED_EDGE('',*,*,#130,.T.);
#155=ORIENTED_EDGE('',*,*,#128,.T.);
#156=ORIENTED_EDGE('',*,*,#122,.F.);
#157=ORIENTED_EDGE('',*,*,#124,.T.);
#158=ORIENTED_EDGE('',*,*,#130,.F.);
#159=ORIENTED_EDGE('',*,*,#131,.T.);
#160=ORIENTED_EDGE('',*,*,#132,.T.);
#161=ORIENTED_EDGE('',*,*,#133,.F.);
#162=ORIENTED_EDGE('',*,*,#132,.F.);
#163=ORIENTED_EDGE('',*,*,#134,.T.);
#164=ORIENTED_EDGE('',*,*,#131,.F.);
#165=ORIENTED_EDGE('',*,*,#133,.T.);
#166=ORIENTED_EDGE('',*,*,#125,.T.);
#167=ORIENTED_EDGE('',*,*,#135,.F.);
#168=ORIENTED_EDGE('',*,*,#136,.F.);
#169=ORIENTED_EDGE('',*,*,#129,.T.);
#170=ORIENTED_EDGE('',*,*,#135,.T.);
#171=ORIENTED_EDGE('',*,*,#134,.F.);
#172=ORIENTED_EDGE('',*,*,#136,.T.);
#173=B_SPLINE_SURFACE_WITH_KNOTS('',3,3,((#287,#288,#289,#290,#291,#292,
#293),(#294,#295,#296,#297,#298,#299,#300),(#301,#302,#303,#304,#305,#306,
#307),(#308,#309,#310,#311,#312,#313,#314),(#315,#316,#317,#318,#319,#320,
#321)),.UNSPECIFIED.,.F.,.F.,.F.,(4,1,4),(4,1,1,1,4),(0.,0.5,1.),(-0.485071692241584,
-0.207887868104417,0.0692959560327501,0.277183824135625,0.485071692238501),
 .UNSPECIFIED.);
#174=ADVANCED_FACE('',(#56),#173,.T.);
#175=ADVANCED_FACE('',(#57),#55,.F.);
#176=ADVANCED_FACE('',(#58,#24),#37,.T.);
#177=ADVANCED_FACE('',(#59,#25),#19,.T.);
#178=ADVANCED_FACE('',(#60,#26),#15,.T.);
#179=ADVANCED_FACE('',(#61,#27),#38,.F.);
#180=ADVANCED_FACE('',(#62,#28),#20,.T.);
#181=ADVANCED_FACE('',(#63,#29),#39,.T.);
#182=ADVANCED_FACE('',(#64,#30),#21,.T.);
#183=ADVANCED_FACE('',(#65,#31),#16,.F.);
#184=ADVANCED_FACE('',(#66,#32),#40,.F.);
#185=ADVANCED_FACE('',(#67,#33),#22,.T.);
#186=ADVANCED_FACE('',(#68,#34),#23,.F.);
#187=ADVANCED_FACE('',(#69,#35),#17,.T.);
#188=ADVANCED_FACE('',(#70,#36),#18,.F.);
#189=CLOSED_SHELL('',(#174,#175,#176,#177,#178,#179,#180,#181,#182,#183,
#184,#185,#186,#187,#188));
#190=AXIS2_PLACEMENT_3D('placement',#286,#222,#223);
#191=AXIS2_PLACEMENT_3D('',#324,#224,#225);
#192=AXIS2_PLACEMENT_3D('',#326,#226,#227);
#193=AXIS2_PLACEMENT_3D('',#328,#228,#229);
#194=AXIS2_PLACEMENT_3D('',#329,#230,#231);
#195=AXIS2_PLACEMENT_3D('',#357,#232,#233);
#196=AXIS2_PLACEMENT_3D('',#358,#234,#235);
#197=AXIS2_PLACEMENT_3D('',#359,#236,#237);
#198=AXIS2_PLACEMENT_3D('',#361,#238,#239);
#199=AXIS2_PLACEMENT_3D('',#362,#240,#241);
#200=AXIS2_PLACEMENT_3D('',#364,#242,#243);
#201=AXIS2_PLACEMENT_3D('',#366,#244,#245);
#202=AXIS2_PLACEMENT_3D('',#367,#246,#247);
#203=AXIS2_PLACEMENT_3D('',#369,#248,#249);
#204=AXIS2_PLACEMENT_3D('',#370,#250,#251);
#205=AXIS2_PLACEMENT_3D('',#372,#252,#253);
#206=AXIS2_PLACEMENT_3D('',#373,#254,#255);
#207=AXIS2_PLACEMENT_3D('',#375,#256,#257);
#208=AXIS2_PLACEMENT_3D('',#376,#258,#259);
#209=AXIS2_PLACEMENT_3D('',#377,#260,#261);
#210=AXIS2_PLACEMENT_3D('',#379,#262,#263);
#211=AXIS2_PLACEMENT_3D('',#381,#264,#265);
#212=AXIS2_PLACEMENT_3D('',#382,#266,#267);
#213=AXIS2_PLACEMENT_3D('',#384,#268,#269);
#214=AXIS2_PLACEMENT_3D('',#385,#270,#271);
#215=AXIS2_PLACEMENT_3D('',#387,#272,#273);
#216=AXIS2_PLACEMENT_3D('',#388,#274,#275);
#217=AXIS2_PLACEMENT_3D('',#389,#276,#277);
#218=AXIS2_PLACEMENT_3D('',#391,#278,#279);
#219=AXIS2_PLACEMENT_3D('',#393,#280,#281);
#220=AXIS2_PLACEMENT_3D('',#394,#282,#283);
#221=AXIS2_PLACEMENT_3D('',#395,#284,#285);
#222=DIRECTION('axis',(0.,0.,1.));
#223=DIRECTION('refdir',(1.,0.,0.));
#224=DIRECTION('center_axis',(0.208842289380773,-0.208842289380773,-0.955389866144913));
#225=DIRECTION('ref_axis',(-0.675562673798642,0.675562632257309,-0.295347598039336));
#226=DIRECTION('center_axis',(0.709252765660514,0.70495426405045,0.));
#227=DIRECTION('ref_axis',(0.70495426405045,-0.709252765660514,0.));
#228=DIRECTION('center_axis',(0.208842289381007,-0.208842289380931,0.955389866144827));
#229=DIRECTION('ref_axis',(0.675562673804104,-0.675562632251726,-0.295347598039613));
#230=DIRECTION('center_axis',(-0.70495426405045,-0.709252765660514,0.));
#231=DIRECTION('ref_axis',(0.709252765660514,-0.70495426405045,0.));
#232=DIRECTION('center_axis',(0.,1.,0.));
#233=DIRECTION('ref_axis',(-1.,0.,0.));
#234=DIRECTION('center_axis',(1.,6.12323399573677E-17,0.));
#235=DIRECTION('ref_axis',(-6.12323399573676E-17,1.,0.));
#236=DIRECTION('center_axis',(0.,1.,0.));
#237=DIRECTION('ref_axis',(-1.,0.,0.));
#238=DIRECTION('center_axis',(0.,-1.,0.));
#239=DIRECTION('ref_axis',(-1.,0.,0.));
#240=DIRECTION('center_axis',(-1.,-6.12323399573677E-17,0.));
#241=DIRECTION('ref_axis',(0.,0.,1.));
#242=DIRECTION('center_axis',(-1.,-6.12323399573677E-17,0.));
#243=DIRECTION('ref_axis',(-6.1458774577464E-17,1.,0.));
#244=DIRECTION('center_axis',(1.,6.12323399573677E-17,0.));
#245=DIRECTION('ref_axis',(-6.12323399573677E-17,1.,0.));
#246=DIRECTION('center_axis',(1.,6.12323399573677E-17,0.));
#247=DIRECTION('ref_axis',(0.,0.,1.));
#248=DIRECTION('center_axis',(-1.,-6.12323399573677E-17,0.));
#249=DIRECTION('ref_axis',(-6.12323399573677E-17,1.,0.));
#250=DIRECTION('center_axis',(1.,2.22044604925031E-16,0.));
#251=DIRECTION('ref_axis',(-2.22044604925031E-16,1.,0.));
#252=DIRECTION('center_axis',(1.,2.22044604925031E-16,0.));
#253=DIRECTION('ref_axis',(-2.22044604925031E-16,1.,0.));
#254=DIRECTION('center_axis',(1.,6.12323399573677E-17,0.));
#255=DIRECTION('ref_axis',(0.,0.,-1.));
#256=DIRECTION('center_axis',(1.,6.12323399573677E-17,0.));
#257=DIRECTION('ref_axis',(-6.09268733026001E-17,1.,0.));
#258=DIRECTION('center_axis',(1.,0.,0.));
#259=DIRECTION('ref_axis',(0.,1.,0.));
#260=DIRECTION('center_axis',(0.,1.,0.));
#261=DIRECTION('ref_axis',(0.,0.,1.));
#262=DIRECTION('center_axis',(0.,1.,0.));
#263=DIRECTION('ref_axis',(-1.,0.,0.));
#264=DIRECTION('center_axis',(0.,-1.,0.));
#265=DIRECTION('ref_axis',(-1.,0.,0.));
#266=DIRECTION('center_axis',(0.,1.,0.));
#267=DIRECTION('ref_axis',(0.,0.,1.));
#268=DIRECTION('center_axis',(0.,1.,0.));
#269=DIRECTION('ref_axis',(-1.,0.,0.));
#270=DIRECTION('center_axis',(0.,1.,0.));
#271=DIRECTION('ref_axis',(-1.,0.,0.));
#272=DIRECTION('center_axis',(0.,1.,0.));
#273=DIRECTION('ref_axis',(-1.,0.,0.));
#274=DIRECTION('center_axis',(0.,1.,0.));
#275=DIRECTION('ref_axis',(0.,0.,1.));
#276=DIRECTION('center_axis',(0.,0.,-1.));
#277=DIRECTION('ref_axis',(-1.,0.,0.));
#278=DIRECTION('center_axis',(-1.,-2.22044604925031E-16,0.));
#279=DIRECTION('ref_axis',(-2.22044604925031E-16,1.,0.));
#280=DIRECTION('center_axis',(0.,1.,0.));
#281=DIRECTION('ref_axis',(-1.,0.,0.));
#282=DIRECTION('center_axis',(1.,2.22044604925031E-16,0.));
#283=DIRECTION('ref_axis',(0.,0.,1.));
#284=DIRECTION('center_axis',(0.,1.,0.));
#285=DIRECTION('ref_axis',(0.,0.,1.));
#286=CARTESIAN_POINT('',(0.,0.,0.));
#287=CARTESIAN_POINT('Ctrl Pts',(72.540604911642,76.0170743267017,-38.2342861716165));
#288=CARTESIAN_POINT('Ctrl Pts',(76.0732467963765,72.4628919426701,-31.5319254134058));
#289=CARTESIAN_POINT('Ctrl Pts',(81.2689232342021,67.2355345509552,-17.1423273376857));
#290=CARTESIAN_POINT('Ctrl Pts',(82.7241041451823,65.7714805856398,3.84303516688023));
#291=CARTESIAN_POINT('Ctrl Pts',(79.4395989354825,69.0760132661304,22.6013535057106));
#292=CARTESIAN_POINT('Ctrl Pts',(75.1900863252952,73.3514375385749,33.2075156027267));
#293=CARTESIAN_POINT('Ctrl Pts',(72.5406049117598,76.0170743265831,38.2342861713929));
#294=CARTESIAN_POINT('Ctrl Pts',(72.5627990706785,76.1191589723752,-38.192177951921));
#295=CARTESIAN_POINT('Ctrl Pts',(76.0894934559048,72.5741033919669,-31.4913728234279));
#296=CARTESIAN_POINT('Ctrl Pts',(81.2716237672927,67.363441861259,-17.1135143573634));
#297=CARTESIAN_POINT('Ctrl Pts',(82.7212922244431,65.905210412305,3.8360332385874));
#298=CARTESIAN_POINT('Ctrl Pts',(79.447729100193,69.1976242446564,22.5672645927731));
#299=CARTESIAN_POINT('Ctrl Pts',(75.2078198597004,73.4603672869662,33.1665741053195));
#300=CARTESIAN_POINT('Ctrl Pts',(72.5627990707962,76.1191589722569,38.1921779516974));
#301=CARTESIAN_POINT('Ctrl Pts',(72.6771713284027,76.3228286715974,-38.145111568386));
#302=CARTESIAN_POINT('Ctrl Pts',(76.2042885299058,72.7957114700943,-31.4455092801478));
#303=CARTESIAN_POINT('Ctrl Pts',(81.3820334200243,67.6179665799757,-17.0800356122892));
#304=CARTESIAN_POINT('Ctrl Pts',(82.8290085924336,66.1709914075664,3.82766233623643));
#305=CARTESIAN_POINT('Ctrl Pts',(79.5601369690291,69.4398630309709,22.5282879721981));
#306=CARTESIAN_POINT('Ctrl Pts',(75.3225092296321,73.6774907703679,33.1204098519758));
#307=CARTESIAN_POINT('Ctrl Pts',(72.6771713285203,76.3228286714797,38.1451115681625));
#308=CARTESIAN_POINT('Ctrl Pts',(72.8808410276248,76.4372009293215,-38.192177951921));
#309=CARTESIAN_POINT('Ctrl Pts',(76.4258966080332,72.9105065440952,-31.4913728234279));
#310=CARTESIAN_POINT('Ctrl Pts',(81.636558138741,67.7283762327073,-17.1135143573634));
#311=CARTESIAN_POINT('Ctrl Pts',(83.0947895876951,66.2787077755569,3.8360332385874));
#312=CARTESIAN_POINT('Ctrl Pts',(79.8023757553436,69.552270899807,22.5672645927731));
#313=CARTESIAN_POINT('Ctrl Pts',(75.5396327130338,73.7921801402996,33.1665741053195));
#314=CARTESIAN_POINT('Ctrl Pts',(72.8808410277431,76.4372009292038,38.1921779516974));
#315=CARTESIAN_POINT('Ctrl Pts',(72.9829256732983,76.4593950883581,-38.2342861716165));
#316=CARTESIAN_POINT('Ctrl Pts',(76.53710805733,72.9267532036236,-31.5319254134058));
#317=CARTESIAN_POINT('Ctrl Pts',(81.7644654490448,67.7310767657979,-17.1423273376857));
#318=CARTESIAN_POINT('Ctrl Pts',(83.2285194143603,66.2758958548177,3.84303516688022));
#319=CARTESIAN_POINT('Ctrl Pts',(79.9239867338696,69.5604010645175,22.6013535057106));
#320=CARTESIAN_POINT('Ctrl Pts',(75.6485624614251,73.8099136747048,33.2075156027267));
#321=CARTESIAN_POINT('Ctrl Pts',(72.9829256734169,76.4593950882402,38.2342861713929));
#322=CARTESIAN_POINT('',(72.5575757575758,76.,38.2020706269131));
#323=CARTESIAN_POINT('',(73.,76.4424242424243,38.2020706269131));
#324=CARTESIAN_POINT('Origin',(73.0584386954157,75.941561306507,38.3243304888617));
#325=CARTESIAN_POINT('',(72.5575757575758,76.,-38.2020706269131));
#326=CARTESIAN_POINT('Origin',(0.,149.,0.));
#327=CARTESIAN_POINT('',(73.,76.4424242424243,-38.2020706269131));
#328=CARTESIAN_POINT('Origin',(73.0584386954142,75.941561306509,-38.324330488861));
#329=CARTESIAN_POINT('Origin',(0.,149.,0.));
#330=CARTESIAN_POINT('Ctrl Pts',(72.5808206374383,76.,38.1578887727822));
#331=CARTESIAN_POINT('Ctrl Pts',(72.5808206374383,76.4191793625724,38.1578887727822));
#332=CARTESIAN_POINT('Ctrl Pts',(73.0000000000106,76.4191793625617,38.1578887727822));
#333=CARTESIAN_POINT('Ctrl Pts',(42.6967505737741,76.,95.0009269744814));
#334=CARTESIAN_POINT('Ctrl Pts',(42.6967505737741,106.303249426995,95.0009269744814));
#335=CARTESIAN_POINT('Ctrl Pts',(73.0000000007694,106.303249426226,95.0009269744814));
#336=CARTESIAN_POINT('Ctrl Pts',(-19.651624713113,76.,79.6103865468255));
#337=CARTESIAN_POINT('Ctrl Pts',(-19.651624713113,168.651624715465,79.6103865468255));
#338=CARTESIAN_POINT('Ctrl Pts',(73.0000000023523,168.651624713113,79.6103865468255));
#339=CARTESIAN_POINT('Ctrl Pts',(-82.,76.,64.2198461191695));
#340=CARTESIAN_POINT('Ctrl Pts',(-82.,231.000000003935,64.2198461191695));
#341=CARTESIAN_POINT('Ctrl Pts',(73.0000000039353,231.,64.2198461191695));
#342=CARTESIAN_POINT('Ctrl Pts',(-82.,76.,-3.64153152077051E-14));
#343=CARTESIAN_POINT('Ctrl Pts',(-82.,231.000000003935,-3.64153152077051E-14));
#344=CARTESIAN_POINT('Ctrl Pts',(73.0000000039353,231.,-3.64153152077051E-14));
#345=CARTESIAN_POINT('Ctrl Pts',(-82.,76.,-64.2198461191696));
#346=CARTESIAN_POINT('Ctrl Pts',(-82.,231.000000003935,-64.2198461191696));
#347=CARTESIAN_POINT('Ctrl Pts',(73.0000000039353,231.,-64.2198461191696));
#348=CARTESIAN_POINT('Ctrl Pts',(-19.6516247131129,76.,-79.6103865468255));
#349=CARTESIAN_POINT('Ctrl Pts',(-19.6516247131129,168.651624715465,-79.6103865468255));
#350=CARTESIAN_POINT('Ctrl Pts',(73.0000000023523,168.651624713113,-79.6103865468255));
#351=CARTESIAN_POINT('Ctrl Pts',(42.6967505737742,76.,-95.0009269744813));
#352=CARTESIAN_POINT('Ctrl Pts',(42.6967505737742,106.303249426995,-95.0009269744813));
#353=CARTESIAN_POINT('Ctrl Pts',(73.0000000007694,106.303249426226,-95.0009269744813));
#354=CARTESIAN_POINT('Ctrl Pts',(72.5808206374383,76.,-38.1578887727821));
#355=CARTESIAN_POINT('Ctrl Pts',(72.5808206374383,76.4191793625724,-38.1578887727821));
#356=CARTESIAN_POINT('Ctrl Pts',(73.0000000000106,76.4191793625617,-38.1578887727821));
#357=CARTESIAN_POINT('Origin',(0.,76.,0.));
#358=CARTESIAN_POINT('Origin',(73.,149.,0.));
#359=CARTESIAN_POINT('Origin',(0.,0.,0.));
#360=CARTESIAN_POINT('',(82.,0.5,1.00421037530083E-14));
#361=CARTESIAN_POINT('Origin',(0.,0.5,0.));
#362=CARTESIAN_POINT('Origin',(148.5,149.,0.));
#363=CARTESIAN_POINT('',(148.5,79.,8.57252759403147E-15));
#364=CARTESIAN_POINT('Origin',(148.5,149.,0.));
#365=CARTESIAN_POINT('',(149.,78.5,-8.63375993398884E-15));
#366=CARTESIAN_POINT('Origin',(149.,149.,0.));
#367=CARTESIAN_POINT('Origin',(149.,149.,0.));
#368=CARTESIAN_POINT('',(149.,67.5,9.98087141305093E-15));
#369=CARTESIAN_POINT('Origin',(149.,149.,0.));
#370=CARTESIAN_POINT('Origin',(149.,149.,0.));
#371=CARTESIAN_POINT('',(73.,79.,8.57252759403147E-15));
#372=CARTESIAN_POINT('Origin',(73.,149.,0.));
#373=CARTESIAN_POINT('Origin',(148.5,149.,0.));
#374=CARTESIAN_POINT('',(148.5,67.,-1.00421037530083E-14));
#375=CARTESIAN_POINT('Origin',(148.5,149.,0.));
#376=CARTESIAN_POINT('Origin',(73.,149.,0.));
#377=CARTESIAN_POINT('Origin',(0.,0.5,0.));
#378=CARTESIAN_POINT('',(70.,0.5,-8.57252759403147E-15));
#379=CARTESIAN_POINT('Origin',(0.,0.5,0.));
#380=CARTESIAN_POINT('',(70.5,0.,8.63375993398884E-15));
#381=CARTESIAN_POINT('Origin',(0.,0.,0.));
#382=CARTESIAN_POINT('Origin',(-3.72522708413321E-15,0.,0.));
#383=CARTESIAN_POINT('',(81.5,0.,-9.98087141305093E-15));
#384=CARTESIAN_POINT('Origin',(0.,0.,0.));
#385=CARTESIAN_POINT('Origin',(0.,0.,0.));
#386=CARTESIAN_POINT('',(70.,76.,8.57252759403147E-15));
#387=CARTESIAN_POINT('Origin',(0.,76.,0.));
#388=CARTESIAN_POINT('Origin',(0.,0.5,0.));
#389=CARTESIAN_POINT('Origin',(73.,76.,0.));
#390=CARTESIAN_POINT('',(73.,217.5,0.));
#391=CARTESIAN_POINT('Origin',(73.,149.,0.));
#392=CARTESIAN_POINT('',(-68.5,76.,0.));
#393=CARTESIAN_POINT('Origin',(0.,76.,0.));
#394=CARTESIAN_POINT('Origin',(73.,149.,1.69176841847643E-15));
#395=CARTESIAN_POINT('Origin',(-7.48145097340834E-15,76.,1.69176841847643E-15));
#396=UNCERTAINTY_MEASURE_WITH_UNIT(LENGTH_MEASURE(0.01),#400,
'DISTANCE_ACCURACY_VALUE',
'Maximum model space distance between geometric entities at asserted c
onnectivities');
#397=UNCERTAINTY_MEASURE_WITH_UNIT(LENGTH_MEASURE(1.E-6),#400,
'DISTANCE_ACCURACY_VALUE',
'Maximum model space distance between geometric entities at asserted c
onnectivities');
#398=(
GEOMETRIC_REPRESENTATION_CONTEXT(3)
GLOBAL_UNCERTAINTY_ASSIGNED_CONTEXT((#396))
GLOBAL_UNIT_ASSIGNED_CONTEXT((#400,#403,#401))
REPRESENTATION_CONTEXT('','3D')
);
#399=(
GEOMETRIC_REPRESENTATION_CONTEXT(3)
GLOBAL_UNCERTAINTY_ASSIGNED_CONTEXT((#397))
GLOBAL_UNIT_ASSIGNED_CONTEXT((#400,#403,#401))
REPRESENTATION_CONTEXT('','3D')
);
#400=(
LENGTH_UNIT()
NAMED_UNIT(*)
SI_UNIT(.MILLI.,.METRE.)
);
#401=(
NAMED_UNIT(*)
SI_UNIT($,.STERADIAN.)
SOLID_ANGLE_UNIT()
);
#402=DIMENSIONAL_EXPONENTS(0.,0.,0.,0.,0.,0.,0.);
#403=(
CONVERSION_BASED_UNIT('degree',#405)
NAMED_UNIT(#402)
PLANE_ANGLE_UNIT()
);
#404=(
NAMED_UNIT(*)
PLANE_ANGLE_UNIT()
SI_UNIT($,.RADIAN.)
);
#405=PLANE_ANGLE_MEASURE_WITH_UNIT(PLANE_ANGLE_MEASURE(0.01745329252),#404);
#406=SHAPE_DEFINITION_REPRESENTATION(#407,#408);
#407=PRODUCT_DEFINITION_SHAPE('',$,#410);
#408=SHAPE_REPRESENTATION('',(#190),#398);
#409=PRODUCT_DEFINITION_CONTEXT('part definition',#414,'design');
#410=PRODUCT_DEFINITION('EL501400','EL501400',#411,#409);
#411=PRODUCT_DEFINITION_FORMATION('',$,#416);
#412=PRODUCT_RELATED_PRODUCT_CATEGORY('EL501400','EL501400',(#416));
#413=APPLICATION_PROTOCOL_DEFINITION('international standard',
'automotive_design',2009,#414);
#414=APPLICATION_CONTEXT(
'Core Data for Automotive Mechanical Design Process');
#415=PRODUCT_CONTEXT('part definition',#414,'mechanical');
#416=PRODUCT('EL501400','EL501400',$,(#415));
#417=PRESENTATION_STYLE_ASSIGNMENT((#418));
#418=SURFACE_STYLE_USAGE(.BOTH.,#419);
#419=SURFACE_SIDE_STYLE('',(#420));
#420=SURFACE_STYLE_FILL_AREA(#421);
#421=FILL_AREA_STYLE('',(#422));
#422=FILL_AREA_STYLE_COLOUR('',#423);
#423=COLOUR_RGB('',0.8,0.8,0.8);
ENDSEC;
END-ISO-10303-21;
