ISO-10303-21;
HEADER;
FILE_DESCRIPTION( ( '' ), '1' );
FILE_NAME( '//se01002/users/anro/AGRU_12705050026_PPH_grau_Rohr__5m_500X19_1__SDR26__ISO_S-12_5_10.stp', '2018-02-07T07:53:13', ( '' ), ( '' ), ' ', ' ', ' ' );
FILE_SCHEMA( ( 'automotive_design' ) );
ENDSEC;
DATA;
#1 = MECHANICAL_DESIGN_GEOMETRIC_PRESENTATION_REPRESENTATION( ' ', ( #10, #11, #12, #13, #14, #15, #16, #17, #18, #19, #20, #21, #22, #23, #24, #25, #26, #27, #28, #29, #30, #31, #32, #33, #34, #35, #36 ), #6 );
#2 = PRODUCT_DEFINITION_CONTEXT( '', #37, 'design' );
#3 = APPLICATION_PROTOCOL_DEFINITION( 'INTERNATIONAL STANDARD', 'automotive_design', 1994, #37 );
#4 = PRODUCT_CATEGORY_RELATIONSHIP( 'NONE', 'NONE', #38, #39 );
#5 = SHAPE_DEFINITION_REPRESENTATION( #40, #41 );
#6 =  ( GEOMETRIC_REPRESENTATION_CONTEXT( 3 )GLOBAL_UNCERTAINTY_ASSIGNED_CONTEXT( ( #44 ) )GLOBAL_UNIT_ASSIGNED_CONTEXT( ( #46, #47, #48 ) )REPRESENTATION_CONTEXT( 'NONE', 'WORKSPACE' ) );
#10 = STYLED_ITEM( '', ( #50 ), #51 );
#11 = STYLED_ITEM( '', ( #52 ), #53 );
#12 = STYLED_ITEM( '', ( #54 ), #55 );
#13 = STYLED_ITEM( '', ( #56 ), #57 );
#14 = STYLED_ITEM( '', ( #58 ), #59 );
#15 = STYLED_ITEM( '', ( #60 ), #61 );
#16 = STYLED_ITEM( '', ( #62 ), #63 );
#17 = STYLED_ITEM( '', ( #64 ), #65 );
#18 = STYLED_ITEM( '', ( #66 ), #67 );
#19 = STYLED_ITEM( '', ( #68 ), #69 );
#20 = STYLED_ITEM( '', ( #70 ), #71 );
#21 = STYLED_ITEM( '', ( #72 ), #73 );
#22 = STYLED_ITEM( '', ( #74 ), #75 );
#23 = STYLED_ITEM( '', ( #76 ), #77 );
#24 = STYLED_ITEM( '', ( #78 ), #79 );
#25 = STYLED_ITEM( '', ( #80 ), #81 );
#26 = STYLED_ITEM( '', ( #82 ), #83 );
#27 = STYLED_ITEM( '', ( #84 ), #85 );
#28 = STYLED_ITEM( '', ( #86 ), #87 );
#29 = STYLED_ITEM( '', ( #88 ), #89 );
#30 = STYLED_ITEM( '', ( #90 ), #91 );
#31 = STYLED_ITEM( '', ( #92 ), #93 );
#32 = STYLED_ITEM( '', ( #94 ), #95 );
#33 = STYLED_ITEM( '', ( #96 ), #97 );
#34 = STYLED_ITEM( '', ( #98 ), #99 );
#35 = STYLED_ITEM( '', ( #100 ), #101 );
#36 = STYLED_ITEM( '', ( #102 ), #103 );
#37 = APPLICATION_CONTEXT( ' ' );
#38 = PRODUCT_CATEGORY( 'part', 'NONE' );
#39 = PRODUCT_RELATED_PRODUCT_CATEGORY( 'detail', ' ', ( #104 ) );
#40 = PRODUCT_DEFINITION_SHAPE( 'NONE', 'NONE', #105 );
#41 = ADVANCED_BREP_SHAPE_REPRESENTATION( '1', ( #101, #106 ), #6 );
#44 = UNCERTAINTY_MEASURE_WITH_UNIT( LENGTH_MEASURE( 1.00000000000000E-006 ), #46, '', '' );
#46 =  ( CONVERSION_BASED_UNIT( 'MILLIMETRE', #109 )LENGTH_UNIT(  )NAMED_UNIT( #112 ) );
#47 =  ( NAMED_UNIT( #114 )PLANE_ANGLE_UNIT(  )SI_UNIT( $, .RADIAN. ) );
#48 =  ( NAMED_UNIT( #114 )SOLID_ANGLE_UNIT(  )SI_UNIT( $, .STERADIAN. ) );
#50 = PRESENTATION_STYLE_ASSIGNMENT( ( #120 ) );
#51 = EDGE_CURVE( '', #73, #71, #121, .T. );
#52 = PRESENTATION_STYLE_ASSIGNMENT( ( #122 ) );
#53 = EDGE_CURVE( '', #103, #59, #123, .T. );
#54 = PRESENTATION_STYLE_ASSIGNMENT( ( #124 ) );
#55 = ADVANCED_FACE( '', ( #125 ), #126, .F. );
#56 = PRESENTATION_STYLE_ASSIGNMENT( ( #127 ) );
#57 = EDGE_CURVE( '', #97, #61, #128, .T. );
#58 = PRESENTATION_STYLE_ASSIGNMENT( ( #129 ) );
#59 = VERTEX_POINT( '', #130 );
#60 = PRESENTATION_STYLE_ASSIGNMENT( ( #131 ) );
#61 = VERTEX_POINT( '', #132 );
#62 = PRESENTATION_STYLE_ASSIGNMENT( ( #133 ) );
#63 = EDGE_CURVE( '', #71, #73, #134, .T. );
#64 = PRESENTATION_STYLE_ASSIGNMENT( ( #135 ) );
#65 = VERTEX_POINT( '', #136 );
#66 = PRESENTATION_STYLE_ASSIGNMENT( ( #137 ) );
#67 = ADVANCED_FACE( '', ( #138 ), #139, .T. );
#68 = PRESENTATION_STYLE_ASSIGNMENT( ( #140 ) );
#69 = VERTEX_POINT( '', #141 );
#70 = PRESENTATION_STYLE_ASSIGNMENT( ( #142 ) );
#71 = VERTEX_POINT( '', #143 );
#72 = PRESENTATION_STYLE_ASSIGNMENT( ( #144 ) );
#73 = VERTEX_POINT( '', #145 );
#74 = PRESENTATION_STYLE_ASSIGNMENT( ( #146 ) );
#75 = ADVANCED_FACE( '', ( #147, #148 ), #149, .F. );
#76 = PRESENTATION_STYLE_ASSIGNMENT( ( #150 ) );
#77 = ADVANCED_FACE( '', ( #151, #152 ), #153, .T. );
#78 = PRESENTATION_STYLE_ASSIGNMENT( ( #154 ) );
#79 = EDGE_CURVE( '', #59, #103, #155, .T. );
#80 = PRESENTATION_STYLE_ASSIGNMENT( ( #156 ) );
#81 = EDGE_CURVE( '', #61, #97, #157, .T. );
#82 = PRESENTATION_STYLE_ASSIGNMENT( ( #158 ) );
#83 = EDGE_CURVE( '', #65, #69, #159, .T. );
#84 = PRESENTATION_STYLE_ASSIGNMENT( ( #160 ) );
#85 = EDGE_CURVE( '', #73, #65, #161, .T. );
#86 = PRESENTATION_STYLE_ASSIGNMENT( ( #162 ) );
#87 = EDGE_CURVE( '', #97, #103, #163, .T. );
#88 = PRESENTATION_STYLE_ASSIGNMENT( ( #164 ) );
#89 = EDGE_CURVE( '', #69, #65, #165, .T. );
#90 = PRESENTATION_STYLE_ASSIGNMENT( ( #166 ) );
#91 = ADVANCED_FACE( '', ( #167 ), #168, .F. );
#92 = PRESENTATION_STYLE_ASSIGNMENT( ( #169 ) );
#93 = EDGE_CURVE( '', #69, #71, #170, .T. );
#94 = PRESENTATION_STYLE_ASSIGNMENT( ( #171 ) );
#95 = EDGE_CURVE( '', #59, #61, #172, .T. );
#96 = PRESENTATION_STYLE_ASSIGNMENT( ( #173 ) );
#97 = VERTEX_POINT( '', #174 );
#98 = PRESENTATION_STYLE_ASSIGNMENT( ( #175 ) );
#99 = ADVANCED_FACE( '', ( #176 ), #177, .T. );
#100 = PRESENTATION_STYLE_ASSIGNMENT( ( #178 ) );
#101 = MANIFOLD_SOLID_BREP( '1', #179 );
#102 = PRESENTATION_STYLE_ASSIGNMENT( ( #180 ) );
#103 = VERTEX_POINT( '', #181 );
#104 = PRODUCT( '1', '1', 'PART-1-DESC', ( #182 ) );
#105 = PRODUCT_DEFINITION( 'NONE', 'NONE', #183, #2 );
#106 = AXIS2_PLACEMENT_3D( '', #184, #185, #186 );
#109 = LENGTH_MEASURE_WITH_UNIT( LENGTH_MEASURE( 1.00000000000000 ), #187 );
#112 = DIMENSIONAL_EXPONENTS( 1.00000000000000, 0.000000000000000, 0.000000000000000, 0.000000000000000, 0.000000000000000, 0.000000000000000, 0.000000000000000 );
#114 = DIMENSIONAL_EXPONENTS( 0.000000000000000, 0.000000000000000, 0.000000000000000, 0.000000000000000, 0.000000000000000, 0.000000000000000, 0.000000000000000 );
#120 = CURVE_STYLE( '', #188, POSITIVE_LENGTH_MEASURE( 1.00000000000000E-006 ), #189 );
#121 = CIRCLE( '', #190, 250.000000000000 );
#122 = CURVE_STYLE( '', #191, POSITIVE_LENGTH_MEASURE( 1.00000000000000E-006 ), #192 );
#123 = CIRCLE( '', #193, 230.900000000000 );
#124 = SURFACE_STYLE_USAGE( .BOTH., #194 );
#125 = FACE_OUTER_BOUND( '', #195, .T. );
#126 = CYLINDRICAL_SURFACE( '', #196, 230.900000000000 );
#127 = CURVE_STYLE( '', #197, POSITIVE_LENGTH_MEASURE( 1.00000000000000E-006 ), #198 );
#128 = CIRCLE( '', #199, 230.900000000000 );
#129 = POINT_STYLE( ' ', #200, POSITIVE_LENGTH_MEASURE( 1.00000000000000E-006 ), #201 );
#130 = CARTESIAN_POINT( '', ( 0.000000000000000, 0.000000000000000, -230.900000000000 ) );
#131 = POINT_STYLE( ' ', #202, POSITIVE_LENGTH_MEASURE( 1.00000000000000E-006 ), #203 );
#132 = CARTESIAN_POINT( '', ( 5000.00000000000, 0.000000000000000, -230.900000000000 ) );
#133 = CURVE_STYLE( '', #204, POSITIVE_LENGTH_MEASURE( 1.00000000000000E-006 ), #205 );
#134 = CIRCLE( '', #206, 250.000000000000 );
#135 = POINT_STYLE( ' ', #207, POSITIVE_LENGTH_MEASURE( 1.00000000000000E-006 ), #208 );
#136 = CARTESIAN_POINT( '', ( 0.000000000000000, 3.06151588455594E-014, 250.000000000000 ) );
#137 = SURFACE_STYLE_USAGE( .BOTH., #209 );
#138 = FACE_OUTER_BOUND( '', #210, .T. );
#139 = CYLINDRICAL_SURFACE( '', #211, 250.000000000000 );
#140 = POINT_STYLE( ' ', #212, POSITIVE_LENGTH_MEASURE( 1.00000000000000E-006 ), #213 );
#141 = CARTESIAN_POINT( '', ( 0.000000000000000, 0.000000000000000, -250.000000000000 ) );
#142 = POINT_STYLE( ' ', #214, POSITIVE_LENGTH_MEASURE( 1.00000000000000E-006 ), #215 );
#143 = CARTESIAN_POINT( '', ( 5000.00000000000, 0.000000000000000, -250.000000000000 ) );
#144 = POINT_STYLE( ' ', #216, POSITIVE_LENGTH_MEASURE( 1.00000000000000E-006 ), #217 );
#145 = CARTESIAN_POINT( '', ( 5000.00000000000, 3.06151588455594E-014, 250.000000000000 ) );
#146 = SURFACE_STYLE_USAGE( .BOTH., #218 );
#147 = FACE_OUTER_BOUND( '', #219, .T. );
#148 = FACE_BOUND( '', #220, .T. );
#149 = PLANE( '', #221 );
#150 = SURFACE_STYLE_USAGE( .BOTH., #222 );
#151 = FACE_OUTER_BOUND( '', #223, .T. );
#152 = FACE_BOUND( '', #224, .T. );
#153 = PLANE( '', #225 );
#154 = CURVE_STYLE( '', #226, POSITIVE_LENGTH_MEASURE( 1.00000000000000E-006 ), #227 );
#155 = CIRCLE( '', #228, 230.900000000000 );
#156 = CURVE_STYLE( '', #229, POSITIVE_LENGTH_MEASURE( 1.00000000000000E-006 ), #230 );
#157 = CIRCLE( '', #231, 230.900000000000 );
#158 = CURVE_STYLE( '', #232, POSITIVE_LENGTH_MEASURE( 1.00000000000000E-006 ), #233 );
#159 = CIRCLE( '', #234, 250.000000000000 );
#160 = CURVE_STYLE( '', #235, POSITIVE_LENGTH_MEASURE( 1.00000000000000E-006 ), #236 );
#161 = LINE( '', #237, #238 );
#162 = CURVE_STYLE( '', #239, POSITIVE_LENGTH_MEASURE( 1.00000000000000E-006 ), #240 );
#163 = LINE( '', #241, #242 );
#164 = CURVE_STYLE( '', #243, POSITIVE_LENGTH_MEASURE( 1.00000000000000E-006 ), #244 );
#165 = CIRCLE( '', #245, 250.000000000000 );
#166 = SURFACE_STYLE_USAGE( .BOTH., #246 );
#167 = FACE_OUTER_BOUND( '', #247, .T. );
#168 = CYLINDRICAL_SURFACE( '', #248, 230.900000000000 );
#169 = CURVE_STYLE( '', #249, POSITIVE_LENGTH_MEASURE( 1.00000000000000E-006 ), #250 );
#170 = LINE( '', #251, #252 );
#171 = CURVE_STYLE( '', #253, POSITIVE_LENGTH_MEASURE( 1.00000000000000E-006 ), #254 );
#172 = LINE( '', #255, #256 );
#173 = POINT_STYLE( ' ', #257, POSITIVE_LENGTH_MEASURE( 1.00000000000000E-006 ), #258 );
#174 = CARTESIAN_POINT( '', ( 5000.00000000000, 2.82761607097587E-014, 230.900000000000 ) );
#175 = SURFACE_STYLE_USAGE( .BOTH., #259 );
#176 = FACE_OUTER_BOUND( '', #260, .T. );
#177 = CYLINDRICAL_SURFACE( '', #261, 250.000000000000 );
#178 = SURFACE_STYLE_USAGE( .BOTH., #262 );
#179 = CLOSED_SHELL( '', ( #67, #91, #55, #99, #77, #75 ) );
#180 = POINT_STYLE( ' ', #263, POSITIVE_LENGTH_MEASURE( 1.00000000000000E-006 ), #264 );
#181 = CARTESIAN_POINT( '', ( 0.000000000000000, 2.82761607097587E-014, 230.900000000000 ) );
#182 = PRODUCT_CONTEXT( '', #37, 'mechanical' );
#183 = PRODUCT_DEFINITION_FORMATION_WITH_SPECIFIED_SOURCE( ' ', 'NONE', #104, .NOT_KNOWN. );
#184 = CARTESIAN_POINT( '', ( 0.000000000000000, 0.000000000000000, 0.000000000000000 ) );
#185 = DIRECTION( '', ( 0.000000000000000, 0.000000000000000, 1.00000000000000 ) );
#186 = DIRECTION( '', ( 1.00000000000000, 0.000000000000000, 0.000000000000000 ) );
#187 =  ( NAMED_UNIT( #112 )LENGTH_UNIT(  )SI_UNIT( .MILLI., .METRE. ) );
#188 = DRAUGHTING_PRE_DEFINED_CURVE_FONT( 'continuous' );
#189 = COLOUR_RGB( '', 0.689999997615810, 0.689999997615810, 0.689999997615810 );
#190 = AXIS2_PLACEMENT_3D( '', #266, #267, #268 );
#191 = DRAUGHTING_PRE_DEFINED_CURVE_FONT( 'continuous' );
#192 = COLOUR_RGB( '', 0.689999997615810, 0.689999997615810, 0.689999997615810 );
#193 = AXIS2_PLACEMENT_3D( '', #269, #270, #271 );
#194 = SURFACE_SIDE_STYLE( '', ( #272 ) );
#195 = EDGE_LOOP( '', ( #273, #274, #275, #276 ) );
#196 = AXIS2_PLACEMENT_3D( '', #277, #278, #279 );
#197 = DRAUGHTING_PRE_DEFINED_CURVE_FONT( 'continuous' );
#198 = COLOUR_RGB( '', 0.689999997615810, 0.689999997615810, 0.689999997615810 );
#199 = AXIS2_PLACEMENT_3D( '', #280, #281, #282 );
#200 = PRE_DEFINED_MARKER( '' );
#201 = COLOUR_RGB( '', 0.689999997615810, 0.689999997615810, 0.689999997615810 );
#202 = PRE_DEFINED_MARKER( '' );
#203 = COLOUR_RGB( '', 0.689999997615810, 0.689999997615810, 0.689999997615810 );
#204 = DRAUGHTING_PRE_DEFINED_CURVE_FONT( 'continuous' );
#205 = COLOUR_RGB( '', 0.689999997615810, 0.689999997615810, 0.689999997615810 );
#206 = AXIS2_PLACEMENT_3D( '', #283, #284, #285 );
#207 = PRE_DEFINED_MARKER( '' );
#208 = COLOUR_RGB( '', 0.689999997615810, 0.689999997615810, 0.689999997615810 );
#209 = SURFACE_SIDE_STYLE( '', ( #286 ) );
#210 = EDGE_LOOP( '', ( #287, #288, #289, #290 ) );
#211 = AXIS2_PLACEMENT_3D( '', #291, #292, #293 );
#212 = PRE_DEFINED_MARKER( '' );
#213 = COLOUR_RGB( '', 0.689999997615810, 0.689999997615810, 0.689999997615810 );
#214 = PRE_DEFINED_MARKER( '' );
#215 = COLOUR_RGB( '', 0.689999997615810, 0.689999997615810, 0.689999997615810 );
#216 = PRE_DEFINED_MARKER( '' );
#217 = COLOUR_RGB( '', 0.689999997615810, 0.689999997615810, 0.689999997615810 );
#218 = SURFACE_SIDE_STYLE( '', ( #294 ) );
#219 = EDGE_LOOP( '', ( #295, #296 ) );
#220 = EDGE_LOOP( '', ( #297, #298 ) );
#221 = AXIS2_PLACEMENT_3D( '', #299, #300, #301 );
#222 = SURFACE_SIDE_STYLE( '', ( #302 ) );
#223 = EDGE_LOOP( '', ( #303, #304 ) );
#224 = EDGE_LOOP( '', ( #305, #306 ) );
#225 = AXIS2_PLACEMENT_3D( '', #307, #308, #309 );
#226 = DRAUGHTING_PRE_DEFINED_CURVE_FONT( 'continuous' );
#227 = COLOUR_RGB( '', 0.689999997615810, 0.689999997615810, 0.689999997615810 );
#228 = AXIS2_PLACEMENT_3D( '', #310, #311, #312 );
#229 = DRAUGHTING_PRE_DEFINED_CURVE_FONT( 'continuous' );
#230 = COLOUR_RGB( '', 0.689999997615810, 0.689999997615810, 0.689999997615810 );
#231 = AXIS2_PLACEMENT_3D( '', #313, #314, #315 );
#232 = DRAUGHTING_PRE_DEFINED_CURVE_FONT( 'continuous' );
#233 = COLOUR_RGB( '', 0.689999997615810, 0.689999997615810, 0.689999997615810 );
#234 = AXIS2_PLACEMENT_3D( '', #316, #317, #318 );
#235 = DRAUGHTING_PRE_DEFINED_CURVE_FONT( 'continuous' );
#236 = COLOUR_RGB( '', 0.689999997615810, 0.689999997615810, 0.689999997615810 );
#237 = CARTESIAN_POINT( '', ( 0.000000000000000, 3.06151588455594E-014, 250.000000000000 ) );
#238 = VECTOR( '', #319, 1.00000000000000 );
#239 = DRAUGHTING_PRE_DEFINED_CURVE_FONT( 'continuous' );
#240 = COLOUR_RGB( '', 0.689999997615810, 0.689999997615810, 0.689999997615810 );
#241 = CARTESIAN_POINT( '', ( 0.000000000000000, 2.82761607097587E-014, 230.900000000000 ) );
#242 = VECTOR( '', #320, 1.00000000000000 );
#243 = DRAUGHTING_PRE_DEFINED_CURVE_FONT( 'continuous' );
#244 = COLOUR_RGB( '', 0.689999997615810, 0.689999997615810, 0.689999997615810 );
#245 = AXIS2_PLACEMENT_3D( '', #321, #322, #323 );
#246 = SURFACE_SIDE_STYLE( '', ( #324 ) );
#247 = EDGE_LOOP( '', ( #325, #326, #327, #328 ) );
#248 = AXIS2_PLACEMENT_3D( '', #329, #330, #331 );
#249 = DRAUGHTING_PRE_DEFINED_CURVE_FONT( 'continuous' );
#250 = COLOUR_RGB( '', 0.689999997615810, 0.689999997615810, 0.689999997615810 );
#251 = CARTESIAN_POINT( '', ( 0.000000000000000, -3.06151588455594E-014, -250.000000000000 ) );
#252 = VECTOR( '', #332, 1.00000000000000 );
#253 = DRAUGHTING_PRE_DEFINED_CURVE_FONT( 'continuous' );
#254 = COLOUR_RGB( '', 0.689999997615810, 0.689999997615810, 0.689999997615810 );
#255 = CARTESIAN_POINT( '', ( 0.000000000000000, -2.82761607097587E-014, -230.900000000000 ) );
#256 = VECTOR( '', #333, 1.00000000000000 );
#257 = PRE_DEFINED_MARKER( '' );
#258 = COLOUR_RGB( '', 0.689999997615810, 0.689999997615810, 0.689999997615810 );
#259 = SURFACE_SIDE_STYLE( '', ( #334 ) );
#260 = EDGE_LOOP( '', ( #335, #336, #337, #338 ) );
#261 = AXIS2_PLACEMENT_3D( '', #339, #340, #341 );
#262 = SURFACE_SIDE_STYLE( '', ( #342 ) );
#263 = PRE_DEFINED_MARKER( '' );
#264 = COLOUR_RGB( '', 0.689999997615810, 0.689999997615810, 0.689999997615810 );
#266 = CARTESIAN_POINT( '', ( 5000.00000000000, 0.000000000000000, 0.000000000000000 ) );
#267 = DIRECTION( '', ( -1.00000000000000, 0.000000000000000, 0.000000000000000 ) );
#268 = DIRECTION( '', ( 0.000000000000000, 0.000000000000000, -1.00000000000000 ) );
#269 = CARTESIAN_POINT( '', ( 0.000000000000000, 0.000000000000000, 0.000000000000000 ) );
#270 = DIRECTION( '', ( 1.00000000000000, -0.000000000000000, 0.000000000000000 ) );
#271 = DIRECTION( '', ( 0.000000000000000, 0.000000000000000, -1.00000000000000 ) );
#272 = SURFACE_STYLE_FILL_AREA( #343 );
#273 = ORIENTED_EDGE( '', *, *, #95, .T. );
#274 = ORIENTED_EDGE( '', *, *, #81, .T. );
#275 = ORIENTED_EDGE( '', *, *, #87, .T. );
#276 = ORIENTED_EDGE( '', *, *, #79, .F. );
#277 = CARTESIAN_POINT( '', ( 0.000000000000000, 0.000000000000000, 0.000000000000000 ) );
#278 = DIRECTION( '', ( -1.00000000000000, -0.000000000000000, -0.000000000000000 ) );
#279 = DIRECTION( '', ( 0.000000000000000, 0.000000000000000, -1.00000000000000 ) );
#280 = CARTESIAN_POINT( '', ( 5000.00000000000, 0.000000000000000, 0.000000000000000 ) );
#281 = DIRECTION( '', ( 1.00000000000000, 0.000000000000000, 0.000000000000000 ) );
#282 = DIRECTION( '', ( 0.000000000000000, 0.000000000000000, -1.00000000000000 ) );
#283 = CARTESIAN_POINT( '', ( 5000.00000000000, 0.000000000000000, 0.000000000000000 ) );
#284 = DIRECTION( '', ( -1.00000000000000, 0.000000000000000, 0.000000000000000 ) );
#285 = DIRECTION( '', ( 0.000000000000000, 0.000000000000000, -1.00000000000000 ) );
#286 = SURFACE_STYLE_FILL_AREA( #344 );
#287 = ORIENTED_EDGE( '', *, *, #93, .F. );
#288 = ORIENTED_EDGE( '', *, *, #89, .T. );
#289 = ORIENTED_EDGE( '', *, *, #85, .F. );
#290 = ORIENTED_EDGE( '', *, *, #51, .T. );
#291 = CARTESIAN_POINT( '', ( 0.000000000000000, 0.000000000000000, 0.000000000000000 ) );
#292 = DIRECTION( '', ( -1.00000000000000, -0.000000000000000, -0.000000000000000 ) );
#293 = DIRECTION( '', ( 0.000000000000000, 0.000000000000000, -1.00000000000000 ) );
#294 = SURFACE_STYLE_FILL_AREA( #345 );
#295 = ORIENTED_EDGE( '', *, *, #89, .F. );
#296 = ORIENTED_EDGE( '', *, *, #83, .F. );
#297 = ORIENTED_EDGE( '', *, *, #79, .T. );
#298 = ORIENTED_EDGE( '', *, *, #53, .T. );
#299 = CARTESIAN_POINT( '', ( 0.000000000000000, 0.000000000000000, 0.000000000000000 ) );
#300 = DIRECTION( '', ( 1.00000000000000, 0.000000000000000, 0.000000000000000 ) );
#301 = DIRECTION( '', ( 0.000000000000000, 0.000000000000000, -1.00000000000000 ) );
#302 = SURFACE_STYLE_FILL_AREA( #346 );
#303 = ORIENTED_EDGE( '', *, *, #63, .F. );
#304 = ORIENTED_EDGE( '', *, *, #51, .F. );
#305 = ORIENTED_EDGE( '', *, *, #81, .F. );
#306 = ORIENTED_EDGE( '', *, *, #57, .F. );
#307 = CARTESIAN_POINT( '', ( 5000.00000000000, 0.000000000000000, 0.000000000000000 ) );
#308 = DIRECTION( '', ( 1.00000000000000, 0.000000000000000, 0.000000000000000 ) );
#309 = DIRECTION( '', ( 0.000000000000000, 0.000000000000000, -1.00000000000000 ) );
#310 = CARTESIAN_POINT( '', ( 0.000000000000000, 0.000000000000000, 0.000000000000000 ) );
#311 = DIRECTION( '', ( 1.00000000000000, -0.000000000000000, 0.000000000000000 ) );
#312 = DIRECTION( '', ( 0.000000000000000, 0.000000000000000, -1.00000000000000 ) );
#313 = CARTESIAN_POINT( '', ( 5000.00000000000, 0.000000000000000, 0.000000000000000 ) );
#314 = DIRECTION( '', ( 1.00000000000000, 0.000000000000000, 0.000000000000000 ) );
#315 = DIRECTION( '', ( 0.000000000000000, 0.000000000000000, -1.00000000000000 ) );
#316 = CARTESIAN_POINT( '', ( 0.000000000000000, 0.000000000000000, 0.000000000000000 ) );
#317 = DIRECTION( '', ( 1.00000000000000, -0.000000000000000, 0.000000000000000 ) );
#318 = DIRECTION( '', ( 0.000000000000000, 0.000000000000000, -1.00000000000000 ) );
#319 = DIRECTION( '', ( -1.00000000000000, -0.000000000000000, -0.000000000000000 ) );
#320 = DIRECTION( '', ( -1.00000000000000, 0.000000000000000, 0.000000000000000 ) );
#321 = CARTESIAN_POINT( '', ( 0.000000000000000, 0.000000000000000, 0.000000000000000 ) );
#322 = DIRECTION( '', ( 1.00000000000000, -0.000000000000000, 0.000000000000000 ) );
#323 = DIRECTION( '', ( 0.000000000000000, 0.000000000000000, -1.00000000000000 ) );
#324 = SURFACE_STYLE_FILL_AREA( #347 );
#325 = ORIENTED_EDGE( '', *, *, #95, .F. );
#326 = ORIENTED_EDGE( '', *, *, #53, .F. );
#327 = ORIENTED_EDGE( '', *, *, #87, .F. );
#328 = ORIENTED_EDGE( '', *, *, #57, .T. );
#329 = CARTESIAN_POINT( '', ( 0.000000000000000, 0.000000000000000, 0.000000000000000 ) );
#330 = DIRECTION( '', ( -1.00000000000000, -0.000000000000000, -0.000000000000000 ) );
#331 = DIRECTION( '', ( 0.000000000000000, 0.000000000000000, -1.00000000000000 ) );
#332 = DIRECTION( '', ( 1.00000000000000, 0.000000000000000, 0.000000000000000 ) );
#333 = DIRECTION( '', ( 1.00000000000000, 0.000000000000000, 0.000000000000000 ) );
#334 = SURFACE_STYLE_FILL_AREA( #348 );
#335 = ORIENTED_EDGE( '', *, *, #93, .T. );
#336 = ORIENTED_EDGE( '', *, *, #63, .T. );
#337 = ORIENTED_EDGE( '', *, *, #85, .T. );
#338 = ORIENTED_EDGE( '', *, *, #83, .T. );
#339 = CARTESIAN_POINT( '', ( 0.000000000000000, 0.000000000000000, 0.000000000000000 ) );
#340 = DIRECTION( '', ( -1.00000000000000, -0.000000000000000, -0.000000000000000 ) );
#341 = DIRECTION( '', ( 0.000000000000000, 0.000000000000000, -1.00000000000000 ) );
#342 = SURFACE_STYLE_FILL_AREA( #349 );
#343 = FILL_AREA_STYLE( '', ( #350 ) );
#344 = FILL_AREA_STYLE( '', ( #351 ) );
#345 = FILL_AREA_STYLE( '', ( #352 ) );
#346 = FILL_AREA_STYLE( '', ( #353 ) );
#347 = FILL_AREA_STYLE( '', ( #354 ) );
#348 = FILL_AREA_STYLE( '', ( #355 ) );
#349 = FILL_AREA_STYLE( '', ( #356 ) );
#350 = FILL_AREA_STYLE_COLOUR( '', #357 );
#351 = FILL_AREA_STYLE_COLOUR( '', #358 );
#352 = FILL_AREA_STYLE_COLOUR( '', #359 );
#353 = FILL_AREA_STYLE_COLOUR( '', #360 );
#354 = FILL_AREA_STYLE_COLOUR( '', #361 );
#355 = FILL_AREA_STYLE_COLOUR( '', #362 );
#356 = FILL_AREA_STYLE_COLOUR( '', #363 );
#357 = COLOUR_RGB( '', 0.689999997615810, 0.689999997615810, 0.689999997615810 );
#358 = COLOUR_RGB( '', 0.689999997615810, 0.689999997615810, 0.689999997615810 );
#359 = COLOUR_RGB( '', 0.689999997615810, 0.689999997615810, 0.689999997615810 );
#360 = COLOUR_RGB( '', 0.689999997615810, 0.689999997615810, 0.689999997615810 );
#361 = COLOUR_RGB( '', 0.689999997615810, 0.689999997615810, 0.689999997615810 );
#362 = COLOUR_RGB( '', 0.689999997615810, 0.689999997615810, 0.689999997615810 );
#363 = COLOUR_RGB( '', 0.689999997615810, 0.689999997615810, 0.689999997615810 );
ENDSEC;
END-ISO-10303-21;
