ISO-10303-21;
HEADER;
/* Generated by software containing ST-Developer
 * from STEP Tools, Inc. (www.steptools.com) 
 */

FILE_DESCRIPTION(
/* description */ (''),
/* implementation_level */ '2;1');

FILE_NAME(
/* name */ 'C:\\Users\\Gabriele\\Desktop\\catalogo\\BE30\\BE300900.stp',

/* time_stamp */ '2016-10-17T14:45:59+02:00',
/* author */ ('Gabriele'),
/* organization */ (''),
/* preprocessor_version */ 'ST-DEVELOPER v16.5',
/* originating_system */ 'Autodesk Inventor 2017',
/* authorisation */ '');

FILE_SCHEMA (('AUTOMOTIVE_DESIGN { 1 0 10303 214 3 1 1 }'));
ENDSEC;

DATA;
#10=MECHANICAL_DESIGN_GEOMETRIC_PRESENTATION_REPRESENTATION('',(#13),#507);
#11=SHAPE_REPRESENTATION_RELATIONSHIP('SRR','None',#516,#12);
#12=ADVANCED_BREP_SHAPE_REPRESENTATION('',(#14),#506);
#13=STYLED_ITEM('',(#525),#14);
#14=MANIFOLD_SOLID_BREP('Solido1',#213);
#15=B_SPLINE_CURVE_WITH_KNOTS('',3,(#330,#331,#332,#333,#334,#335,#336,
#337,#338,#339,#340,#341,#342,#343,#344,#345,#346,#347,#348,#349,#350,#351,
#352,#353,#354,#355,#356,#357,#358,#359,#360,#361,#362,#363,#364,#365,#366,
#367,#368,#369,#370,#371,#372,#373,#374,#375,#376,#377,#378,#379,#380,#381,
#382,#383,#384,#385,#386,#387,#388,#389,#390,#391,#392,#393,#394,#395),
 .UNSPECIFIED.,.T.,.F.,(4,2,2,2,2,2,2,2,2,2,2,2,2,2,2,2,2,2,2,2,2,2,2,2,
2,2,2,2,2,2,2,2,4),(0.,1.02741426907436,2.05482853814871,3.08224755132129,
4.10966656449386,5.13709306572092,6.16451956694797,7.19195615077323,8.21939273459848,
9.24683401375516,10.2742752929118,11.3017135863758,12.3291518798397,13.3565774956309,
14.3840031114222,15.4114122698707,16.4388214283191,17.4662305867676,18.493639745216,
19.5210653610073,20.5484909767985,21.5759292702625,22.6033675637264,23.6308088428831,
24.6582501220397,25.685686705865,26.7131232896902,27.7405497909173,28.7679762921443,
29.7953953053169,30.8228143184895,31.8502285875639,32.8776428566382),
 .UNSPECIFIED.);
#16=B_SPLINE_CURVE_WITH_KNOTS('',3,(#406,#407,#408,#409,#410,#411,#412,
#413,#414,#415,#416,#417,#418,#419,#420,#421,#422,#423,#424,#425,#426,#427,
#428,#429,#430,#431,#432,#433,#434,#435,#436,#437,#438,#439,#440,#441,#442,
#443,#444,#445,#446,#447,#448,#449,#450,#451,#452,#453,#454,#455,#456,#457,
#458,#459,#460,#461,#462,#463,#464,#465,#466,#467,#468,#469,#470,#471),
 .UNSPECIFIED.,.T.,.F.,(4,2,2,2,2,2,2,2,2,2,2,2,2,2,2,2,2,2,2,2,2,2,2,2,
2,2,2,2,2,2,2,2,4),(0.,1.02741426907436,2.05482853814871,3.08224755132129,
4.10966656449387,5.13709306572092,6.16451956694798,7.19195615077323,8.21939273459848,
9.24683401375516,10.2742752929118,11.3017135863758,12.3291518798397,13.3565774956309,
14.3840031114222,15.4114122698707,16.4388214283191,17.4662305867676,18.493639745216,
19.5210653610073,20.5484909767985,21.5759292702625,22.6033675637264,23.6308088428831,
24.6582501220397,25.685686705865,26.7131232896902,27.7405497909173,28.7679762921444,
29.7953953053169,30.8228143184895,31.8502285875639,32.8776428566382),
 .UNSPECIFIED.);
#17=PLANE('',#220);
#18=PLANE('',#226);
#19=PLANE('',#230);
#20=PLANE('',#237);
#21=PLANE('',#246);
#22=PLANE('',#247);
#23=CYLINDRICAL_SURFACE('',#218,56.5);
#24=CYLINDRICAL_SURFACE('',#224,56.5);
#25=CYLINDRICAL_SURFACE('',#232,45.);
#26=CYLINDRICAL_SURFACE('',#239,45.);
#27=FACE_BOUND('',#64,.T.);
#28=FACE_BOUND('',#66,.T.);
#29=FACE_BOUND('',#68,.T.);
#30=FACE_BOUND('',#70,.T.);
#31=FACE_BOUND('',#72,.T.);
#32=FACE_BOUND('',#74,.T.);
#33=FACE_BOUND('',#76,.T.);
#34=FACE_BOUND('',#78,.T.);
#35=FACE_BOUND('',#80,.T.);
#36=FACE_BOUND('',#82,.T.);
#37=FACE_BOUND('',#84,.T.);
#38=FACE_BOUND('',#86,.T.);
#39=FACE_BOUND('',#88,.T.);
#40=FACE_BOUND('',#90,.T.);
#41=FACE_BOUND('',#92,.T.);
#42=FACE_BOUND('',#94,.T.);
#43=FACE_BOUND('',#96,.T.);
#44=FACE_BOUND('',#98,.T.);
#45=FACE_OUTER_BOUND('',#63,.T.);
#46=FACE_OUTER_BOUND('',#65,.T.);
#47=FACE_OUTER_BOUND('',#67,.T.);
#48=FACE_OUTER_BOUND('',#69,.T.);
#49=FACE_OUTER_BOUND('',#71,.T.);
#50=FACE_OUTER_BOUND('',#73,.T.);
#51=FACE_OUTER_BOUND('',#75,.T.);
#52=FACE_OUTER_BOUND('',#77,.T.);
#53=FACE_OUTER_BOUND('',#79,.T.);
#54=FACE_OUTER_BOUND('',#81,.T.);
#55=FACE_OUTER_BOUND('',#83,.T.);
#56=FACE_OUTER_BOUND('',#85,.T.);
#57=FACE_OUTER_BOUND('',#87,.T.);
#58=FACE_OUTER_BOUND('',#89,.T.);
#59=FACE_OUTER_BOUND('',#91,.T.);
#60=FACE_OUTER_BOUND('',#93,.T.);
#61=FACE_OUTER_BOUND('',#95,.T.);
#62=FACE_OUTER_BOUND('',#97,.T.);
#63=EDGE_LOOP('',(#151));
#64=EDGE_LOOP('',(#152));
#65=EDGE_LOOP('',(#153));
#66=EDGE_LOOP('',(#154));
#67=EDGE_LOOP('',(#155));
#68=EDGE_LOOP('',(#156));
#69=EDGE_LOOP('',(#157));
#70=EDGE_LOOP('',(#158));
#71=EDGE_LOOP('',(#159));
#72=EDGE_LOOP('',(#160));
#73=EDGE_LOOP('',(#161));
#74=EDGE_LOOP('',(#162));
#75=EDGE_LOOP('',(#163));
#76=EDGE_LOOP('',(#164));
#77=EDGE_LOOP('',(#165));
#78=EDGE_LOOP('',(#166));
#79=EDGE_LOOP('',(#167));
#80=EDGE_LOOP('',(#168));
#81=EDGE_LOOP('',(#169));
#82=EDGE_LOOP('',(#170));
#83=EDGE_LOOP('',(#171));
#84=EDGE_LOOP('',(#172));
#85=EDGE_LOOP('',(#173));
#86=EDGE_LOOP('',(#174));
#87=EDGE_LOOP('',(#175));
#88=EDGE_LOOP('',(#176));
#89=EDGE_LOOP('',(#177));
#90=EDGE_LOOP('',(#178));
#91=EDGE_LOOP('',(#179));
#92=EDGE_LOOP('',(#180));
#93=EDGE_LOOP('',(#181));
#94=EDGE_LOOP('',(#182));
#95=EDGE_LOOP('',(#183));
#96=EDGE_LOOP('',(#184));
#97=EDGE_LOOP('',(#185));
#98=EDGE_LOOP('',(#186));
#99=CIRCLE('',#216,56.5);
#100=CIRCLE('',#217,56.);
#101=CIRCLE('',#219,56.5);
#102=CIRCLE('',#222,56.);
#103=CIRCLE('',#223,56.5);
#104=CIRCLE('',#225,56.5);
#105=CIRCLE('',#228,45.);
#106=CIRCLE('',#229,45.5);
#107=CIRCLE('',#231,56.);
#108=CIRCLE('',#233,45.);
#109=CIRCLE('',#235,45.);
#110=CIRCLE('',#236,45.5);
#111=CIRCLE('',#238,56.);
#112=CIRCLE('',#240,45.);
#113=CIRCLE('',#244,44.);
#114=CIRCLE('',#245,44.);
#115=VERTEX_POINT('',#321);
#116=VERTEX_POINT('',#323);
#117=VERTEX_POINT('',#326);
#118=VERTEX_POINT('',#329);
#119=VERTEX_POINT('',#397);
#120=VERTEX_POINT('',#399);
#121=VERTEX_POINT('',#402);
#122=VERTEX_POINT('',#405);
#123=VERTEX_POINT('',#473);
#124=VERTEX_POINT('',#475);
#125=VERTEX_POINT('',#478);
#126=VERTEX_POINT('',#481);
#127=VERTEX_POINT('',#484);
#128=VERTEX_POINT('',#486);
#129=VERTEX_POINT('',#489);
#130=VERTEX_POINT('',#492);
#131=VERTEX_POINT('',#497);
#132=VERTEX_POINT('',#499);
#133=EDGE_CURVE('',#115,#115,#99,.T.);
#134=EDGE_CURVE('',#116,#116,#100,.T.);
#135=EDGE_CURVE('',#117,#117,#101,.T.);
#136=EDGE_CURVE('',#118,#118,#15,.T.);
#137=EDGE_CURVE('',#119,#119,#102,.T.);
#138=EDGE_CURVE('',#120,#120,#103,.T.);
#139=EDGE_CURVE('',#121,#121,#104,.T.);
#140=EDGE_CURVE('',#122,#122,#16,.T.);
#141=EDGE_CURVE('',#123,#123,#105,.T.);
#142=EDGE_CURVE('',#124,#124,#106,.T.);
#143=EDGE_CURVE('',#125,#125,#107,.T.);
#144=EDGE_CURVE('',#126,#126,#108,.T.);
#145=EDGE_CURVE('',#127,#127,#109,.T.);
#146=EDGE_CURVE('',#128,#128,#110,.T.);
#147=EDGE_CURVE('',#129,#129,#111,.T.);
#148=EDGE_CURVE('',#130,#130,#112,.T.);
#149=EDGE_CURVE('',#131,#131,#113,.T.);
#150=EDGE_CURVE('',#132,#132,#114,.T.);
#151=ORIENTED_EDGE('',*,*,#133,.T.);
#152=ORIENTED_EDGE('',*,*,#134,.T.);
#153=ORIENTED_EDGE('',*,*,#135,.F.);
#154=ORIENTED_EDGE('',*,*,#133,.F.);
#155=ORIENTED_EDGE('',*,*,#134,.F.);
#156=ORIENTED_EDGE('',*,*,#136,.F.);
#157=ORIENTED_EDGE('',*,*,#137,.T.);
#158=ORIENTED_EDGE('',*,*,#138,.T.);
#159=ORIENTED_EDGE('',*,*,#139,.F.);
#160=ORIENTED_EDGE('',*,*,#138,.F.);
#161=ORIENTED_EDGE('',*,*,#137,.F.);
#162=ORIENTED_EDGE('',*,*,#140,.F.);
#163=ORIENTED_EDGE('',*,*,#141,.T.);
#164=ORIENTED_EDGE('',*,*,#142,.T.);
#165=ORIENTED_EDGE('',*,*,#143,.F.);
#166=ORIENTED_EDGE('',*,*,#142,.F.);
#167=ORIENTED_EDGE('',*,*,#144,.F.);
#168=ORIENTED_EDGE('',*,*,#141,.F.);
#169=ORIENTED_EDGE('',*,*,#145,.T.);
#170=ORIENTED_EDGE('',*,*,#146,.T.);
#171=ORIENTED_EDGE('',*,*,#147,.F.);
#172=ORIENTED_EDGE('',*,*,#146,.F.);
#173=ORIENTED_EDGE('',*,*,#148,.T.);
#174=ORIENTED_EDGE('',*,*,#145,.F.);
#175=ORIENTED_EDGE('',*,*,#147,.T.);
#176=ORIENTED_EDGE('',*,*,#135,.T.);
#177=ORIENTED_EDGE('',*,*,#139,.T.);
#178=ORIENTED_EDGE('',*,*,#143,.T.);
#179=ORIENTED_EDGE('',*,*,#149,.F.);
#180=ORIENTED_EDGE('',*,*,#150,.F.);
#181=ORIENTED_EDGE('',*,*,#144,.T.);
#182=ORIENTED_EDGE('',*,*,#150,.T.);
#183=ORIENTED_EDGE('',*,*,#148,.F.);
#184=ORIENTED_EDGE('',*,*,#149,.T.);
#185=ORIENTED_EDGE('',*,*,#140,.T.);
#186=ORIENTED_EDGE('',*,*,#136,.T.);
#187=TOROIDAL_SURFACE('',#215,56.,0.5);
#188=TOROIDAL_SURFACE('',#221,56.,0.5);
#189=TOROIDAL_SURFACE('',#227,45.5,0.5);
#190=TOROIDAL_SURFACE('',#234,45.5,0.5);
#191=TOROIDAL_SURFACE('',#241,56.,0.5);
#192=TOROIDAL_SURFACE('',#242,56.,0.5);
#193=TOROIDAL_SURFACE('',#243,180.,44.);
#194=TOROIDAL_SURFACE('',#248,180.,55.5);
#195=ADVANCED_FACE('',(#45,#27),#187,.T.);
#196=ADVANCED_FACE('',(#46,#28),#23,.T.);
#197=ADVANCED_FACE('',(#47,#29),#17,.T.);
#198=ADVANCED_FACE('',(#48,#30),#188,.T.);
#199=ADVANCED_FACE('',(#49,#31),#24,.T.);
#200=ADVANCED_FACE('',(#50,#32),#18,.F.);
#201=ADVANCED_FACE('',(#51,#33),#189,.T.);
#202=ADVANCED_FACE('',(#52,#34),#19,.T.);
#203=ADVANCED_FACE('',(#53,#35),#25,.F.);
#204=ADVANCED_FACE('',(#54,#36),#190,.T.);
#205=ADVANCED_FACE('',(#55,#37),#20,.F.);
#206=ADVANCED_FACE('',(#56,#38),#26,.F.);
#207=ADVANCED_FACE('',(#57,#39),#191,.T.);
#208=ADVANCED_FACE('',(#58,#40),#192,.T.);
#209=ADVANCED_FACE('',(#59,#41),#193,.F.);
#210=ADVANCED_FACE('',(#60,#42),#21,.T.);
#211=ADVANCED_FACE('',(#61,#43),#22,.F.);
#212=ADVANCED_FACE('',(#62,#44),#194,.T.);
#213=CLOSED_SHELL('',(#195,#196,#197,#198,#199,#200,#201,#202,#203,#204,
#205,#206,#207,#208,#209,#210,#211,#212));
#214=AXIS2_PLACEMENT_3D('placement',#319,#249,#250);
#215=AXIS2_PLACEMENT_3D('',#320,#251,#252);
#216=AXIS2_PLACEMENT_3D('',#322,#253,#254);
#217=AXIS2_PLACEMENT_3D('',#324,#255,#256);
#218=AXIS2_PLACEMENT_3D('',#325,#257,#258);
#219=AXIS2_PLACEMENT_3D('',#327,#259,#260);
#220=AXIS2_PLACEMENT_3D('',#328,#261,#262);
#221=AXIS2_PLACEMENT_3D('',#396,#263,#264);
#222=AXIS2_PLACEMENT_3D('',#398,#265,#266);
#223=AXIS2_PLACEMENT_3D('',#400,#267,#268);
#224=AXIS2_PLACEMENT_3D('',#401,#269,#270);
#225=AXIS2_PLACEMENT_3D('',#403,#271,#272);
#226=AXIS2_PLACEMENT_3D('',#404,#273,#274);
#227=AXIS2_PLACEMENT_3D('',#472,#275,#276);
#228=AXIS2_PLACEMENT_3D('',#474,#277,#278);
#229=AXIS2_PLACEMENT_3D('',#476,#279,#280);
#230=AXIS2_PLACEMENT_3D('',#477,#281,#282);
#231=AXIS2_PLACEMENT_3D('',#479,#283,#284);
#232=AXIS2_PLACEMENT_3D('',#480,#285,#286);
#233=AXIS2_PLACEMENT_3D('',#482,#287,#288);
#234=AXIS2_PLACEMENT_3D('',#483,#289,#290);
#235=AXIS2_PLACEMENT_3D('',#485,#291,#292);
#236=AXIS2_PLACEMENT_3D('',#487,#293,#294);
#237=AXIS2_PLACEMENT_3D('',#488,#295,#296);
#238=AXIS2_PLACEMENT_3D('',#490,#297,#298);
#239=AXIS2_PLACEMENT_3D('',#491,#299,#300);
#240=AXIS2_PLACEMENT_3D('',#493,#301,#302);
#241=AXIS2_PLACEMENT_3D('',#494,#303,#304);
#242=AXIS2_PLACEMENT_3D('',#495,#305,#306);
#243=AXIS2_PLACEMENT_3D('',#496,#307,#308);
#244=AXIS2_PLACEMENT_3D('',#498,#309,#310);
#245=AXIS2_PLACEMENT_3D('',#500,#311,#312);
#246=AXIS2_PLACEMENT_3D('',#501,#313,#314);
#247=AXIS2_PLACEMENT_3D('',#502,#315,#316);
#248=AXIS2_PLACEMENT_3D('',#503,#317,#318);
#249=DIRECTION('axis',(0.,0.,1.));
#250=DIRECTION('refdir',(1.,0.,0.));
#251=DIRECTION('center_axis',(0.,0.,1.));
#252=DIRECTION('ref_axis',(1.,0.,0.));
#253=DIRECTION('center_axis',(0.,0.,1.));
#254=DIRECTION('ref_axis',(1.,0.,0.));
#255=DIRECTION('center_axis',(0.,0.,-1.));
#256=DIRECTION('ref_axis',(1.,0.,0.));
#257=DIRECTION('center_axis',(0.,0.,1.));
#258=DIRECTION('ref_axis',(1.,0.,0.));
#259=DIRECTION('center_axis',(0.,0.,-1.));
#260=DIRECTION('ref_axis',(1.,0.,0.));
#261=DIRECTION('center_axis',(0.,0.,1.));
#262=DIRECTION('ref_axis',(1.,0.,0.));
#263=DIRECTION('center_axis',(-1.,0.,-2.22044604925031E-16));
#264=DIRECTION('ref_axis',(0.,0.,1.));
#265=DIRECTION('center_axis',(-1.,0.,-2.22044604925031E-16));
#266=DIRECTION('ref_axis',(-2.22044604925031E-16,0.,1.));
#267=DIRECTION('center_axis',(1.,0.,2.22044604925031E-16));
#268=DIRECTION('ref_axis',(-2.22290229488001E-16,0.,1.));
#269=DIRECTION('center_axis',(-1.,0.,-2.22044604925031E-16));
#270=DIRECTION('ref_axis',(-2.22044604925031E-16,0.,1.));
#271=DIRECTION('center_axis',(-1.,0.,6.12323399573677E-17));
#272=DIRECTION('ref_axis',(6.14061407425418E-17,0.,1.));
#273=DIRECTION('center_axis',(-1.,0.,-2.22044604925031E-16));
#274=DIRECTION('ref_axis',(0.,0.,1.));
#275=DIRECTION('center_axis',(1.,0.,-6.12323399573677E-17));
#276=DIRECTION('ref_axis',(0.,0.,-1.));
#277=DIRECTION('center_axis',(1.,0.,-6.12323399573677E-17));
#278=DIRECTION('ref_axis',(6.16790569236198E-17,0.,1.));
#279=DIRECTION('center_axis',(-1.,0.,6.12323399573677E-17));
#280=DIRECTION('ref_axis',(6.12323399573677E-17,0.,1.));
#281=DIRECTION('center_axis',(-1.,0.,6.12323399573677E-17));
#282=DIRECTION('ref_axis',(0.,0.,1.));
#283=DIRECTION('center_axis',(1.,0.,-6.12323399573677E-17));
#284=DIRECTION('ref_axis',(6.12323399573677E-17,0.,1.));
#285=DIRECTION('center_axis',(-1.,0.,-2.22044604925031E-16));
#286=DIRECTION('ref_axis',(-2.22044604925031E-16,0.,1.));
#287=DIRECTION('center_axis',(-1.,0.,-2.22044604925031E-16));
#288=DIRECTION('ref_axis',(-2.22044604925031E-16,0.,1.));
#289=DIRECTION('center_axis',(0.,0.,1.));
#290=DIRECTION('ref_axis',(1.,0.,0.));
#291=DIRECTION('center_axis',(0.,0.,1.));
#292=DIRECTION('ref_axis',(1.,0.,0.));
#293=DIRECTION('center_axis',(0.,0.,-1.));
#294=DIRECTION('ref_axis',(1.,0.,0.));
#295=DIRECTION('center_axis',(0.,0.,1.));
#296=DIRECTION('ref_axis',(1.,0.,0.));
#297=DIRECTION('center_axis',(0.,0.,1.));
#298=DIRECTION('ref_axis',(1.,0.,0.));
#299=DIRECTION('center_axis',(0.,0.,1.));
#300=DIRECTION('ref_axis',(1.,0.,0.));
#301=DIRECTION('center_axis',(0.,0.,1.));
#302=DIRECTION('ref_axis',(1.,0.,0.));
#303=DIRECTION('center_axis',(0.,0.,1.));
#304=DIRECTION('ref_axis',(1.,0.,0.));
#305=DIRECTION('center_axis',(-1.,0.,6.12323399573677E-17));
#306=DIRECTION('ref_axis',(0.,0.,1.));
#307=DIRECTION('center_axis',(0.,1.,0.));
#308=DIRECTION('ref_axis',(0.,0.,1.));
#309=DIRECTION('center_axis',(0.,0.,1.));
#310=DIRECTION('ref_axis',(-1.,0.,0.));
#311=DIRECTION('center_axis',(1.,0.,2.22044604925031E-16));
#312=DIRECTION('ref_axis',(-2.22044604925031E-16,0.,1.));
#313=DIRECTION('center_axis',(-1.,0.,-2.22044604925031E-16));
#314=DIRECTION('ref_axis',(0.,0.,1.));
#315=DIRECTION('center_axis',(0.,0.,1.));
#316=DIRECTION('ref_axis',(1.,0.,0.));
#317=DIRECTION('center_axis',(0.,-1.,0.));
#318=DIRECTION('ref_axis',(0.,0.,-1.));
#319=CARTESIAN_POINT('',(0.,0.,0.));
#320=CARTESIAN_POINT('Origin',(0.,0.,51.5));
#321=CARTESIAN_POINT('',(-56.5,-6.91925441518255E-15,51.5));
#322=CARTESIAN_POINT('Origin',(0.,0.,51.5));
#323=CARTESIAN_POINT('',(-56.,6.85802207522518E-15,52.));
#324=CARTESIAN_POINT('Origin',(0.,0.,52.));
#325=CARTESIAN_POINT('Origin',(0.,0.,0.));
#326=CARTESIAN_POINT('',(-56.5,6.91925441518255E-15,0.5));
#327=CARTESIAN_POINT('Origin',(0.,0.,0.5));
#328=CARTESIAN_POINT('Origin',(2.67260080527731E-15,-1.04799813533938E-15,
52.));
#329=CARTESIAN_POINT('',(55.4978768481788,-1.11022302462516E-15,52.));
#330=CARTESIAN_POINT('Ctrl Pts',(55.4978768481788,-1.11022302462516E-15,
52.));
#331=CARTESIAN_POINT('Ctrl Pts',(55.4978768481788,3.42471423024785,52.));
#332=CARTESIAN_POINT('Ctrl Pts',(55.1599841540328,7.16494538621106,52.));
#333=CARTESIAN_POINT('Ctrl Pts',(53.702931682678,14.490003279889,52.));
#334=CARTESIAN_POINT('Ctrl Pts',(52.583771957607,18.0748300279746,52.));
#335=CARTESIAN_POINT('Ctrl Pts',(49.9625919964005,24.4028867972951,52.));
#336=CARTESIAN_POINT('Ctrl Pts',(48.2190810388814,27.7291158847476,52.));
#337=CARTESIAN_POINT('Ctrl Pts',(44.069731725852,33.9390187495623,52.));
#338=CARTESIAN_POINT('Ctrl Pts',(41.6638935001093,36.822692613633,52.));
#339=CARTESIAN_POINT('Ctrl Pts',(36.8205622021556,41.6659959657906,52.));
#340=CARTESIAN_POINT('Ctrl Pts',(33.9368520106895,44.0718329776642,52.));
#341=CARTESIAN_POINT('Ctrl Pts',(27.726878347869,48.2211753306784,52.));
#342=CARTESIAN_POINT('Ctrl Pts',(24.4006150098945,49.9646808714376,52.));
#343=CARTESIAN_POINT('Ctrl Pts',(18.0724557832277,52.5858730736539,52.));
#344=CARTESIAN_POINT('Ctrl Pts',(14.4875467695189,53.7050428756262,52.));
#345=CARTESIAN_POINT('Ctrl Pts',(7.16232425933067,55.1621062113851,52.));
#346=CARTESIAN_POINT('Ctrl Pts',(3.42201081353926,55.5,52.));
#347=CARTESIAN_POINT('Ctrl Pts',(-3.42758206306718,55.5,52.));
#348=CARTESIAN_POINT('Ctrl Pts',(-7.16791228124171,55.1621031117239,52.));
#349=CARTESIAN_POINT('Ctrl Pts',(-14.4931692388103,53.7050342511152,52.));
#350=CARTESIAN_POINT('Ctrl Pts',(-18.0780960017629,52.5858623972204,52.));
#351=CARTESIAN_POINT('Ctrl Pts',(-24.406311744116,49.9646630224335,52.));
#352=CARTESIAN_POINT('Ctrl Pts',(-27.7326183979942,48.2211469239049,52.));
#353=CARTESIAN_POINT('Ctrl Pts',(-33.9426802779312,44.0717804015724,52.));
#354=CARTESIAN_POINT('Ctrl Pts',(-36.8264353582135,41.665929759595,52.));
#355=CARTESIAN_POINT('Ctrl Pts',(-41.6698359394793,36.8226089768572,52.));
#356=CARTESIAN_POINT('Ctrl Pts',(-44.0757080057916,33.9389315000156,52.));
#357=CARTESIAN_POINT('Ctrl Pts',(-48.2251232679702,27.7290151464186,52.));
#358=CARTESIAN_POINT('Ctrl Pts',(-49.9686659096756,24.4027758993776,52.));
#359=CARTESIAN_POINT('Ctrl Pts',(-52.5898789745875,18.0747274591439,52.));
#360=CARTESIAN_POINT('Ctrl Pts',(-53.7090499160753,14.4899237731114,52.));
#361=CARTESIAN_POINT('Ctrl Pts',(-55.1661186964771,7.16490868136918,52.));
#362=CARTESIAN_POINT('Ctrl Pts',(-55.5040161290333,3.42469719482816,52.));
#363=CARTESIAN_POINT('Ctrl Pts',(-55.5040161290333,-3.42469719482815,52.));
#364=CARTESIAN_POINT('Ctrl Pts',(-55.1661186964771,-7.16490868136918,52.));
#365=CARTESIAN_POINT('Ctrl Pts',(-53.7090499160753,-14.4899237731114,52.));
#366=CARTESIAN_POINT('Ctrl Pts',(-52.5898789745875,-18.0747274591439,52.));
#367=CARTESIAN_POINT('Ctrl Pts',(-49.9686659096756,-24.4027758993776,52.));
#368=CARTESIAN_POINT('Ctrl Pts',(-48.2251232679702,-27.7290151464186,52.));
#369=CARTESIAN_POINT('Ctrl Pts',(-44.0757080057916,-33.9389315000156,52.));
#370=CARTESIAN_POINT('Ctrl Pts',(-41.6698359394793,-36.8226089768572,52.));
#371=CARTESIAN_POINT('Ctrl Pts',(-36.8264353582135,-41.665929759595,52.));
#372=CARTESIAN_POINT('Ctrl Pts',(-33.9426802779312,-44.0717804015724,52.));
#373=CARTESIAN_POINT('Ctrl Pts',(-27.7326183979942,-48.2211469239049,52.));
#374=CARTESIAN_POINT('Ctrl Pts',(-24.406311744116,-49.9646630224335,52.));
#375=CARTESIAN_POINT('Ctrl Pts',(-18.0780960017629,-52.5858623972204,52.));
#376=CARTESIAN_POINT('Ctrl Pts',(-14.4931692388103,-53.7050342511152,52.));
#377=CARTESIAN_POINT('Ctrl Pts',(-7.16791228124171,-55.1621031117239,52.));
#378=CARTESIAN_POINT('Ctrl Pts',(-3.42758206306718,-55.5,52.));
#379=CARTESIAN_POINT('Ctrl Pts',(3.42201081353924,-55.5,52.));
#380=CARTESIAN_POINT('Ctrl Pts',(7.16232425933065,-55.1621062113851,52.));
#381=CARTESIAN_POINT('Ctrl Pts',(14.4875467695189,-53.7050428756262,52.));
#382=CARTESIAN_POINT('Ctrl Pts',(18.0724557832276,-52.5858730736539,52.));
#383=CARTESIAN_POINT('Ctrl Pts',(24.4006150098945,-49.9646808714376,52.));
#384=CARTESIAN_POINT('Ctrl Pts',(27.7268783478689,-48.2211753306784,52.));
#385=CARTESIAN_POINT('Ctrl Pts',(33.9368520106894,-44.0718329776642,52.));
#386=CARTESIAN_POINT('Ctrl Pts',(36.8205622021556,-41.6659959657906,52.));
#387=CARTESIAN_POINT('Ctrl Pts',(41.6638935001092,-36.822692613633,52.));
#388=CARTESIAN_POINT('Ctrl Pts',(44.069731725852,-33.9390187495623,52.));
#389=CARTESIAN_POINT('Ctrl Pts',(48.2190810388814,-27.7291158847476,52.));
#390=CARTESIAN_POINT('Ctrl Pts',(49.9625919964005,-24.4028867972951,52.));
#391=CARTESIAN_POINT('Ctrl Pts',(52.583771957607,-18.0748300279746,52.));
#392=CARTESIAN_POINT('Ctrl Pts',(53.702931682678,-14.490003279889,52.));
#393=CARTESIAN_POINT('Ctrl Pts',(55.1599841540328,-7.16494538621106,52.));
#394=CARTESIAN_POINT('Ctrl Pts',(55.4978768481788,-3.42471423024786,52.));
#395=CARTESIAN_POINT('Ctrl Pts',(55.4978768481788,-1.11022302462516E-15,
52.));
#396=CARTESIAN_POINT('Origin',(-179.5,0.,231.));
#397=CARTESIAN_POINT('',(-179.,-6.85802207522518E-15,175.));
#398=CARTESIAN_POINT('Origin',(-179.,0.,231.));
#399=CARTESIAN_POINT('',(-179.5,6.91925441518255E-15,174.5));
#400=CARTESIAN_POINT('Origin',(-179.5,0.,231.));
#401=CARTESIAN_POINT('Origin',(-231.,0.,231.));
#402=CARTESIAN_POINT('',(-230.5,-6.91925441518255E-15,174.5));
#403=CARTESIAN_POINT('Origin',(-230.5,0.,231.));
#404=CARTESIAN_POINT('Origin',(-179.,-1.04799813533938E-15,231.));
#405=CARTESIAN_POINT('',(-179.,1.11022302462516E-15,286.497876848179));
#406=CARTESIAN_POINT('Ctrl Pts',(-179.,1.11022302462516E-15,286.497876848179));
#407=CARTESIAN_POINT('Ctrl Pts',(-179.,-3.42471423024785,286.497876848179));
#408=CARTESIAN_POINT('Ctrl Pts',(-179.,-7.16494538621107,286.159984154033));
#409=CARTESIAN_POINT('Ctrl Pts',(-179.,-14.4900032798889,284.702931682678));
#410=CARTESIAN_POINT('Ctrl Pts',(-179.,-18.0748300279746,283.583771957607));
#411=CARTESIAN_POINT('Ctrl Pts',(-179.,-24.4028867972951,280.9625919964));
#412=CARTESIAN_POINT('Ctrl Pts',(-179.,-27.7291158847475,279.219081038881));
#413=CARTESIAN_POINT('Ctrl Pts',(-179.,-33.9390187495623,275.069731725852));
#414=CARTESIAN_POINT('Ctrl Pts',(-179.,-36.822692613633,272.663893500109));
#415=CARTESIAN_POINT('Ctrl Pts',(-179.,-41.6659959657906,267.820562202156));
#416=CARTESIAN_POINT('Ctrl Pts',(-179.,-44.0718329776642,264.936852010689));
#417=CARTESIAN_POINT('Ctrl Pts',(-179.,-48.2211753306784,258.726878347869));
#418=CARTESIAN_POINT('Ctrl Pts',(-179.,-49.9646808714377,255.400615009894));
#419=CARTESIAN_POINT('Ctrl Pts',(-179.,-52.5858730736539,249.072455783228));
#420=CARTESIAN_POINT('Ctrl Pts',(-179.,-53.7050428756262,245.487546769519));
#421=CARTESIAN_POINT('Ctrl Pts',(-179.,-55.1621062113851,238.162324259331));
#422=CARTESIAN_POINT('Ctrl Pts',(-179.,-55.5,234.422010813539));
#423=CARTESIAN_POINT('Ctrl Pts',(-179.,-55.5,227.572417936933));
#424=CARTESIAN_POINT('Ctrl Pts',(-179.,-55.1621031117239,223.832087718758));
#425=CARTESIAN_POINT('Ctrl Pts',(-179.,-53.7050342511152,216.50683076119));
#426=CARTESIAN_POINT('Ctrl Pts',(-179.,-52.5858623972204,212.921903998237));
#427=CARTESIAN_POINT('Ctrl Pts',(-179.,-49.9646630224335,206.593688255884));
#428=CARTESIAN_POINT('Ctrl Pts',(-179.,-48.2211469239049,203.267381602006));
#429=CARTESIAN_POINT('Ctrl Pts',(-179.,-44.0717804015724,197.057319722069));
#430=CARTESIAN_POINT('Ctrl Pts',(-179.,-41.665929759595,194.173564641787));
#431=CARTESIAN_POINT('Ctrl Pts',(-179.,-36.8226089768572,189.330164060521));
#432=CARTESIAN_POINT('Ctrl Pts',(-179.,-33.9389315000155,186.924291994208));
#433=CARTESIAN_POINT('Ctrl Pts',(-179.,-27.7290151464186,182.77487673203));
#434=CARTESIAN_POINT('Ctrl Pts',(-179.,-24.4027758993776,181.031334090324));
#435=CARTESIAN_POINT('Ctrl Pts',(-179.,-18.0747274591439,178.410121025412));
#436=CARTESIAN_POINT('Ctrl Pts',(-179.,-14.4899237731114,177.290950083925));
#437=CARTESIAN_POINT('Ctrl Pts',(-179.,-7.16490868136917,175.833881303523));
#438=CARTESIAN_POINT('Ctrl Pts',(-179.,-3.42469719482815,175.495983870967));
#439=CARTESIAN_POINT('Ctrl Pts',(-179.,3.42469719482816,175.495983870967));
#440=CARTESIAN_POINT('Ctrl Pts',(-179.,7.16490868136919,175.833881303523));
#441=CARTESIAN_POINT('Ctrl Pts',(-179.,14.4899237731114,177.290950083925));
#442=CARTESIAN_POINT('Ctrl Pts',(-179.,18.0747274591439,178.410121025412));
#443=CARTESIAN_POINT('Ctrl Pts',(-179.,24.4027758993776,181.031334090324));
#444=CARTESIAN_POINT('Ctrl Pts',(-179.,27.7290151464186,182.77487673203));
#445=CARTESIAN_POINT('Ctrl Pts',(-179.,33.9389315000155,186.924291994208));
#446=CARTESIAN_POINT('Ctrl Pts',(-179.,36.8226089768572,189.330164060521));
#447=CARTESIAN_POINT('Ctrl Pts',(-179.,41.665929759595,194.173564641787));
#448=CARTESIAN_POINT('Ctrl Pts',(-179.,44.0717804015724,197.057319722069));
#449=CARTESIAN_POINT('Ctrl Pts',(-179.,48.2211469239049,203.267381602006));
#450=CARTESIAN_POINT('Ctrl Pts',(-179.,49.9646630224335,206.593688255884));
#451=CARTESIAN_POINT('Ctrl Pts',(-179.,52.5858623972204,212.921903998237));
#452=CARTESIAN_POINT('Ctrl Pts',(-179.,53.7050342511153,216.50683076119));
#453=CARTESIAN_POINT('Ctrl Pts',(-179.,55.1621031117239,223.832087718758));
#454=CARTESIAN_POINT('Ctrl Pts',(-179.,55.5,227.572417936933));
#455=CARTESIAN_POINT('Ctrl Pts',(-179.,55.5,234.422010813539));
#456=CARTESIAN_POINT('Ctrl Pts',(-179.,55.1621062113851,238.162324259331));
#457=CARTESIAN_POINT('Ctrl Pts',(-179.,53.7050428756262,245.487546769519));
#458=CARTESIAN_POINT('Ctrl Pts',(-179.,52.5858730736539,249.072455783228));
#459=CARTESIAN_POINT('Ctrl Pts',(-179.,49.9646808714376,255.400615009895));
#460=CARTESIAN_POINT('Ctrl Pts',(-179.,48.2211753306784,258.726878347869));
#461=CARTESIAN_POINT('Ctrl Pts',(-179.,44.0718329776642,264.93685201069));
#462=CARTESIAN_POINT('Ctrl Pts',(-179.,41.6659959657906,267.820562202156));
#463=CARTESIAN_POINT('Ctrl Pts',(-179.,36.822692613633,272.663893500109));
#464=CARTESIAN_POINT('Ctrl Pts',(-179.,33.9390187495623,275.069731725852));
#465=CARTESIAN_POINT('Ctrl Pts',(-179.,27.7291158847476,279.219081038881));
#466=CARTESIAN_POINT('Ctrl Pts',(-179.,24.4028867972951,280.9625919964));
#467=CARTESIAN_POINT('Ctrl Pts',(-179.,18.0748300279746,283.583771957607));
#468=CARTESIAN_POINT('Ctrl Pts',(-179.,14.490003279889,284.702931682678));
#469=CARTESIAN_POINT('Ctrl Pts',(-179.,7.16494538621107,286.159984154033));
#470=CARTESIAN_POINT('Ctrl Pts',(-179.,3.42471423024786,286.497876848179));
#471=CARTESIAN_POINT('Ctrl Pts',(-179.,3.33066907387547E-15,286.497876848179));
#472=CARTESIAN_POINT('Origin',(-230.5,0.,231.));
#473=CARTESIAN_POINT('',(-230.5,5.51091059616309E-15,186.));
#474=CARTESIAN_POINT('Origin',(-230.5,0.,231.));
#475=CARTESIAN_POINT('',(-231.,-5.57214293612046E-15,185.5));
#476=CARTESIAN_POINT('Origin',(-231.,0.,231.));
#477=CARTESIAN_POINT('Origin',(-231.,0.,231.));
#478=CARTESIAN_POINT('',(-231.,6.85802207522518E-15,175.));
#479=CARTESIAN_POINT('Origin',(-231.,0.,231.));
#480=CARTESIAN_POINT('Origin',(-231.,0.,231.));
#481=CARTESIAN_POINT('',(-180.,5.51091059616309E-15,186.));
#482=CARTESIAN_POINT('Origin',(-180.,0.,231.));
#483=CARTESIAN_POINT('Origin',(0.,0.,0.5));
#484=CARTESIAN_POINT('',(-45.,-5.51091059616309E-15,0.5));
#485=CARTESIAN_POINT('Origin',(0.,0.,0.5));
#486=CARTESIAN_POINT('',(-45.5,5.57214293612046E-15,0.));
#487=CARTESIAN_POINT('Origin',(0.,0.,0.));
#488=CARTESIAN_POINT('Origin',(2.7001611138552E-15,0.,0.));
#489=CARTESIAN_POINT('',(-56.,-6.85802207522518E-15,0.));
#490=CARTESIAN_POINT('Origin',(0.,0.,0.));
#491=CARTESIAN_POINT('Origin',(0.,0.,0.));
#492=CARTESIAN_POINT('',(-45.,5.51091059616309E-15,51.));
#493=CARTESIAN_POINT('Origin',(0.,0.,51.));
#494=CARTESIAN_POINT('Origin',(0.,0.,0.5));
#495=CARTESIAN_POINT('Origin',(-230.5,0.,231.));
#496=CARTESIAN_POINT('Origin',(-180.,0.,51.));
#497=CARTESIAN_POINT('',(44.,5.38844591624836E-15,51.));
#498=CARTESIAN_POINT('Origin',(-3.5527136788005E-14,0.,51.));
#499=CARTESIAN_POINT('',(-180.,5.38844591624836E-15,275.));
#500=CARTESIAN_POINT('Origin',(-180.,0.,231.));
#501=CARTESIAN_POINT('Origin',(-180.,0.,231.));
#502=CARTESIAN_POINT('Origin',(1.77506243071748E-15,0.,51.));
#503=CARTESIAN_POINT('Origin',(-180.,0.,51.));
#504=UNCERTAINTY_MEASURE_WITH_UNIT(LENGTH_MEASURE(0.01),#508,
'DISTANCE_ACCURACY_VALUE',
'Maximum model space distance between geometric entities at asserted c
onnectivities');
#505=UNCERTAINTY_MEASURE_WITH_UNIT(LENGTH_MEASURE(1.E-6),#508,
'DISTANCE_ACCURACY_VALUE',
'Maximum model space distance between geometric entities at asserted c
onnectivities');
#506=(
GEOMETRIC_REPRESENTATION_CONTEXT(3)
GLOBAL_UNCERTAINTY_ASSIGNED_CONTEXT((#504))
GLOBAL_UNIT_ASSIGNED_CONTEXT((#508,#511,#509))
REPRESENTATION_CONTEXT('','3D')
);
#507=(
GEOMETRIC_REPRESENTATION_CONTEXT(3)
GLOBAL_UNCERTAINTY_ASSIGNED_CONTEXT((#505))
GLOBAL_UNIT_ASSIGNED_CONTEXT((#508,#511,#509))
REPRESENTATION_CONTEXT('','3D')
);
#508=(
LENGTH_UNIT()
NAMED_UNIT(*)
SI_UNIT(.MILLI.,.METRE.)
);
#509=(
NAMED_UNIT(*)
SI_UNIT($,.STERADIAN.)
SOLID_ANGLE_UNIT()
);
#510=DIMENSIONAL_EXPONENTS(0.,0.,0.,0.,0.,0.,0.);
#511=(
CONVERSION_BASED_UNIT('degree',#513)
NAMED_UNIT(#510)
PLANE_ANGLE_UNIT()
);
#512=(
NAMED_UNIT(*)
PLANE_ANGLE_UNIT()
SI_UNIT($,.RADIAN.)
);
#513=PLANE_ANGLE_MEASURE_WITH_UNIT(PLANE_ANGLE_MEASURE(0.01745329252),#512);
#514=SHAPE_DEFINITION_REPRESENTATION(#515,#516);
#515=PRODUCT_DEFINITION_SHAPE('',$,#518);
#516=SHAPE_REPRESENTATION('',(#214),#506);
#517=PRODUCT_DEFINITION_CONTEXT('part definition',#522,'design');
#518=PRODUCT_DEFINITION('BE300900','BE30',#519,#517);
#519=PRODUCT_DEFINITION_FORMATION('',$,#524);
#520=PRODUCT_RELATED_PRODUCT_CATEGORY('BE30','BE30',(#524));
#521=APPLICATION_PROTOCOL_DEFINITION('international standard',
'automotive_design',2009,#522);
#522=APPLICATION_CONTEXT(
'Core Data for Automotive Mechanical Design Process');
#523=PRODUCT_CONTEXT('part definition',#522,'mechanical');
#524=PRODUCT('BE300900','BE30',$,(#523));
#525=PRESENTATION_STYLE_ASSIGNMENT((#526));
#526=SURFACE_STYLE_USAGE(.BOTH.,#527);
#527=SURFACE_SIDE_STYLE('',(#528));
#528=SURFACE_STYLE_FILL_AREA(#529);
#529=FILL_AREA_STYLE('',(#530));
#530=FILL_AREA_STYLE_COLOUR('',#531);
#531=COLOUR_RGB('',0.8,0.8,0.8);
ENDSEC;
END-ISO-10303-21;
