ISO-10303-21;
HEADER;
/* Generated by software containing ST-Developer
 * from STEP Tools, Inc. (www.steptools.com) 
 */

FILE_DESCRIPTION(
/* description */ (''),
/* implementation_level */ '2;1');

FILE_NAME(
/* name */ 'C:\\Users\\Gabriele\\Desktop\\catalogo\\TR40\\TR40050D.stp',

/* time_stamp */ '2016-10-17T15:38:28+02:00',
/* author */ ('Gabriele'),
/* organization */ (''),
/* preprocessor_version */ 'ST-DEVELOPER v16.5',
/* originating_system */ 'Autodesk Inventor 2017',
/* authorisation */ '');

FILE_SCHEMA (('AUTOMOTIVE_DESIGN { 1 0 10303 214 3 1 1 }'));
ENDSEC;

DATA;
#10=MECHANICAL_DESIGN_GEOMETRIC_PRESENTATION_REPRESENTATION('',(#13),#465);
#11=SHAPE_REPRESENTATION_RELATIONSHIP('SRR','None',#474,#12);
#12=ADVANCED_BREP_SHAPE_REPRESENTATION('',(#14),#464);
#13=STYLED_ITEM('',(#483),#14);
#14=MANIFOLD_SOLID_BREP('Solido1',#200);
#15=B_SPLINE_CURVE_WITH_KNOTS('',3,(#333,#334,#335,#336,#337,#338,#339,
#340,#341,#342,#343,#344,#345,#346,#347,#348,#349,#350,#351,#352,#353,#354,
#355,#356,#357,#358,#359,#360,#361,#362,#363,#364,#365,#366,#367,#368,#369,
#370,#371,#372,#373,#374,#375,#376,#377,#378,#379,#380,#381,#382),
 .UNSPECIFIED.,.T.,.F.,(4,2,2,2,2,2,2,2,2,2,2,2,2,2,2,2,2,2,2,2,2,2,2,2,
4),(0.,0.298684493665822,0.597368987331644,1.19473797466329,1.78723739354016,
2.0834871029786,2.37973681241703,2.67598652185547,2.9722362312939,3.56473565017078,
4.16210463750242,4.46078913116824,4.75947362483407,5.05815811849989,5.35684261216571,
5.95421159949735,6.54671101837422,6.84296072781266,7.1392104372511,7.43546014668953,
7.73170985612797,8.32420927500484,8.92157826233649,9.22026275600231,9.51894724966813),
 .UNSPECIFIED.);
#16=B_SPLINE_CURVE_WITH_KNOTS('',3,(#393,#394,#395,#396,#397,#398,#399,
#400,#401,#402,#403,#404,#405,#406,#407,#408,#409,#410,#411,#412,#413,#414,
#415,#416,#417,#418,#419,#420,#421,#422,#423,#424,#425,#426,#427,#428,#429,
#430,#431,#432,#433,#434,#435,#436,#437,#438,#439,#440,#441,#442,#443,#444,
#445,#446,#447,#448,#449,#450,#451,#452,#453,#454,#455,#456,#457,#458),
 .UNSPECIFIED.,.T.,.F.,(4,2,2,2,2,2,2,2,2,2,2,2,2,2,2,2,2,2,2,2,2,2,2,2,
2,2,2,2,2,2,2,2,4),(0.,0.416211945715991,0.832423891431982,1.24863583714797,
1.66484778286396,2.0756268784805,2.48640597409704,2.89718506971358,3.30796416533012,
3.71874326094666,4.1295223565632,4.54030145217974,4.95108054779628,5.36729249351227,
5.78350443922826,6.19971638494425,6.61592833066024,7.03214027637623,7.44835222209222,
7.86456416780821,8.2807761135242,8.69155520914074,9.10233430475728,9.51311340037382,
9.92389249599036,10.3346715916069,10.7454506872234,11.15622978284,11.5670088784565,
11.9832208241725,12.3994327698885,12.8156447156045,13.2318566613205),
 .UNSPECIFIED.);
#17=PLANE('',#207);
#18=PLANE('',#214);
#19=PLANE('',#221);
#20=PLANE('',#228);
#21=PLANE('',#231);
#22=PLANE('',#232);
#23=CYLINDRICAL_SURFACE('',#205,25.);
#24=CYLINDRICAL_SURFACE('',#212,25.);
#25=CYLINDRICAL_SURFACE('',#219,16.);
#26=CYLINDRICAL_SURFACE('',#223,15.25);
#27=CYLINDRICAL_SURFACE('',#225,24.25);
#28=CYLINDRICAL_SURFACE('',#229,21.);
#29=CYLINDRICAL_SURFACE('',#230,30.5);
#30=FACE_BOUND('',#65,.T.);
#31=FACE_BOUND('',#67,.T.);
#32=FACE_BOUND('',#69,.T.);
#33=FACE_BOUND('',#71,.T.);
#34=FACE_BOUND('',#73,.T.);
#35=FACE_BOUND('',#75,.T.);
#36=FACE_BOUND('',#77,.T.);
#37=FACE_BOUND('',#79,.T.);
#38=FACE_BOUND('',#81,.T.);
#39=FACE_BOUND('',#83,.T.);
#40=FACE_BOUND('',#85,.T.);
#41=FACE_BOUND('',#86,.T.);
#42=FACE_BOUND('',#88,.T.);
#43=FACE_BOUND('',#90,.T.);
#44=FACE_BOUND('',#92,.T.);
#45=FACE_BOUND('',#93,.T.);
#46=FACE_BOUND('',#95,.T.);
#47=FACE_BOUND('',#97,.T.);
#48=FACE_OUTER_BOUND('',#64,.T.);
#49=FACE_OUTER_BOUND('',#66,.T.);
#50=FACE_OUTER_BOUND('',#68,.T.);
#51=FACE_OUTER_BOUND('',#70,.T.);
#52=FACE_OUTER_BOUND('',#72,.T.);
#53=FACE_OUTER_BOUND('',#74,.T.);
#54=FACE_OUTER_BOUND('',#76,.T.);
#55=FACE_OUTER_BOUND('',#78,.T.);
#56=FACE_OUTER_BOUND('',#80,.T.);
#57=FACE_OUTER_BOUND('',#82,.T.);
#58=FACE_OUTER_BOUND('',#84,.T.);
#59=FACE_OUTER_BOUND('',#87,.T.);
#60=FACE_OUTER_BOUND('',#89,.T.);
#61=FACE_OUTER_BOUND('',#91,.T.);
#62=FACE_OUTER_BOUND('',#94,.T.);
#63=FACE_OUTER_BOUND('',#96,.T.);
#64=EDGE_LOOP('',(#147));
#65=EDGE_LOOP('',(#148));
#66=EDGE_LOOP('',(#149));
#67=EDGE_LOOP('',(#150));
#68=EDGE_LOOP('',(#151));
#69=EDGE_LOOP('',(#152));
#70=EDGE_LOOP('',(#153));
#71=EDGE_LOOP('',(#154));
#72=EDGE_LOOP('',(#155));
#73=EDGE_LOOP('',(#156));
#74=EDGE_LOOP('',(#157));
#75=EDGE_LOOP('',(#158));
#76=EDGE_LOOP('',(#159));
#77=EDGE_LOOP('',(#160));
#78=EDGE_LOOP('',(#161));
#79=EDGE_LOOP('',(#162));
#80=EDGE_LOOP('',(#163));
#81=EDGE_LOOP('',(#164));
#82=EDGE_LOOP('',(#165));
#83=EDGE_LOOP('',(#166));
#84=EDGE_LOOP('',(#167));
#85=EDGE_LOOP('',(#168));
#86=EDGE_LOOP('',(#169));
#87=EDGE_LOOP('',(#170));
#88=EDGE_LOOP('',(#171));
#89=EDGE_LOOP('',(#172));
#90=EDGE_LOOP('',(#173));
#91=EDGE_LOOP('',(#174));
#92=EDGE_LOOP('',(#175));
#93=EDGE_LOOP('',(#176));
#94=EDGE_LOOP('',(#177));
#95=EDGE_LOOP('',(#178));
#96=EDGE_LOOP('',(#179));
#97=EDGE_LOOP('',(#180));
#98=CIRCLE('',#203,25.);
#99=CIRCLE('',#204,25.5);
#100=CIRCLE('',#206,25.);
#101=CIRCLE('',#208,30.5);
#102=CIRCLE('',#210,25.);
#103=CIRCLE('',#211,25.5);
#104=CIRCLE('',#213,25.);
#105=CIRCLE('',#215,30.5);
#106=CIRCLE('',#217,16.);
#107=CIRCLE('',#218,16.5);
#108=CIRCLE('',#220,16.);
#109=CIRCLE('',#222,21.);
#110=CIRCLE('',#224,15.25);
#111=CIRCLE('',#226,24.25);
#112=CIRCLE('',#227,24.25);
#113=VERTEX_POINT('',#299);
#114=VERTEX_POINT('',#301);
#115=VERTEX_POINT('',#304);
#116=VERTEX_POINT('',#307);
#117=VERTEX_POINT('',#310);
#118=VERTEX_POINT('',#312);
#119=VERTEX_POINT('',#315);
#120=VERTEX_POINT('',#318);
#121=VERTEX_POINT('',#321);
#122=VERTEX_POINT('',#323);
#123=VERTEX_POINT('',#326);
#124=VERTEX_POINT('',#329);
#125=VERTEX_POINT('',#332);
#126=VERTEX_POINT('',#383);
#127=VERTEX_POINT('',#386);
#128=VERTEX_POINT('',#388);
#129=VERTEX_POINT('',#392);
#130=EDGE_CURVE('',#113,#113,#98,.T.);
#131=EDGE_CURVE('',#114,#114,#99,.T.);
#132=EDGE_CURVE('',#115,#115,#100,.T.);
#133=EDGE_CURVE('',#116,#116,#101,.T.);
#134=EDGE_CURVE('',#117,#117,#102,.T.);
#135=EDGE_CURVE('',#118,#118,#103,.T.);
#136=EDGE_CURVE('',#119,#119,#104,.T.);
#137=EDGE_CURVE('',#120,#120,#105,.T.);
#138=EDGE_CURVE('',#121,#121,#106,.T.);
#139=EDGE_CURVE('',#122,#122,#107,.T.);
#140=EDGE_CURVE('',#123,#123,#108,.T.);
#141=EDGE_CURVE('',#124,#124,#109,.T.);
#142=EDGE_CURVE('',#125,#125,#15,.T.);
#143=EDGE_CURVE('',#126,#126,#110,.T.);
#144=EDGE_CURVE('',#127,#127,#111,.T.);
#145=EDGE_CURVE('',#128,#128,#112,.T.);
#146=EDGE_CURVE('',#129,#129,#16,.T.);
#147=ORIENTED_EDGE('',*,*,#130,.T.);
#148=ORIENTED_EDGE('',*,*,#131,.T.);
#149=ORIENTED_EDGE('',*,*,#132,.T.);
#150=ORIENTED_EDGE('',*,*,#130,.F.);
#151=ORIENTED_EDGE('',*,*,#133,.T.);
#152=ORIENTED_EDGE('',*,*,#131,.F.);
#153=ORIENTED_EDGE('',*,*,#134,.T.);
#154=ORIENTED_EDGE('',*,*,#135,.T.);
#155=ORIENTED_EDGE('',*,*,#136,.F.);
#156=ORIENTED_EDGE('',*,*,#134,.F.);
#157=ORIENTED_EDGE('',*,*,#137,.T.);
#158=ORIENTED_EDGE('',*,*,#135,.F.);
#159=ORIENTED_EDGE('',*,*,#138,.T.);
#160=ORIENTED_EDGE('',*,*,#139,.T.);
#161=ORIENTED_EDGE('',*,*,#140,.T.);
#162=ORIENTED_EDGE('',*,*,#138,.F.);
#163=ORIENTED_EDGE('',*,*,#141,.F.);
#164=ORIENTED_EDGE('',*,*,#139,.F.);
#165=ORIENTED_EDGE('',*,*,#142,.F.);
#166=ORIENTED_EDGE('',*,*,#143,.F.);
#167=ORIENTED_EDGE('',*,*,#144,.F.);
#168=ORIENTED_EDGE('',*,*,#142,.T.);
#169=ORIENTED_EDGE('',*,*,#145,.F.);
#170=ORIENTED_EDGE('',*,*,#140,.F.);
#171=ORIENTED_EDGE('',*,*,#143,.T.);
#172=ORIENTED_EDGE('',*,*,#141,.T.);
#173=ORIENTED_EDGE('',*,*,#146,.F.);
#174=ORIENTED_EDGE('',*,*,#133,.F.);
#175=ORIENTED_EDGE('',*,*,#137,.F.);
#176=ORIENTED_EDGE('',*,*,#146,.T.);
#177=ORIENTED_EDGE('',*,*,#136,.T.);
#178=ORIENTED_EDGE('',*,*,#145,.T.);
#179=ORIENTED_EDGE('',*,*,#132,.F.);
#180=ORIENTED_EDGE('',*,*,#144,.T.);
#181=TOROIDAL_SURFACE('',#202,25.5,0.5);
#182=TOROIDAL_SURFACE('',#209,25.5,0.5);
#183=TOROIDAL_SURFACE('',#216,16.5,0.5);
#184=ADVANCED_FACE('',(#48,#30),#181,.T.);
#185=ADVANCED_FACE('',(#49,#31),#23,.F.);
#186=ADVANCED_FACE('',(#50,#32),#17,.T.);
#187=ADVANCED_FACE('',(#51,#33),#182,.T.);
#188=ADVANCED_FACE('',(#52,#34),#24,.F.);
#189=ADVANCED_FACE('',(#53,#35),#18,.F.);
#190=ADVANCED_FACE('',(#54,#36),#183,.T.);
#191=ADVANCED_FACE('',(#55,#37),#25,.F.);
#192=ADVANCED_FACE('',(#56,#38),#19,.T.);
#193=ADVANCED_FACE('',(#57,#39),#26,.F.);
#194=ADVANCED_FACE('',(#58,#40,#41),#27,.F.);
#195=ADVANCED_FACE('',(#59,#42),#20,.T.);
#196=ADVANCED_FACE('',(#60,#43),#28,.T.);
#197=ADVANCED_FACE('',(#61,#44,#45),#29,.T.);
#198=ADVANCED_FACE('',(#62,#46),#21,.F.);
#199=ADVANCED_FACE('',(#63,#47),#22,.T.);
#200=CLOSED_SHELL('',(#184,#185,#186,#187,#188,#189,#190,#191,#192,#193,
#194,#195,#196,#197,#198,#199));
#201=AXIS2_PLACEMENT_3D('placement',#297,#233,#234);
#202=AXIS2_PLACEMENT_3D('',#298,#235,#236);
#203=AXIS2_PLACEMENT_3D('',#300,#237,#238);
#204=AXIS2_PLACEMENT_3D('',#302,#239,#240);
#205=AXIS2_PLACEMENT_3D('',#303,#241,#242);
#206=AXIS2_PLACEMENT_3D('',#305,#243,#244);
#207=AXIS2_PLACEMENT_3D('',#306,#245,#246);
#208=AXIS2_PLACEMENT_3D('',#308,#247,#248);
#209=AXIS2_PLACEMENT_3D('',#309,#249,#250);
#210=AXIS2_PLACEMENT_3D('',#311,#251,#252);
#211=AXIS2_PLACEMENT_3D('',#313,#253,#254);
#212=AXIS2_PLACEMENT_3D('',#314,#255,#256);
#213=AXIS2_PLACEMENT_3D('',#316,#257,#258);
#214=AXIS2_PLACEMENT_3D('',#317,#259,#260);
#215=AXIS2_PLACEMENT_3D('',#319,#261,#262);
#216=AXIS2_PLACEMENT_3D('',#320,#263,#264);
#217=AXIS2_PLACEMENT_3D('',#322,#265,#266);
#218=AXIS2_PLACEMENT_3D('',#324,#267,#268);
#219=AXIS2_PLACEMENT_3D('',#325,#269,#270);
#220=AXIS2_PLACEMENT_3D('',#327,#271,#272);
#221=AXIS2_PLACEMENT_3D('',#328,#273,#274);
#222=AXIS2_PLACEMENT_3D('',#330,#275,#276);
#223=AXIS2_PLACEMENT_3D('',#331,#277,#278);
#224=AXIS2_PLACEMENT_3D('',#384,#279,#280);
#225=AXIS2_PLACEMENT_3D('',#385,#281,#282);
#226=AXIS2_PLACEMENT_3D('',#387,#283,#284);
#227=AXIS2_PLACEMENT_3D('',#389,#285,#286);
#228=AXIS2_PLACEMENT_3D('',#390,#287,#288);
#229=AXIS2_PLACEMENT_3D('',#391,#289,#290);
#230=AXIS2_PLACEMENT_3D('',#459,#291,#292);
#231=AXIS2_PLACEMENT_3D('',#460,#293,#294);
#232=AXIS2_PLACEMENT_3D('',#461,#295,#296);
#233=DIRECTION('axis',(0.,0.,1.));
#234=DIRECTION('refdir',(1.,0.,0.));
#235=DIRECTION('center_axis',(0.,0.,-1.));
#236=DIRECTION('ref_axis',(-1.,0.,0.));
#237=DIRECTION('center_axis',(0.,0.,-1.));
#238=DIRECTION('ref_axis',(-1.,0.,0.));
#239=DIRECTION('center_axis',(0.,0.,1.));
#240=DIRECTION('ref_axis',(-1.,0.,0.));
#241=DIRECTION('center_axis',(0.,0.,-1.));
#242=DIRECTION('ref_axis',(-1.,0.,0.));
#243=DIRECTION('center_axis',(0.,0.,-1.));
#244=DIRECTION('ref_axis',(-1.,0.,0.));
#245=DIRECTION('center_axis',(0.,0.,1.));
#246=DIRECTION('ref_axis',(1.,0.,0.));
#247=DIRECTION('center_axis',(0.,0.,1.));
#248=DIRECTION('ref_axis',(-1.,0.,0.));
#249=DIRECTION('center_axis',(0.,0.,1.));
#250=DIRECTION('ref_axis',(1.,0.,0.));
#251=DIRECTION('center_axis',(0.,0.,1.));
#252=DIRECTION('ref_axis',(-1.,0.,0.));
#253=DIRECTION('center_axis',(0.,0.,-1.));
#254=DIRECTION('ref_axis',(-1.,0.,0.));
#255=DIRECTION('center_axis',(0.,0.,-1.));
#256=DIRECTION('ref_axis',(-1.,0.,0.));
#257=DIRECTION('center_axis',(0.,0.,-1.));
#258=DIRECTION('ref_axis',(-1.,0.,0.));
#259=DIRECTION('center_axis',(0.,0.,1.));
#260=DIRECTION('ref_axis',(1.,0.,0.));
#261=DIRECTION('center_axis',(0.,0.,-1.));
#262=DIRECTION('ref_axis',(-1.,0.,0.));
#263=DIRECTION('center_axis',(0.,-1.,0.));
#264=DIRECTION('ref_axis',(0.,0.,-1.));
#265=DIRECTION('center_axis',(0.,-1.,0.));
#266=DIRECTION('ref_axis',(-1.,0.,0.));
#267=DIRECTION('center_axis',(0.,1.,0.));
#268=DIRECTION('ref_axis',(-1.,0.,0.));
#269=DIRECTION('center_axis',(0.,-1.,0.));
#270=DIRECTION('ref_axis',(-1.,0.,0.));
#271=DIRECTION('center_axis',(0.,-1.,0.));
#272=DIRECTION('ref_axis',(-1.,0.,0.));
#273=DIRECTION('center_axis',(0.,1.,0.));
#274=DIRECTION('ref_axis',(0.,0.,1.));
#275=DIRECTION('center_axis',(0.,-1.,0.));
#276=DIRECTION('ref_axis',(1.,0.,0.));
#277=DIRECTION('center_axis',(0.,-1.,0.));
#278=DIRECTION('ref_axis',(-1.,0.,0.));
#279=DIRECTION('center_axis',(0.,-1.,0.));
#280=DIRECTION('ref_axis',(-1.,0.,0.));
#281=DIRECTION('center_axis',(0.,0.,1.));
#282=DIRECTION('ref_axis',(1.,0.,0.));
#283=DIRECTION('center_axis',(0.,0.,-1.));
#284=DIRECTION('ref_axis',(1.,0.,0.));
#285=DIRECTION('center_axis',(0.,0.,1.));
#286=DIRECTION('ref_axis',(1.,0.,0.));
#287=DIRECTION('center_axis',(0.,1.,0.));
#288=DIRECTION('ref_axis',(0.,0.,1.));
#289=DIRECTION('center_axis',(0.,-1.,0.));
#290=DIRECTION('ref_axis',(1.,0.,0.));
#291=DIRECTION('center_axis',(0.,0.,1.));
#292=DIRECTION('ref_axis',(-1.,0.,0.));
#293=DIRECTION('center_axis',(0.,0.,1.));
#294=DIRECTION('ref_axis',(1.,0.,0.));
#295=DIRECTION('center_axis',(0.,0.,1.));
#296=DIRECTION('ref_axis',(1.,0.,0.));
#297=CARTESIAN_POINT('',(0.,0.,0.));
#298=CARTESIAN_POINT('Origin',(0.,0.,56.5));
#299=CARTESIAN_POINT('',(25.,-3.06161699786838E-15,56.5));
#300=CARTESIAN_POINT('Origin',(0.,0.,56.5));
#301=CARTESIAN_POINT('',(25.5,3.12284933782575E-15,57.));
#302=CARTESIAN_POINT('Origin',(0.,0.,57.));
#303=CARTESIAN_POINT('Origin',(0.,0.,57.));
#304=CARTESIAN_POINT('',(25.,3.06161699786838E-15,26.));
#305=CARTESIAN_POINT('Origin',(0.,0.,26.));
#306=CARTESIAN_POINT('Origin',(-3.11264394783286E-16,0.,57.));
#307=CARTESIAN_POINT('',(30.5,3.73517273739943E-15,57.));
#308=CARTESIAN_POINT('Origin',(0.,0.,57.));
#309=CARTESIAN_POINT('Origin',(0.,0.,-56.5));
#310=CARTESIAN_POINT('',(25.,3.06161699786838E-15,-56.5));
#311=CARTESIAN_POINT('Origin',(0.,0.,-56.5));
#312=CARTESIAN_POINT('',(25.5,-3.12284933782575E-15,-57.));
#313=CARTESIAN_POINT('Origin',(0.,0.,-57.));
#314=CARTESIAN_POINT('Origin',(0.,0.,-57.));
#315=CARTESIAN_POINT('',(25.,3.06161699786838E-15,-26.));
#316=CARTESIAN_POINT('Origin',(0.,0.,-26.));
#317=CARTESIAN_POINT('Origin',(-3.11264394783286E-16,0.,-57.));
#318=CARTESIAN_POINT('',(30.5,3.73517273739943E-15,-57.));
#319=CARTESIAN_POINT('Origin',(0.,0.,-57.));
#320=CARTESIAN_POINT('Origin',(0.,47.5,0.));
#321=CARTESIAN_POINT('',(16.,47.5,1.95943487863577E-15));
#322=CARTESIAN_POINT('Origin',(0.,47.5,0.));
#323=CARTESIAN_POINT('',(16.5,48.,-2.02066721859313E-15));
#324=CARTESIAN_POINT('Origin',(0.,48.,0.));
#325=CARTESIAN_POINT('Origin',(0.,48.,0.));
#326=CARTESIAN_POINT('',(16.,26.,-1.95943487863577E-15));
#327=CARTESIAN_POINT('Origin',(0.,26.,0.));
#328=CARTESIAN_POINT('Origin',(9.19216697549299E-16,48.,0.));
#329=CARTESIAN_POINT('',(-21.,48.,2.57175827820944E-15));
#330=CARTESIAN_POINT('Origin',(0.,48.,0.));
#331=CARTESIAN_POINT('Origin',(0.,26.,0.));
#332=CARTESIAN_POINT('',(15.25,18.8547076349648,-5.55111512312578E-16));
#333=CARTESIAN_POINT('Ctrl Pts',(15.25,18.8547076349648,-5.55111512312578E-16));
#334=CARTESIAN_POINT('Ctrl Pts',(15.25,18.8547076349648,-0.995614978886075));
#335=CARTESIAN_POINT('Ctrl Pts',(15.151095753398,18.9359892629384,-2.01027173945378));
#336=CARTESIAN_POINT('Ctrl Pts',(14.7499634613516,19.2500901094721,-4.00443173087934));
#337=CARTESIAN_POINT('Ctrl Pts',(14.4479600586511,19.4820612188082,-4.98411363489592));
#338=CARTESIAN_POINT('Ctrl Pts',(13.2711350844364,20.319112592379,-7.78006717267257));
#339=CARTESIAN_POINT('Ctrl Pts',(12.1119067873927,21.0609644384327,-9.45485003879704));
#340=CARTESIAN_POINT('Ctrl Pts',(9.46567979393991,22.3747110313457,-12.1010770322498));
#341=CARTESIAN_POINT('Ctrl Pts',(7.78816148022374,23.0463155801773,-13.2676937602237));
#342=CARTESIAN_POINT('Ctrl Pts',(4.98036824504853,23.7526806862649,-14.4495537044664));
#343=CARTESIAN_POINT('Ctrl Pts',(3.99632306916981,23.9395860822989,-14.7522328942939));
#344=CARTESIAN_POINT('Ctrl Pts',(1.99991331308791,24.1883179781117,-15.1525351076166));
#345=CARTESIAN_POINT('Ctrl Pts',(0.987499031461452,24.25,-15.25));
#346=CARTESIAN_POINT('Ctrl Pts',(-0.987499031461454,24.25,-15.25));
#347=CARTESIAN_POINT('Ctrl Pts',(-1.99991331308792,24.1883179781117,-15.1525351076166));
#348=CARTESIAN_POINT('Ctrl Pts',(-3.99632306916981,23.9395860822989,-14.7522328942939));
#349=CARTESIAN_POINT('Ctrl Pts',(-4.98036824504853,23.7526806862649,-14.4495537044664));
#350=CARTESIAN_POINT('Ctrl Pts',(-7.78816148022374,23.0463155801773,-13.2676937602237));
#351=CARTESIAN_POINT('Ctrl Pts',(-9.46567979393991,22.3747110313457,-12.1010770322498));
#352=CARTESIAN_POINT('Ctrl Pts',(-12.1119067873927,21.0609644384327,-9.45485003879704));
#353=CARTESIAN_POINT('Ctrl Pts',(-13.2711350844364,20.319112592379,-7.78006717267257));
#354=CARTESIAN_POINT('Ctrl Pts',(-14.4479600586511,19.4820612188082,-4.98411363489592));
#355=CARTESIAN_POINT('Ctrl Pts',(-14.7499634613516,19.2500901094721,-4.00443173087935));
#356=CARTESIAN_POINT('Ctrl Pts',(-15.151095753398,18.9359892629384,-2.01027173945378));
#357=CARTESIAN_POINT('Ctrl Pts',(-15.25,18.8547076349648,-0.995614978886076));
#358=CARTESIAN_POINT('Ctrl Pts',(-15.25,18.8547076349648,0.995614978886073));
#359=CARTESIAN_POINT('Ctrl Pts',(-15.1510957533981,18.9359892629384,2.01027173945378));
#360=CARTESIAN_POINT('Ctrl Pts',(-14.7499634613516,19.2500901094721,4.00443173087934));
#361=CARTESIAN_POINT('Ctrl Pts',(-14.4479600586511,19.4820612188082,4.98411363489591));
#362=CARTESIAN_POINT('Ctrl Pts',(-13.2711350844364,20.319112592379,7.78006717267256));
#363=CARTESIAN_POINT('Ctrl Pts',(-12.1119067873927,21.0609644384327,9.45485003879703));
#364=CARTESIAN_POINT('Ctrl Pts',(-9.46567979393991,22.3747110313457,12.1010770322498));
#365=CARTESIAN_POINT('Ctrl Pts',(-7.78816148022374,23.0463155801773,13.2676937602237));
#366=CARTESIAN_POINT('Ctrl Pts',(-4.98036824504852,23.7526806862649,14.4495537044664));
#367=CARTESIAN_POINT('Ctrl Pts',(-3.99632306916981,23.9395860822989,14.7522328942939));
#368=CARTESIAN_POINT('Ctrl Pts',(-1.99991331308791,24.1883179781117,15.1525351076166));
#369=CARTESIAN_POINT('Ctrl Pts',(-0.987499031461453,24.25,15.25));
#370=CARTESIAN_POINT('Ctrl Pts',(0.987499031461451,24.25,15.25));
#371=CARTESIAN_POINT('Ctrl Pts',(1.99991331308791,24.1883179781117,15.1525351076166));
#372=CARTESIAN_POINT('Ctrl Pts',(3.99632306916981,23.9395860822989,14.7522328942939));
#373=CARTESIAN_POINT('Ctrl Pts',(4.98036824504853,23.7526806862649,14.4495537044664));
#374=CARTESIAN_POINT('Ctrl Pts',(7.78816148022374,23.0463155801773,13.2676937602237));
#375=CARTESIAN_POINT('Ctrl Pts',(9.46567979393991,22.3747110313457,12.1010770322498));
#376=CARTESIAN_POINT('Ctrl Pts',(12.1119067873927,21.0609644384327,9.45485003879703));
#377=CARTESIAN_POINT('Ctrl Pts',(13.2711350844364,20.319112592379,7.78006717267256));
#378=CARTESIAN_POINT('Ctrl Pts',(14.4479600586511,19.4820612188082,4.98411363489591));
#379=CARTESIAN_POINT('Ctrl Pts',(14.7499634613516,19.2500901094721,4.00443173087934));
#380=CARTESIAN_POINT('Ctrl Pts',(15.151095753398,18.9359892629384,2.01027173945378));
#381=CARTESIAN_POINT('Ctrl Pts',(15.25,18.8547076349648,0.995614978886076));
#382=CARTESIAN_POINT('Ctrl Pts',(15.25,18.8547076349648,5.55111512312578E-16));
#383=CARTESIAN_POINT('',(15.25,26.,-1.86758636869971E-15));
#384=CARTESIAN_POINT('Origin',(0.,26.,0.));
#385=CARTESIAN_POINT('Origin',(0.,0.,-26.));
#386=CARTESIAN_POINT('',(-24.25,2.96976848793233E-15,26.));
#387=CARTESIAN_POINT('Origin',(0.,0.,26.));
#388=CARTESIAN_POINT('',(-24.25,2.96976848793233E-15,-26.));
#389=CARTESIAN_POINT('Origin',(0.,0.,-26.));
#390=CARTESIAN_POINT('Origin',(-1.55106502066776E-15,26.,2.31296463463574E-16));
#391=CARTESIAN_POINT('Origin',(0.,48.,0.));
#392=CARTESIAN_POINT('',(21.,22.1189963605947,-5.55111512312578E-16));
#393=CARTESIAN_POINT('Ctrl Pts',(21.,22.1189963605947,-5.55111512312578E-16));
#394=CARTESIAN_POINT('Ctrl Pts',(21.,22.1189963605947,1.38737315238664));
#395=CARTESIAN_POINT('Ctrl Pts',(20.8607382572403,22.2535890555849,2.79295009861244));
#396=CARTESIAN_POINT('Ctrl Pts',(20.3033285720143,22.7632922455078,5.54489147320093));
#397=CARTESIAN_POINT('Ctrl Pts',(19.8855247701032,23.1366498681286,6.89164996348943));
#398=CARTESIAN_POINT('Ctrl Pts',(18.8046995125574,24.0233601505637,9.45052079071875));
#399=CARTESIAN_POINT('Ctrl Pts',(18.1407443626408,24.5360969455117,10.665348482058));
#400=CARTESIAN_POINT('Ctrl Pts',(16.6195795462747,25.5909404868689,12.9083631846966));
#401=CARTESIAN_POINT('Ctrl Pts',(15.7619340240724,26.1324173029033,13.9365507857626));
#402=CARTESIAN_POINT('Ctrl Pts',(13.9484642274717,27.1432095986974,15.7500205823633));
#403=CARTESIAN_POINT('Ctrl Pts',(12.9267777629481,27.6519184375936,16.6053679624515));
#404=CARTESIAN_POINT('Ctrl Pts',(10.6831766004067,28.5937041028344,18.1303493176091));
#405=CARTESIAN_POINT('Ctrl Pts',(9.4611083175556,29.0262772101071,18.8000683698831));
#406=CARTESIAN_POINT('Ctrl Pts',(6.88506623609925,29.7427841866981,19.8884645237468));
#407=CARTESIAN_POINT('Ctrl Pts',(5.52830772122595,30.0270731570829,20.3080407180878));
#408=CARTESIAN_POINT('Ctrl Pts',(2.77044448424636,30.4057880347568,20.8639244017868));
#409=CARTESIAN_POINT('Ctrl Pts',(1.36926365205513,30.5,21.));
#410=CARTESIAN_POINT('Ctrl Pts',(-1.36926365205513,30.5,21.));
#411=CARTESIAN_POINT('Ctrl Pts',(-2.77044448424635,30.4057880347568,20.8639244017868));
#412=CARTESIAN_POINT('Ctrl Pts',(-5.52830772122595,30.0270731570829,20.3080407180878));
#413=CARTESIAN_POINT('Ctrl Pts',(-6.88506623609925,29.7427841866981,19.8884645237468));
#414=CARTESIAN_POINT('Ctrl Pts',(-9.4611083175556,29.0262772101071,18.8000683698831));
#415=CARTESIAN_POINT('Ctrl Pts',(-10.6831766004067,28.5937041028344,18.1303493176091));
#416=CARTESIAN_POINT('Ctrl Pts',(-12.9267777629481,27.6519184375936,16.6053679624516));
#417=CARTESIAN_POINT('Ctrl Pts',(-13.9484642274717,27.1432095986974,15.7500205823633));
#418=CARTESIAN_POINT('Ctrl Pts',(-15.7619340240724,26.1324173029033,13.9365507857626));
#419=CARTESIAN_POINT('Ctrl Pts',(-16.6195795462747,25.5909404868689,12.9083631846966));
#420=CARTESIAN_POINT('Ctrl Pts',(-18.1407443626407,24.5360969455117,10.665348482058));
#421=CARTESIAN_POINT('Ctrl Pts',(-18.8046995125574,24.0233601505637,9.45052079071876));
#422=CARTESIAN_POINT('Ctrl Pts',(-19.8855247701032,23.1366498681286,6.89164996348943));
#423=CARTESIAN_POINT('Ctrl Pts',(-20.3033285720143,22.7632922455078,5.54489147320093));
#424=CARTESIAN_POINT('Ctrl Pts',(-20.8607382572404,22.2535890555849,2.79295009861244));
#425=CARTESIAN_POINT('Ctrl Pts',(-21.,22.1189963605947,1.38737315238664));
#426=CARTESIAN_POINT('Ctrl Pts',(-21.,22.1189963605947,-1.38737315238664));
#427=CARTESIAN_POINT('Ctrl Pts',(-20.8607382572404,22.2535890555849,-2.79295009861244));
#428=CARTESIAN_POINT('Ctrl Pts',(-20.3033285720143,22.7632922455078,-5.54489147320093));
#429=CARTESIAN_POINT('Ctrl Pts',(-19.8855247701032,23.1366498681286,-6.89164996348943));
#430=CARTESIAN_POINT('Ctrl Pts',(-18.8046995125574,24.0233601505637,-9.45052079071876));
#431=CARTESIAN_POINT('Ctrl Pts',(-18.1407443626408,24.5360969455117,-10.665348482058));
#432=CARTESIAN_POINT('Ctrl Pts',(-16.6195795462747,25.5909404868689,-12.9083631846966));
#433=CARTESIAN_POINT('Ctrl Pts',(-15.7619340240724,26.1324173029033,-13.9365507857626));
#434=CARTESIAN_POINT('Ctrl Pts',(-13.9484642274717,27.1432095986974,-15.7500205823633));
#435=CARTESIAN_POINT('Ctrl Pts',(-12.9267777629481,27.6519184375936,-16.6053679624516));
#436=CARTESIAN_POINT('Ctrl Pts',(-10.6831766004067,28.5937041028344,-18.1303493176091));
#437=CARTESIAN_POINT('Ctrl Pts',(-9.46110831755559,29.0262772101071,-18.8000683698831));
#438=CARTESIAN_POINT('Ctrl Pts',(-6.88506623609925,29.7427841866981,-19.8884645237468));
#439=CARTESIAN_POINT('Ctrl Pts',(-5.52830772122596,30.0270731570829,-20.3080407180878));
#440=CARTESIAN_POINT('Ctrl Pts',(-2.77044448424636,30.4057880347568,-20.8639244017868));
#441=CARTESIAN_POINT('Ctrl Pts',(-1.36926365205514,30.5,-21.));
#442=CARTESIAN_POINT('Ctrl Pts',(1.36926365205513,30.5,-21.));
#443=CARTESIAN_POINT('Ctrl Pts',(2.77044448424636,30.4057880347568,-20.8639244017868));
#444=CARTESIAN_POINT('Ctrl Pts',(5.52830772122595,30.0270731570829,-20.3080407180878));
#445=CARTESIAN_POINT('Ctrl Pts',(6.88506623609925,29.7427841866981,-19.8884645237468));
#446=CARTESIAN_POINT('Ctrl Pts',(9.46110831755559,29.0262772101071,-18.8000683698831));
#447=CARTESIAN_POINT('Ctrl Pts',(10.6831766004067,28.5937041028344,-18.1303493176091));
#448=CARTESIAN_POINT('Ctrl Pts',(12.9267777629481,27.6519184375936,-16.6053679624516));
#449=CARTESIAN_POINT('Ctrl Pts',(13.9484642274717,27.1432095986974,-15.7500205823633));
#450=CARTESIAN_POINT('Ctrl Pts',(15.7619340240724,26.1324173029033,-13.9365507857626));
#451=CARTESIAN_POINT('Ctrl Pts',(16.6195795462747,25.5909404868689,-12.9083631846966));
#452=CARTESIAN_POINT('Ctrl Pts',(18.1407443626408,24.5360969455117,-10.665348482058));
#453=CARTESIAN_POINT('Ctrl Pts',(18.8046995125574,24.0233601505637,-9.45052079071875));
#454=CARTESIAN_POINT('Ctrl Pts',(19.8855247701032,23.1366498681286,-6.89164996348943));
#455=CARTESIAN_POINT('Ctrl Pts',(20.3033285720143,22.7632922455078,-5.54489147320093));
#456=CARTESIAN_POINT('Ctrl Pts',(20.8607382572403,22.2535890555849,-2.79295009861245));
#457=CARTESIAN_POINT('Ctrl Pts',(21.,22.1189963605947,-1.38737315238664));
#458=CARTESIAN_POINT('Ctrl Pts',(21.,22.1189963605947,8.32667268468867E-16));
#459=CARTESIAN_POINT('Origin',(0.,0.,0.));
#460=CARTESIAN_POINT('Origin',(-1.43937264275587E-15,0.,-26.));
#461=CARTESIAN_POINT('Origin',(-1.43937264275587E-15,0.,26.));
#462=UNCERTAINTY_MEASURE_WITH_UNIT(LENGTH_MEASURE(0.01),#466,
'DISTANCE_ACCURACY_VALUE',
'Maximum model space distance between geometric entities at asserted c
onnectivities');
#463=UNCERTAINTY_MEASURE_WITH_UNIT(LENGTH_MEASURE(1.E-6),#466,
'DISTANCE_ACCURACY_VALUE',
'Maximum model space distance between geometric entities at asserted c
onnectivities');
#464=(
GEOMETRIC_REPRESENTATION_CONTEXT(3)
GLOBAL_UNCERTAINTY_ASSIGNED_CONTEXT((#462))
GLOBAL_UNIT_ASSIGNED_CONTEXT((#466,#469,#467))
REPRESENTATION_CONTEXT('','3D')
);
#465=(
GEOMETRIC_REPRESENTATION_CONTEXT(3)
GLOBAL_UNCERTAINTY_ASSIGNED_CONTEXT((#463))
GLOBAL_UNIT_ASSIGNED_CONTEXT((#466,#469,#467))
REPRESENTATION_CONTEXT('','3D')
);
#466=(
LENGTH_UNIT()
NAMED_UNIT(*)
SI_UNIT(.MILLI.,.METRE.)
);
#467=(
NAMED_UNIT(*)
SI_UNIT($,.STERADIAN.)
SOLID_ANGLE_UNIT()
);
#468=DIMENSIONAL_EXPONENTS(0.,0.,0.,0.,0.,0.,0.);
#469=(
CONVERSION_BASED_UNIT('degree',#471)
NAMED_UNIT(#468)
PLANE_ANGLE_UNIT()
);
#470=(
NAMED_UNIT(*)
PLANE_ANGLE_UNIT()
SI_UNIT($,.RADIAN.)
);
#471=PLANE_ANGLE_MEASURE_WITH_UNIT(PLANE_ANGLE_MEASURE(0.01745329252),#470);
#472=SHAPE_DEFINITION_REPRESENTATION(#473,#474);
#473=PRODUCT_DEFINITION_SHAPE('',$,#476);
#474=SHAPE_REPRESENTATION('',(#201),#464);
#475=PRODUCT_DEFINITION_CONTEXT('part definition',#480,'design');
#476=PRODUCT_DEFINITION('TR40050D','TR40050D',#477,#475);
#477=PRODUCT_DEFINITION_FORMATION('',$,#482);
#478=PRODUCT_RELATED_PRODUCT_CATEGORY('TR40050D','TR40050D',(#482));
#479=APPLICATION_PROTOCOL_DEFINITION('international standard',
'automotive_design',2009,#480);
#480=APPLICATION_CONTEXT(
'Core Data for Automotive Mechanical Design Process');
#481=PRODUCT_CONTEXT('part definition',#480,'mechanical');
#482=PRODUCT('TR40050D','TR40050D',$,(#481));
#483=PRESENTATION_STYLE_ASSIGNMENT((#484));
#484=SURFACE_STYLE_USAGE(.BOTH.,#485);
#485=SURFACE_SIDE_STYLE('',(#486));
#486=SURFACE_STYLE_FILL_AREA(#487);
#487=FILL_AREA_STYLE('',(#488));
#488=FILL_AREA_STYLE_COLOUR('',#489);
#489=COLOUR_RGB('',0.8,0.8,0.8);
ENDSEC;
END-ISO-10303-21;
