ISO-10303-21;
HEADER;
/* Generated by software containing ST-Developer
 * from STEP Tools, Inc. (www.steptools.com) 
 */

FILE_DESCRIPTION(
/* description */ (''),
/* implementation_level */ '2;1');

FILE_NAME(
/* name */ 
'Q:\\Ric010\\FF7\\FIPlastiCAD\\FIP\\Lavoro\\PVC Fittings\\PVC Fittings
 STEP\\LIV\\LIV025100.ipt.stp',
/* time_stamp */ '2013-10-01T14:45:27+02:00',
/* author */ ('bfaro'),
/* organization */ (''),
/* preprocessor_version */ 'ST-DEVELOPER v15.2',
/* originating_system */ 'Autodesk Inventor 2014',
/* authorisation */ '');

FILE_SCHEMA (('AUTOMOTIVE_DESIGN { 1 0 10303 214 3 1 1 }'));
ENDSEC;

DATA;
#10=SHAPE_REPRESENTATION_RELATIONSHIP('SRR','None',#523,#11);
#11=ADVANCED_BREP_SHAPE_REPRESENTATION($,(#309),#514);
#12=STYLED_ITEM($,(#531),#309);
#13=CONICAL_SURFACE($,#339,10.225,10.1065212568515);
#14=CYLINDRICAL_SURFACE($,#315,16.6245);
#15=CYLINDRICAL_SURFACE($,#328,12.5);
#16=CYLINDRICAL_SURFACE($,#332,15.5);
#17=CYLINDRICAL_SURFACE($,#337,10.95);
#18=CYLINDRICAL_SURFACE($,#341,9.5);
#19=LINE($,#439,#43);
#20=LINE($,#441,#44);
#21=LINE($,#443,#45);
#22=LINE($,#445,#46);
#23=LINE($,#447,#47);
#24=LINE($,#449,#48);
#25=LINE($,#451,#49);
#26=LINE($,#452,#50);
#27=LINE($,#458,#51);
#28=LINE($,#460,#52);
#29=LINE($,#461,#53);
#30=LINE($,#464,#54);
#31=LINE($,#465,#55);
#32=LINE($,#468,#56);
#33=LINE($,#469,#57);
#34=LINE($,#472,#58);
#35=LINE($,#473,#59);
#36=LINE($,#476,#60);
#37=LINE($,#477,#61);
#38=LINE($,#480,#62);
#39=LINE($,#481,#63);
#40=LINE($,#484,#64);
#41=LINE($,#485,#65);
#42=LINE($,#487,#66);
#43=VECTOR($,#352,19.0538238691624);
#44=VECTOR($,#353,19.0538238691624);
#45=VECTOR($,#354,19.0538238691624);
#46=VECTOR($,#355,19.0538238691624);
#47=VECTOR($,#356,19.0538238691624);
#48=VECTOR($,#357,19.0538238691624);
#49=VECTOR($,#358,19.0538238691624);
#50=VECTOR($,#359,19.0538238691624);
#51=VECTOR($,#366,10.);
#52=VECTOR($,#367,19.0538238691624);
#53=VECTOR($,#368,10.);
#54=VECTOR($,#371,19.0538238691624);
#55=VECTOR($,#372,10.);
#56=VECTOR($,#375,19.0538238691624);
#57=VECTOR($,#376,10.);
#58=VECTOR($,#379,19.0538238691624);
#59=VECTOR($,#380,10.);
#60=VECTOR($,#383,19.0538238691624);
#61=VECTOR($,#384,10.);
#62=VECTOR($,#387,19.0538238691624);
#63=VECTOR($,#388,10.);
#64=VECTOR($,#391,19.0538238691624);
#65=VECTOR($,#392,10.);
#66=VECTOR($,#395,19.0538238691624);
#67=PLANE($,#314);
#68=PLANE($,#317);
#69=PLANE($,#318);
#70=PLANE($,#319);
#71=PLANE($,#320);
#72=PLANE($,#321);
#73=PLANE($,#322);
#74=PLANE($,#323);
#75=PLANE($,#324);
#76=PLANE($,#325);
#77=PLANE($,#330);
#78=PLANE($,#334);
#79=PLANE($,#335);
#80=FACE_BOUND($,#113,.T.);
#81=FACE_BOUND($,#115,.T.);
#82=FACE_BOUND($,#117,.T.);
#83=FACE_BOUND($,#127,.T.);
#84=FACE_BOUND($,#129,.T.);
#85=FACE_BOUND($,#131,.T.);
#86=FACE_BOUND($,#133,.T.);
#87=FACE_BOUND($,#135,.T.);
#88=FACE_BOUND($,#136,.T.);
#89=FACE_BOUND($,#137,.T.);
#90=FACE_BOUND($,#139,.T.);
#91=FACE_BOUND($,#141,.T.);
#92=FACE_BOUND($,#143,.T.);
#93=FACE_OUTER_BOUND($,#112,.T.);
#94=FACE_OUTER_BOUND($,#114,.T.);
#95=FACE_OUTER_BOUND($,#116,.T.);
#96=FACE_OUTER_BOUND($,#118,.T.);
#97=FACE_OUTER_BOUND($,#119,.T.);
#98=FACE_OUTER_BOUND($,#120,.T.);
#99=FACE_OUTER_BOUND($,#121,.T.);
#100=FACE_OUTER_BOUND($,#122,.T.);
#101=FACE_OUTER_BOUND($,#123,.T.);
#102=FACE_OUTER_BOUND($,#124,.T.);
#103=FACE_OUTER_BOUND($,#125,.T.);
#104=FACE_OUTER_BOUND($,#126,.T.);
#105=FACE_OUTER_BOUND($,#128,.T.);
#106=FACE_OUTER_BOUND($,#130,.T.);
#107=FACE_OUTER_BOUND($,#132,.T.);
#108=FACE_OUTER_BOUND($,#134,.T.);
#109=FACE_OUTER_BOUND($,#138,.T.);
#110=FACE_OUTER_BOUND($,#140,.T.);
#111=FACE_OUTER_BOUND($,#142,.T.);
#112=EDGE_LOOP($,(#217));
#113=EDGE_LOOP($,(#218));
#114=EDGE_LOOP($,(#219,#220,#221,#222,#223,#224,#225,#226));
#115=EDGE_LOOP($,(#227));
#116=EDGE_LOOP($,(#228));
#117=EDGE_LOOP($,(#229));
#118=EDGE_LOOP($,(#230,#231,#232,#233));
#119=EDGE_LOOP($,(#234,#235,#236,#237));
#120=EDGE_LOOP($,(#238,#239,#240,#241));
#121=EDGE_LOOP($,(#242,#243,#244,#245));
#122=EDGE_LOOP($,(#246,#247,#248,#249));
#123=EDGE_LOOP($,(#250,#251,#252,#253));
#124=EDGE_LOOP($,(#254,#255,#256,#257));
#125=EDGE_LOOP($,(#258,#259,#260,#261));
#126=EDGE_LOOP($,(#262));
#127=EDGE_LOOP($,(#263));
#128=EDGE_LOOP($,(#264));
#129=EDGE_LOOP($,(#265));
#130=EDGE_LOOP($,(#266));
#131=EDGE_LOOP($,(#267));
#132=EDGE_LOOP($,(#268));
#133=EDGE_LOOP($,(#269));
#134=EDGE_LOOP($,(#270,#271,#272,#273,#274,#275,#276,#277));
#135=EDGE_LOOP($,(#278));
#136=EDGE_LOOP($,(#279));
#137=EDGE_LOOP($,(#280));
#138=EDGE_LOOP($,(#281));
#139=EDGE_LOOP($,(#282));
#140=EDGE_LOOP($,(#283));
#141=EDGE_LOOP($,(#284));
#142=EDGE_LOOP($,(#285));
#143=EDGE_LOOP($,(#286));
#144=CIRCLE($,#312,18.6245);
#145=CIRCLE($,#313,16.6245);
#146=CIRCLE($,#316,16.6245);
#147=CIRCLE($,#326,12.5);
#148=CIRCLE($,#327,9.5);
#149=CIRCLE($,#329,12.5);
#150=CIRCLE($,#331,15.5);
#151=CIRCLE($,#333,15.5);
#152=CIRCLE($,#336,10.95);
#153=CIRCLE($,#338,10.95);
#154=CIRCLE($,#340,9.5);
#155=VERTEX_POINT($,#432);
#156=VERTEX_POINT($,#434);
#157=VERTEX_POINT($,#437);
#158=VERTEX_POINT($,#438);
#159=VERTEX_POINT($,#440);
#160=VERTEX_POINT($,#442);
#161=VERTEX_POINT($,#444);
#162=VERTEX_POINT($,#446);
#163=VERTEX_POINT($,#448);
#164=VERTEX_POINT($,#450);
#165=VERTEX_POINT($,#454);
#166=VERTEX_POINT($,#457);
#167=VERTEX_POINT($,#459);
#168=VERTEX_POINT($,#463);
#169=VERTEX_POINT($,#467);
#170=VERTEX_POINT($,#471);
#171=VERTEX_POINT($,#475);
#172=VERTEX_POINT($,#479);
#173=VERTEX_POINT($,#483);
#174=VERTEX_POINT($,#489);
#175=VERTEX_POINT($,#491);
#176=VERTEX_POINT($,#494);
#177=VERTEX_POINT($,#497);
#178=VERTEX_POINT($,#500);
#179=VERTEX_POINT($,#504);
#180=VERTEX_POINT($,#507);
#181=VERTEX_POINT($,#510);
#182=EDGE_CURVE($,#155,#155,#144,.T.);
#183=EDGE_CURVE($,#156,#156,#145,.T.);
#184=EDGE_CURVE($,#157,#158,#19,.T.);
#185=EDGE_CURVE($,#159,#157,#20,.T.);
#186=EDGE_CURVE($,#160,#159,#21,.T.);
#187=EDGE_CURVE($,#161,#160,#22,.T.);
#188=EDGE_CURVE($,#162,#161,#23,.T.);
#189=EDGE_CURVE($,#163,#162,#24,.T.);
#190=EDGE_CURVE($,#164,#163,#25,.T.);
#191=EDGE_CURVE($,#158,#164,#26,.T.);
#192=EDGE_CURVE($,#165,#165,#146,.T.);
#193=EDGE_CURVE($,#157,#166,#27,.T.);
#194=EDGE_CURVE($,#167,#166,#28,.T.);
#195=EDGE_CURVE($,#159,#167,#29,.T.);
#196=EDGE_CURVE($,#168,#167,#30,.T.);
#197=EDGE_CURVE($,#160,#168,#31,.T.);
#198=EDGE_CURVE($,#169,#168,#32,.T.);
#199=EDGE_CURVE($,#161,#169,#33,.T.);
#200=EDGE_CURVE($,#170,#169,#34,.T.);
#201=EDGE_CURVE($,#162,#170,#35,.T.);
#202=EDGE_CURVE($,#171,#170,#36,.T.);
#203=EDGE_CURVE($,#163,#171,#37,.T.);
#204=EDGE_CURVE($,#172,#171,#38,.T.);
#205=EDGE_CURVE($,#164,#172,#39,.T.);
#206=EDGE_CURVE($,#173,#172,#40,.T.);
#207=EDGE_CURVE($,#158,#173,#41,.T.);
#208=EDGE_CURVE($,#166,#173,#42,.T.);
#209=EDGE_CURVE($,#174,#174,#147,.T.);
#210=EDGE_CURVE($,#175,#175,#148,.T.);
#211=EDGE_CURVE($,#176,#176,#149,.T.);
#212=EDGE_CURVE($,#177,#177,#150,.T.);
#213=EDGE_CURVE($,#178,#178,#151,.T.);
#214=EDGE_CURVE($,#179,#179,#152,.T.);
#215=EDGE_CURVE($,#180,#180,#153,.T.);
#216=EDGE_CURVE($,#181,#181,#154,.T.);
#217=ORIENTED_EDGE($,*,*,#182,.T.);
#218=ORIENTED_EDGE($,*,*,#183,.T.);
#219=ORIENTED_EDGE($,*,*,#184,.F.);
#220=ORIENTED_EDGE($,*,*,#185,.F.);
#221=ORIENTED_EDGE($,*,*,#186,.F.);
#222=ORIENTED_EDGE($,*,*,#187,.F.);
#223=ORIENTED_EDGE($,*,*,#188,.F.);
#224=ORIENTED_EDGE($,*,*,#189,.F.);
#225=ORIENTED_EDGE($,*,*,#190,.F.);
#226=ORIENTED_EDGE($,*,*,#191,.F.);
#227=ORIENTED_EDGE($,*,*,#182,.F.);
#228=ORIENTED_EDGE($,*,*,#192,.F.);
#229=ORIENTED_EDGE($,*,*,#183,.F.);
#230=ORIENTED_EDGE($,*,*,#185,.T.);
#231=ORIENTED_EDGE($,*,*,#193,.T.);
#232=ORIENTED_EDGE($,*,*,#194,.F.);
#233=ORIENTED_EDGE($,*,*,#195,.F.);
#234=ORIENTED_EDGE($,*,*,#186,.T.);
#235=ORIENTED_EDGE($,*,*,#195,.T.);
#236=ORIENTED_EDGE($,*,*,#196,.F.);
#237=ORIENTED_EDGE($,*,*,#197,.F.);
#238=ORIENTED_EDGE($,*,*,#187,.T.);
#239=ORIENTED_EDGE($,*,*,#197,.T.);
#240=ORIENTED_EDGE($,*,*,#198,.F.);
#241=ORIENTED_EDGE($,*,*,#199,.F.);
#242=ORIENTED_EDGE($,*,*,#188,.T.);
#243=ORIENTED_EDGE($,*,*,#199,.T.);
#244=ORIENTED_EDGE($,*,*,#200,.F.);
#245=ORIENTED_EDGE($,*,*,#201,.F.);
#246=ORIENTED_EDGE($,*,*,#189,.T.);
#247=ORIENTED_EDGE($,*,*,#201,.T.);
#248=ORIENTED_EDGE($,*,*,#202,.F.);
#249=ORIENTED_EDGE($,*,*,#203,.F.);
#250=ORIENTED_EDGE($,*,*,#190,.T.);
#251=ORIENTED_EDGE($,*,*,#203,.T.);
#252=ORIENTED_EDGE($,*,*,#204,.F.);
#253=ORIENTED_EDGE($,*,*,#205,.F.);
#254=ORIENTED_EDGE($,*,*,#191,.T.);
#255=ORIENTED_EDGE($,*,*,#205,.T.);
#256=ORIENTED_EDGE($,*,*,#206,.F.);
#257=ORIENTED_EDGE($,*,*,#207,.F.);
#258=ORIENTED_EDGE($,*,*,#184,.T.);
#259=ORIENTED_EDGE($,*,*,#207,.T.);
#260=ORIENTED_EDGE($,*,*,#208,.F.);
#261=ORIENTED_EDGE($,*,*,#193,.F.);
#262=ORIENTED_EDGE($,*,*,#209,.F.);
#263=ORIENTED_EDGE($,*,*,#210,.T.);
#264=ORIENTED_EDGE($,*,*,#211,.F.);
#265=ORIENTED_EDGE($,*,*,#209,.T.);
#266=ORIENTED_EDGE($,*,*,#212,.F.);
#267=ORIENTED_EDGE($,*,*,#211,.T.);
#268=ORIENTED_EDGE($,*,*,#213,.F.);
#269=ORIENTED_EDGE($,*,*,#212,.T.);
#270=ORIENTED_EDGE($,*,*,#208,.T.);
#271=ORIENTED_EDGE($,*,*,#206,.T.);
#272=ORIENTED_EDGE($,*,*,#204,.T.);
#273=ORIENTED_EDGE($,*,*,#202,.T.);
#274=ORIENTED_EDGE($,*,*,#200,.T.);
#275=ORIENTED_EDGE($,*,*,#198,.T.);
#276=ORIENTED_EDGE($,*,*,#196,.T.);
#277=ORIENTED_EDGE($,*,*,#194,.T.);
#278=ORIENTED_EDGE($,*,*,#213,.T.);
#279=ORIENTED_EDGE($,*,*,#214,.F.);
#280=ORIENTED_EDGE($,*,*,#192,.T.);
#281=ORIENTED_EDGE($,*,*,#215,.F.);
#282=ORIENTED_EDGE($,*,*,#214,.T.);
#283=ORIENTED_EDGE($,*,*,#216,.F.);
#284=ORIENTED_EDGE($,*,*,#215,.T.);
#285=ORIENTED_EDGE($,*,*,#210,.F.);
#286=ORIENTED_EDGE($,*,*,#216,.T.);
#287=TOROIDAL_SURFACE($,#311,18.6245,2.);
#288=ADVANCED_FACE($,(#93,#80),#287,.F.);
#289=ADVANCED_FACE($,(#94,#81),#67,.F.);
#290=ADVANCED_FACE($,(#95,#82),#14,.T.);
#291=ADVANCED_FACE($,(#96),#68,.T.);
#292=ADVANCED_FACE($,(#97),#69,.T.);
#293=ADVANCED_FACE($,(#98),#70,.T.);
#294=ADVANCED_FACE($,(#99),#71,.T.);
#295=ADVANCED_FACE($,(#100),#72,.T.);
#296=ADVANCED_FACE($,(#101),#73,.T.);
#297=ADVANCED_FACE($,(#102),#74,.T.);
#298=ADVANCED_FACE($,(#103),#75,.T.);
#299=ADVANCED_FACE($,(#104,#83),#76,.T.);
#300=ADVANCED_FACE($,(#105,#84),#15,.T.);
#301=ADVANCED_FACE($,(#106,#85),#77,.T.);
#302=ADVANCED_FACE($,(#107,#86),#16,.T.);
#303=ADVANCED_FACE($,(#108,#87),#78,.T.);
#304=ADVANCED_FACE($,(#88,#89),#79,.T.);
#305=ADVANCED_FACE($,(#109,#90),#17,.F.);
#306=ADVANCED_FACE($,(#110,#91),#13,.F.);
#307=ADVANCED_FACE($,(#111,#92),#18,.F.);
#308=CLOSED_SHELL($,(#288,#289,#290,#291,#292,#293,#294,#295,#296,#297,
#298,#299,#300,#301,#302,#303,#304,#305,#306,#307));
#309=MANIFOLD_SOLID_BREP('Solido1',#308);
#310=AXIS2_PLACEMENT_3D('placement',#430,#342,#343);
#311=AXIS2_PLACEMENT_3D($,#431,#344,#345);
#312=AXIS2_PLACEMENT_3D($,#433,#346,#347);
#313=AXIS2_PLACEMENT_3D($,#435,#348,#349);
#314=AXIS2_PLACEMENT_3D($,#436,#350,#351);
#315=AXIS2_PLACEMENT_3D($,#453,#360,#361);
#316=AXIS2_PLACEMENT_3D($,#455,#362,#363);
#317=AXIS2_PLACEMENT_3D($,#456,#364,#365);
#318=AXIS2_PLACEMENT_3D($,#462,#369,#370);
#319=AXIS2_PLACEMENT_3D($,#466,#373,#374);
#320=AXIS2_PLACEMENT_3D($,#470,#377,#378);
#321=AXIS2_PLACEMENT_3D($,#474,#381,#382);
#322=AXIS2_PLACEMENT_3D($,#478,#385,#386);
#323=AXIS2_PLACEMENT_3D($,#482,#389,#390);
#324=AXIS2_PLACEMENT_3D($,#486,#393,#394);
#325=AXIS2_PLACEMENT_3D($,#488,#396,#397);
#326=AXIS2_PLACEMENT_3D($,#490,#398,#399);
#327=AXIS2_PLACEMENT_3D($,#492,#400,#401);
#328=AXIS2_PLACEMENT_3D($,#493,#402,#403);
#329=AXIS2_PLACEMENT_3D($,#495,#404,#405);
#330=AXIS2_PLACEMENT_3D($,#496,#406,#407);
#331=AXIS2_PLACEMENT_3D($,#498,#408,#409);
#332=AXIS2_PLACEMENT_3D($,#499,#410,#411);
#333=AXIS2_PLACEMENT_3D($,#501,#412,#413);
#334=AXIS2_PLACEMENT_3D($,#502,#414,#415);
#335=AXIS2_PLACEMENT_3D($,#503,#416,#417);
#336=AXIS2_PLACEMENT_3D($,#505,#418,#419);
#337=AXIS2_PLACEMENT_3D($,#506,#420,#421);
#338=AXIS2_PLACEMENT_3D($,#508,#422,#423);
#339=AXIS2_PLACEMENT_3D($,#509,#424,#425);
#340=AXIS2_PLACEMENT_3D($,#511,#426,#427);
#341=AXIS2_PLACEMENT_3D($,#512,#428,#429);
#342=DIRECTION('axis',(0.,0.,1.));
#343=DIRECTION('refdir',(1.,0.,0.));
#344=DIRECTION('center_axis',(0.,0.,1.));
#345=DIRECTION('ref_axis',(0.787505161259381,0.616308056891873,0.));
#346=DIRECTION('center_axis',(0.,0.,-1.));
#347=DIRECTION('ref_axis',(0.787505161259381,0.616308056891873,0.));
#348=DIRECTION('center_axis',(0.,0.,1.));
#349=DIRECTION('ref_axis',(0.787505161259381,0.616308056891873,0.));
#350=DIRECTION('center_axis',(0.,0.,1.));
#351=DIRECTION('ref_axis',(1.,0.,0.));
#352=DIRECTION($,(-0.923879532511287,-0.38268343236509,0.));
#353=DIRECTION($,(-0.923879532511287,0.38268343236509,0.));
#354=DIRECTION($,(-0.38268343236509,0.923879532511287,0.));
#355=DIRECTION($,(0.38268343236509,0.923879532511287,0.));
#356=DIRECTION($,(0.923879532511287,0.38268343236509,0.));
#357=DIRECTION($,(0.923879532511287,-0.38268343236509,0.));
#358=DIRECTION($,(0.38268343236509,-0.923879532511287,0.));
#359=DIRECTION($,(-0.38268343236509,-0.923879532511287,0.));
#360=DIRECTION('center_axis',(0.,0.,-1.));
#361=DIRECTION('ref_axis',(0.,1.,0.));
#362=DIRECTION('center_axis',(0.,0.,-1.));
#363=DIRECTION('ref_axis',(0.,1.,0.));
#364=DIRECTION('center_axis',(0.38268343236509,0.923879532511287,0.));
#365=DIRECTION('ref_axis',(-0.923879532511287,0.38268343236509,0.));
#366=DIRECTION($,(0.,0.,1.));
#367=DIRECTION($,(-0.923879532511287,0.38268343236509,0.));
#368=DIRECTION($,(0.,0.,1.));
#369=DIRECTION('center_axis',(0.923879532511287,0.38268343236509,0.));
#370=DIRECTION('ref_axis',(-0.38268343236509,0.923879532511287,0.));
#371=DIRECTION($,(-0.38268343236509,0.923879532511287,0.));
#372=DIRECTION($,(0.,0.,1.));
#373=DIRECTION('center_axis',(0.923879532511287,-0.38268343236509,0.));
#374=DIRECTION('ref_axis',(0.38268343236509,0.923879532511287,0.));
#375=DIRECTION($,(0.38268343236509,0.923879532511287,0.));
#376=DIRECTION($,(0.,0.,1.));
#377=DIRECTION('center_axis',(0.38268343236509,-0.923879532511287,0.));
#378=DIRECTION('ref_axis',(0.923879532511287,0.38268343236509,0.));
#379=DIRECTION($,(0.923879532511287,0.38268343236509,0.));
#380=DIRECTION($,(0.,0.,1.));
#381=DIRECTION('center_axis',(-0.38268343236509,-0.923879532511287,0.));
#382=DIRECTION('ref_axis',(0.923879532511287,-0.38268343236509,0.));
#383=DIRECTION($,(0.923879532511287,-0.38268343236509,0.));
#384=DIRECTION($,(0.,0.,1.));
#385=DIRECTION('center_axis',(-0.923879532511287,-0.38268343236509,0.));
#386=DIRECTION('ref_axis',(0.38268343236509,-0.923879532511287,0.));
#387=DIRECTION($,(0.38268343236509,-0.923879532511287,0.));
#388=DIRECTION($,(0.,0.,1.));
#389=DIRECTION('center_axis',(-0.923879532511287,0.38268343236509,0.));
#390=DIRECTION('ref_axis',(-0.38268343236509,-0.923879532511287,0.));
#391=DIRECTION($,(-0.38268343236509,-0.923879532511287,0.));
#392=DIRECTION($,(0.,0.,1.));
#393=DIRECTION('center_axis',(-0.38268343236509,0.923879532511287,0.));
#394=DIRECTION('ref_axis',(-0.923879532511287,-0.38268343236509,0.));
#395=DIRECTION($,(-0.923879532511287,-0.38268343236509,0.));
#396=DIRECTION('center_axis',(0.,0.,1.));
#397=DIRECTION('ref_axis',(1.,0.,0.));
#398=DIRECTION('center_axis',(0.,0.,-1.));
#399=DIRECTION('ref_axis',(0.,1.,0.));
#400=DIRECTION('center_axis',(0.,0.,-1.));
#401=DIRECTION('ref_axis',(0.,1.,0.));
#402=DIRECTION('center_axis',(0.,0.,-1.));
#403=DIRECTION('ref_axis',(0.,1.,0.));
#404=DIRECTION('center_axis',(0.,0.,-1.));
#405=DIRECTION('ref_axis',(0.,1.,0.));
#406=DIRECTION('center_axis',(0.,0.,1.));
#407=DIRECTION('ref_axis',(1.,0.,0.));
#408=DIRECTION('center_axis',(0.,0.,-1.));
#409=DIRECTION('ref_axis',(0.,1.,0.));
#410=DIRECTION('center_axis',(0.,0.,-1.));
#411=DIRECTION('ref_axis',(0.,1.,0.));
#412=DIRECTION('center_axis',(0.,0.,-1.));
#413=DIRECTION('ref_axis',(0.,1.,0.));
#414=DIRECTION('center_axis',(0.,0.,1.));
#415=DIRECTION('ref_axis',(1.,0.,0.));
#416=DIRECTION('center_axis',(0.,0.,-1.));
#417=DIRECTION('ref_axis',(-1.,0.,0.));
#418=DIRECTION('center_axis',(0.,0.,-1.));
#419=DIRECTION('ref_axis',(0.,1.,0.));
#420=DIRECTION('center_axis',(0.,0.,-1.));
#421=DIRECTION('ref_axis',(0.,1.,0.));
#422=DIRECTION('center_axis',(0.,0.,-1.));
#423=DIRECTION('ref_axis',(0.,1.,0.));
#424=DIRECTION('center_axis',(0.,0.,-1.));
#425=DIRECTION('ref_axis',(0.,1.,0.));
#426=DIRECTION('center_axis',(0.,0.,-1.));
#427=DIRECTION('ref_axis',(0.,1.,0.));
#428=DIRECTION('center_axis',(0.,0.,-1.));
#429=DIRECTION('ref_axis',(0.,1.,0.));
#430=CARTESIAN_POINT('',(0.,0.,0.));
#431=CARTESIAN_POINT('Origin',(0.,0.,26.));
#432=CARTESIAN_POINT('',(-14.6668898758753,-11.4784294055827,28.));
#433=CARTESIAN_POINT('Origin',(0.,0.,28.));
#434=CARTESIAN_POINT('',(-13.0918795533566,-10.2458132917989,26.));
#435=CARTESIAN_POINT('Origin',(0.,0.,26.));
#436=CARTESIAN_POINT('Origin',(1.52952785732303E-015,-6.99212734776243E-015,
28.));
#437=CARTESIAN_POINT('',(-1.43454356678108E-015,24.8950206067251,28.));
#438=CARTESIAN_POINT('',(-17.6034378887941,17.6034378887941,28.));
#439=CARTESIAN_POINT($,(-1.43454356678108E-015,24.8950206067251,28.));
#440=CARTESIAN_POINT('',(17.6034378887941,17.6034378887941,28.));
#441=CARTESIAN_POINT($,(17.6034378887941,17.6034378887941,28.));
#442=CARTESIAN_POINT('',(24.8950206067251,-8.05668194474521E-015,28.));
#443=CARTESIAN_POINT($,(24.8950206067251,-8.05668194474521E-015,28.));
#444=CARTESIAN_POINT('',(17.6034378887941,-17.6034378887941,28.));
#445=CARTESIAN_POINT($,(17.6034378887941,-17.6034378887941,28.));
#446=CARTESIAN_POINT('',(2.72001683456491E-015,-24.8950206067251,28.));
#447=CARTESIAN_POINT($,(2.72001683456491E-015,-24.8950206067251,28.));
#448=CARTESIAN_POINT('',(-17.6034378887941,-17.6034378887941,28.));
#449=CARTESIAN_POINT($,(-17.6034378887941,-17.6034378887941,28.));
#450=CARTESIAN_POINT('',(-24.8950206067251,-2.06827854430601E-014,28.));
#451=CARTESIAN_POINT($,(-24.8950206067251,-2.06827854430601E-014,28.));
#452=CARTESIAN_POINT($,(-17.6034378887941,17.6034378887941,28.));
#453=CARTESIAN_POINT('Origin',(0.,0.,19.));
#454=CARTESIAN_POINT('',(0.,16.6245,0.));
#455=CARTESIAN_POINT('Origin',(0.,0.,0.));
#456=CARTESIAN_POINT('Origin',(17.6034378887941,17.6034378887941,28.));
#457=CARTESIAN_POINT('',(-1.43454356678108E-015,24.8950206067251,38.));
#458=CARTESIAN_POINT($,(-1.43454356678108E-015,24.8950206067251,28.));
#459=CARTESIAN_POINT('',(17.6034378887941,17.6034378887941,38.));
#460=CARTESIAN_POINT($,(17.6034378887941,17.6034378887941,38.));
#461=CARTESIAN_POINT($,(17.6034378887941,17.6034378887941,28.));
#462=CARTESIAN_POINT('Origin',(24.8950206067251,-8.05668194474521E-015,
28.));
#463=CARTESIAN_POINT('',(24.8950206067251,-8.88178419700125E-015,38.));
#464=CARTESIAN_POINT($,(24.8950206067251,-8.05668194474521E-015,38.));
#465=CARTESIAN_POINT($,(24.8950206067251,-8.05668194474521E-015,28.));
#466=CARTESIAN_POINT('Origin',(17.6034378887941,-17.6034378887941,28.));
#467=CARTESIAN_POINT('',(17.6034378887941,-17.6034378887941,38.));
#468=CARTESIAN_POINT($,(17.6034378887941,-17.6034378887941,38.));
#469=CARTESIAN_POINT($,(17.6034378887941,-17.6034378887941,28.));
#470=CARTESIAN_POINT('Origin',(2.72001683456491E-015,-24.8950206067251,
28.));
#471=CARTESIAN_POINT('',(2.72001683456491E-015,-24.8950206067251,38.));
#472=CARTESIAN_POINT($,(2.72001683456491E-015,-24.8950206067251,38.));
#473=CARTESIAN_POINT($,(2.72001683456491E-015,-24.8950206067251,28.));
#474=CARTESIAN_POINT('Origin',(-17.6034378887941,-17.6034378887941,28.));
#475=CARTESIAN_POINT('',(-17.6034378887941,-17.6034378887941,38.));
#476=CARTESIAN_POINT($,(-17.6034378887941,-17.6034378887941,38.));
#477=CARTESIAN_POINT($,(-17.6034378887941,-17.6034378887941,28.));
#478=CARTESIAN_POINT('Origin',(-24.8950206067251,-2.06827854430601E-014,
28.));
#479=CARTESIAN_POINT('',(-24.8950206067251,-2.22044604925031E-014,38.));
#480=CARTESIAN_POINT($,(-24.8950206067251,-2.06827854430601E-014,38.));
#481=CARTESIAN_POINT($,(-24.8950206067251,-2.06827854430601E-014,28.));
#482=CARTESIAN_POINT('Origin',(-17.6034378887941,17.6034378887941,28.));
#483=CARTESIAN_POINT('',(-17.6034378887941,17.6034378887941,38.));
#484=CARTESIAN_POINT($,(-17.6034378887941,17.6034378887941,38.));
#485=CARTESIAN_POINT($,(-17.6034378887941,17.6034378887941,28.));
#486=CARTESIAN_POINT('Origin',(-1.43454356678108E-015,24.8950206067251,
28.));
#487=CARTESIAN_POINT($,(-1.43454356678108E-015,24.8950206067251,38.));
#488=CARTESIAN_POINT('Origin',(0.,11.,60.));
#489=CARTESIAN_POINT('',(0.,12.5,60.));
#490=CARTESIAN_POINT('Origin',(0.,0.,60.));
#491=CARTESIAN_POINT('',(0.,9.5,60.));
#492=CARTESIAN_POINT('Origin',(0.,0.,60.));
#493=CARTESIAN_POINT('Origin',(0.,0.,50.5));
#494=CARTESIAN_POINT('',(0.,12.5,41.));
#495=CARTESIAN_POINT('Origin',(0.,0.,41.));
#496=CARTESIAN_POINT('Origin',(0.,14.,41.));
#497=CARTESIAN_POINT('',(0.,15.5,41.));
#498=CARTESIAN_POINT('Origin',(0.,0.,41.));
#499=CARTESIAN_POINT('Origin',(0.,0.,39.5));
#500=CARTESIAN_POINT('',(0.,15.5,38.));
#501=CARTESIAN_POINT('Origin',(0.,0.,38.));
#502=CARTESIAN_POINT('Origin',(0.,16.06225,38.));
#503=CARTESIAN_POINT('Origin',(0.,13.78725,0.));
#504=CARTESIAN_POINT('',(0.,10.95,0.));
#505=CARTESIAN_POINT('Origin',(0.,0.,0.));
#506=CARTESIAN_POINT('Origin',(0.,0.,10.2885343997549));
#507=CARTESIAN_POINT('',(0.,10.95,20.5770687995098));
#508=CARTESIAN_POINT('Origin',(0.,0.,20.5770687995098));
#509=CARTESIAN_POINT('Origin',(0.,0.,24.6445140821));
#510=CARTESIAN_POINT('',(0.,9.5,28.7119593646903));
#511=CARTESIAN_POINT('Origin',(0.,0.,28.7119593646903));
#512=CARTESIAN_POINT('Origin',(0.,0.,44.3559796823452));
#513=UNCERTAINTY_MEASURE_WITH_UNIT(LENGTH_MEASURE(0.01),#515,
'DISTANCE_ACCURACY_VALUE',
'Maximum model space distance between geometric entities at asserted c
onnectivities');
#514=(
GEOMETRIC_REPRESENTATION_CONTEXT(3)
GLOBAL_UNCERTAINTY_ASSIGNED_CONTEXT((#513))
GLOBAL_UNIT_ASSIGNED_CONTEXT((#515,#518,#516))
REPRESENTATION_CONTEXT('','3D')
);
#515=(
LENGTH_UNIT()
NAMED_UNIT(*)
SI_UNIT(.MILLI.,.METRE.)
);
#516=(
NAMED_UNIT(*)
SI_UNIT($,.STERADIAN.)
SOLID_ANGLE_UNIT()
);
#517=DIMENSIONAL_EXPONENTS(0.,0.,0.,0.,0.,0.,0.);
#518=(
CONVERSION_BASED_UNIT('degree',#520)
NAMED_UNIT(#517)
PLANE_ANGLE_UNIT()
);
#519=(
NAMED_UNIT(*)
PLANE_ANGLE_UNIT()
SI_UNIT($,.RADIAN.)
);
#520=PLANE_ANGLE_MEASURE_WITH_UNIT(PLANE_ANGLE_MEASURE(0.01745329252),#519);
#521=SHAPE_DEFINITION_REPRESENTATION(#522,#523);
#522=PRODUCT_DEFINITION_SHAPE('',$,#525);
#523=SHAPE_REPRESENTATION('',(#310),#514);
#524=PRODUCT_DEFINITION_CONTEXT('3D Mechanical Parts',#528,'design');
#525=PRODUCT_DEFINITION('LIV025100','LIV025100',#526,#524);
#526=PRODUCT_DEFINITION_FORMATION('',$,#530);
#527=APPLICATION_PROTOCOL_DEFINITION('international standard',
'automotive_design',2009,#528);
#528=APPLICATION_CONTEXT(
'Core Data for Automotive Mechanical Design Process');
#529=PRODUCT_CONTEXT('3D Mechanical Parts',#528,'mechanical');
#530=PRODUCT('LIV025100','LIV025100',$,(#529));
#531=PRESENTATION_STYLE_ASSIGNMENT((#532));
#532=SURFACE_STYLE_USAGE(.BOTH.,#533);
#533=SURFACE_SIDE_STYLE($,(#534));
#534=SURFACE_STYLE_FILL_AREA(#535);
#535=FILL_AREA_STYLE($,(#536));
#536=FILL_AREA_STYLE_COLOUR($,#537);
#537=COLOUR_RGB('',0.509803921568627,0.509803921568627,0.588235294117647);
ENDSEC;
END-ISO-10303-21;
