ISO-10303-21;
HEADER;
FILE_DESCRIPTION( ( '' ), '1' );
FILE_NAME( '//se01002/users/anro/AGRU_3M705009011_PE-RC_Mineline_II_Mineline_II_Rohr_5m_90x8_2__SDR11__ISO_S-5_05.stp', '2017-12-12T08:19:36', ( '' ), ( '' ), ' ', ' ', ' ' );
FILE_SCHEMA( ( 'automotive_design' ) );
ENDSEC;
DATA;
#1 = MECHANICAL_DESIGN_GEOMETRIC_PRESENTATION_REPRESENTATION( ' ', ( #10, #11, #12, #13, #14, #15, #16, #17, #18, #19, #20, #21, #22, #23, #24, #25, #26, #27, #28, #29, #30, #31, #32, #33, #34, #35, #36 ), #6 );
#2 = PRODUCT_DEFINITION_CONTEXT( '', #37, 'design' );
#3 = APPLICATION_PROTOCOL_DEFINITION( 'INTERNATIONAL STANDARD', 'automotive_design', 1994, #37 );
#4 = PRODUCT_CATEGORY_RELATIONSHIP( 'NONE', 'NONE', #38, #39 );
#5 = SHAPE_DEFINITION_REPRESENTATION( #40, #41 );
#6 =  ( GEOMETRIC_REPRESENTATION_CONTEXT( 3 )GLOBAL_UNCERTAINTY_ASSIGNED_CONTEXT( ( #44 ) )GLOBAL_UNIT_ASSIGNED_CONTEXT( ( #46, #47, #48 ) )REPRESENTATION_CONTEXT( 'NONE', 'WORKSPACE' ) );
#10 = STYLED_ITEM( '', ( #50 ), #51 );
#11 = STYLED_ITEM( '', ( #52 ), #53 );
#12 = STYLED_ITEM( '', ( #54 ), #55 );
#13 = STYLED_ITEM( '', ( #56 ), #57 );
#14 = STYLED_ITEM( '', ( #58 ), #59 );
#15 = STYLED_ITEM( '', ( #60 ), #61 );
#16 = STYLED_ITEM( '', ( #62 ), #63 );
#17 = STYLED_ITEM( '', ( #64 ), #65 );
#18 = STYLED_ITEM( '', ( #66 ), #67 );
#19 = STYLED_ITEM( '', ( #68 ), #69 );
#20 = STYLED_ITEM( '', ( #70 ), #71 );
#21 = STYLED_ITEM( '', ( #72 ), #73 );
#22 = STYLED_ITEM( '', ( #74 ), #75 );
#23 = STYLED_ITEM( '', ( #76 ), #77 );
#24 = STYLED_ITEM( '', ( #78 ), #79 );
#25 = STYLED_ITEM( '', ( #80 ), #81 );
#26 = STYLED_ITEM( '', ( #82 ), #83 );
#27 = STYLED_ITEM( '', ( #84 ), #85 );
#28 = STYLED_ITEM( '', ( #86 ), #87 );
#29 = STYLED_ITEM( '', ( #88 ), #89 );
#30 = STYLED_ITEM( '', ( #90 ), #91 );
#31 = STYLED_ITEM( '', ( #92 ), #93 );
#32 = STYLED_ITEM( '', ( #94 ), #95 );
#33 = STYLED_ITEM( '', ( #96 ), #97 );
#34 = STYLED_ITEM( '', ( #98 ), #99 );
#35 = STYLED_ITEM( '', ( #100 ), #101 );
#36 = STYLED_ITEM( '', ( #102 ), #103 );
#37 = APPLICATION_CONTEXT( ' ' );
#38 = PRODUCT_CATEGORY( 'part', 'NONE' );
#39 = PRODUCT_RELATED_PRODUCT_CATEGORY( 'detail', ' ', ( #104 ) );
#40 = PRODUCT_DEFINITION_SHAPE( 'NONE', 'NONE', #105 );
#41 = ADVANCED_BREP_SHAPE_REPRESENTATION( '1', ( #73, #106 ), #6 );
#44 = UNCERTAINTY_MEASURE_WITH_UNIT( LENGTH_MEASURE( 1.00000000000000E-006 ), #46, '', '' );
#46 =  ( CONVERSION_BASED_UNIT( 'MILLIMETRE', #109 )LENGTH_UNIT(  )NAMED_UNIT( #112 ) );
#47 =  ( NAMED_UNIT( #114 )PLANE_ANGLE_UNIT(  )SI_UNIT( $, .RADIAN. ) );
#48 =  ( NAMED_UNIT( #114 )SOLID_ANGLE_UNIT(  )SI_UNIT( $, .STERADIAN. ) );
#50 = PRESENTATION_STYLE_ASSIGNMENT( ( #120 ) );
#51 = EDGE_CURVE( '', #55, #89, #121, .T. );
#52 = PRESENTATION_STYLE_ASSIGNMENT( ( #122 ) );
#53 = EDGE_CURVE( '', #89, #65, #123, .T. );
#54 = PRESENTATION_STYLE_ASSIGNMENT( ( #124 ) );
#55 = VERTEX_POINT( '', #125 );
#56 = PRESENTATION_STYLE_ASSIGNMENT( ( #126 ) );
#57 = ADVANCED_FACE( '', ( #127 ), #128, .F. );
#58 = PRESENTATION_STYLE_ASSIGNMENT( ( #129 ) );
#59 = EDGE_CURVE( '', #101, #83, #130, .T. );
#60 = PRESENTATION_STYLE_ASSIGNMENT( ( #131 ) );
#61 = EDGE_CURVE( '', #65, #103, #132, .T. );
#62 = PRESENTATION_STYLE_ASSIGNMENT( ( #133 ) );
#63 = ADVANCED_FACE( '', ( #134, #135 ), #136, .F. );
#64 = PRESENTATION_STYLE_ASSIGNMENT( ( #137 ) );
#65 = VERTEX_POINT( '', #138 );
#66 = PRESENTATION_STYLE_ASSIGNMENT( ( #139 ) );
#67 = EDGE_CURVE( '', #79, #97, #140, .T. );
#68 = PRESENTATION_STYLE_ASSIGNMENT( ( #141 ) );
#69 = ADVANCED_FACE( '', ( #142 ), #143, .T. );
#70 = PRESENTATION_STYLE_ASSIGNMENT( ( #144 ) );
#71 = ADVANCED_FACE( '', ( #145 ), #146, .F. );
#72 = PRESENTATION_STYLE_ASSIGNMENT( ( #147 ) );
#73 = MANIFOLD_SOLID_BREP( '1', #148 );
#74 = PRESENTATION_STYLE_ASSIGNMENT( ( #149 ) );
#75 = EDGE_CURVE( '', #97, #79, #150, .T. );
#76 = PRESENTATION_STYLE_ASSIGNMENT( ( #151 ) );
#77 = ADVANCED_FACE( '', ( #152 ), #153, .T. );
#78 = PRESENTATION_STYLE_ASSIGNMENT( ( #154 ) );
#79 = VERTEX_POINT( '', #155 );
#80 = PRESENTATION_STYLE_ASSIGNMENT( ( #156 ) );
#81 = EDGE_CURVE( '', #103, #55, #157, .T. );
#82 = PRESENTATION_STYLE_ASSIGNMENT( ( #158 ) );
#83 = VERTEX_POINT( '', #159 );
#84 = PRESENTATION_STYLE_ASSIGNMENT( ( #160 ) );
#85 = EDGE_CURVE( '', #83, #101, #161, .T. );
#86 = PRESENTATION_STYLE_ASSIGNMENT( ( #162 ) );
#87 = EDGE_CURVE( '', #97, #101, #163, .T. );
#88 = PRESENTATION_STYLE_ASSIGNMENT( ( #164 ) );
#89 = VERTEX_POINT( '', #165 );
#90 = PRESENTATION_STYLE_ASSIGNMENT( ( #166 ) );
#91 = EDGE_CURVE( '', #103, #65, #167, .T. );
#92 = PRESENTATION_STYLE_ASSIGNMENT( ( #168 ) );
#93 = EDGE_CURVE( '', #89, #55, #169, .T. );
#94 = PRESENTATION_STYLE_ASSIGNMENT( ( #170 ) );
#95 = EDGE_CURVE( '', #83, #79, #171, .T. );
#96 = PRESENTATION_STYLE_ASSIGNMENT( ( #172 ) );
#97 = VERTEX_POINT( '', #173 );
#98 = PRESENTATION_STYLE_ASSIGNMENT( ( #174 ) );
#99 = ADVANCED_FACE( '', ( #175, #176 ), #177, .T. );
#100 = PRESENTATION_STYLE_ASSIGNMENT( ( #178 ) );
#101 = VERTEX_POINT( '', #179 );
#102 = PRESENTATION_STYLE_ASSIGNMENT( ( #180 ) );
#103 = VERTEX_POINT( '', #181 );
#104 = PRODUCT( '1', '1', 'PART-1-DESC', ( #182 ) );
#105 = PRODUCT_DEFINITION( 'NONE', 'NONE', #183, #2 );
#106 = AXIS2_PLACEMENT_3D( '', #184, #185, #186 );
#109 = LENGTH_MEASURE_WITH_UNIT( LENGTH_MEASURE( 1.00000000000000 ), #187 );
#112 = DIMENSIONAL_EXPONENTS( 1.00000000000000, 0.000000000000000, 0.000000000000000, 0.000000000000000, 0.000000000000000, 0.000000000000000, 0.000000000000000 );
#114 = DIMENSIONAL_EXPONENTS( 0.000000000000000, 0.000000000000000, 0.000000000000000, 0.000000000000000, 0.000000000000000, 0.000000000000000, 0.000000000000000 );
#120 = CURVE_STYLE( '', #188, POSITIVE_LENGTH_MEASURE( 1.00000000000000E-006 ), #189 );
#121 = CIRCLE( '', #190, 36.8000000000000 );
#122 = CURVE_STYLE( '', #191, POSITIVE_LENGTH_MEASURE( 1.00000000000000E-006 ), #192 );
#123 = LINE( '', #193, #194 );
#124 = POINT_STYLE( ' ', #195, POSITIVE_LENGTH_MEASURE( 1.00000000000000E-006 ), #196 );
#125 = CARTESIAN_POINT( '', ( 0.000000000000000, 4.50655138206635E-015, 36.8000000000000 ) );
#126 = SURFACE_STYLE_USAGE( .BOTH., #197 );
#127 = FACE_OUTER_BOUND( '', #198, .T. );
#128 = CYLINDRICAL_SURFACE( '', #199, 36.8000000000000 );
#129 = CURVE_STYLE( '', #200, POSITIVE_LENGTH_MEASURE( 1.00000000000000E-006 ), #201 );
#130 = CIRCLE( '', #202, 45.0000000000000 );
#131 = CURVE_STYLE( '', #203, POSITIVE_LENGTH_MEASURE( 1.00000000000000E-006 ), #204 );
#132 = CIRCLE( '', #205, 36.8000000000000 );
#133 = SURFACE_STYLE_USAGE( .BOTH., #206 );
#134 = FACE_OUTER_BOUND( '', #207, .T. );
#135 = FACE_BOUND( '', #208, .T. );
#136 = PLANE( '', #209 );
#137 = POINT_STYLE( ' ', #210, POSITIVE_LENGTH_MEASURE( 1.00000000000000E-006 ), #211 );
#138 = CARTESIAN_POINT( '', ( 5000.00000000000, 0.000000000000000, -36.8000000000000 ) );
#139 = CURVE_STYLE( '', #212, POSITIVE_LENGTH_MEASURE( 1.00000000000000E-006 ), #213 );
#140 = CIRCLE( '', #214, 45.0000000000000 );
#141 = SURFACE_STYLE_USAGE( .BOTH., #215 );
#142 = FACE_OUTER_BOUND( '', #216, .T. );
#143 = CYLINDRICAL_SURFACE( '', #217, 45.0000000000000 );
#144 = SURFACE_STYLE_USAGE( .BOTH., #218 );
#145 = FACE_OUTER_BOUND( '', #219, .T. );
#146 = CYLINDRICAL_SURFACE( '', #220, 36.8000000000000 );
#147 = SURFACE_STYLE_USAGE( .BOTH., #221 );
#148 = CLOSED_SHELL( '', ( #77, #57, #71, #69, #99, #63 ) );
#149 = CURVE_STYLE( '', #222, POSITIVE_LENGTH_MEASURE( 1.00000000000000E-006 ), #223 );
#150 = CIRCLE( '', #224, 45.0000000000000 );
#151 = SURFACE_STYLE_USAGE( .BOTH., #225 );
#152 = FACE_OUTER_BOUND( '', #226, .T. );
#153 = CYLINDRICAL_SURFACE( '', #227, 45.0000000000000 );
#154 = POINT_STYLE( ' ', #228, POSITIVE_LENGTH_MEASURE( 1.00000000000000E-006 ), #229 );
#155 = CARTESIAN_POINT( '', ( 0.000000000000000, 5.51072859220070E-015, 45.0000000000000 ) );
#156 = CURVE_STYLE( '', #230, POSITIVE_LENGTH_MEASURE( 1.00000000000000E-006 ), #231 );
#157 = LINE( '', #232, #233 );
#158 = POINT_STYLE( ' ', #234, POSITIVE_LENGTH_MEASURE( 1.00000000000000E-006 ), #235 );
#159 = CARTESIAN_POINT( '', ( 5000.00000000000, 5.51072859220070E-015, 45.0000000000000 ) );
#160 = CURVE_STYLE( '', #236, POSITIVE_LENGTH_MEASURE( 1.00000000000000E-006 ), #237 );
#161 = CIRCLE( '', #238, 45.0000000000000 );
#162 = CURVE_STYLE( '', #239, POSITIVE_LENGTH_MEASURE( 1.00000000000000E-006 ), #240 );
#163 = LINE( '', #241, #242 );
#164 = POINT_STYLE( ' ', #243, POSITIVE_LENGTH_MEASURE( 1.00000000000000E-006 ), #244 );
#165 = CARTESIAN_POINT( '', ( 0.000000000000000, 0.000000000000000, -36.8000000000000 ) );
#166 = CURVE_STYLE( '', #245, POSITIVE_LENGTH_MEASURE( 1.00000000000000E-006 ), #246 );
#167 = CIRCLE( '', #247, 36.8000000000000 );
#168 = CURVE_STYLE( '', #248, POSITIVE_LENGTH_MEASURE( 1.00000000000000E-006 ), #249 );
#169 = CIRCLE( '', #250, 36.8000000000000 );
#170 = CURVE_STYLE( '', #251, POSITIVE_LENGTH_MEASURE( 1.00000000000000E-006 ), #252 );
#171 = LINE( '', #253, #254 );
#172 = POINT_STYLE( ' ', #255, POSITIVE_LENGTH_MEASURE( 1.00000000000000E-006 ), #256 );
#173 = CARTESIAN_POINT( '', ( 0.000000000000000, 0.000000000000000, -45.0000000000000 ) );
#174 = SURFACE_STYLE_USAGE( .BOTH., #257 );
#175 = FACE_OUTER_BOUND( '', #258, .T. );
#176 = FACE_BOUND( '', #259, .T. );
#177 = PLANE( '', #260 );
#178 = POINT_STYLE( ' ', #261, POSITIVE_LENGTH_MEASURE( 1.00000000000000E-006 ), #262 );
#179 = CARTESIAN_POINT( '', ( 5000.00000000000, 0.000000000000000, -45.0000000000000 ) );
#180 = POINT_STYLE( ' ', #263, POSITIVE_LENGTH_MEASURE( 1.00000000000000E-006 ), #264 );
#181 = CARTESIAN_POINT( '', ( 5000.00000000000, 4.50655138206635E-015, 36.8000000000000 ) );
#182 = PRODUCT_CONTEXT( '', #37, 'mechanical' );
#183 = PRODUCT_DEFINITION_FORMATION_WITH_SPECIFIED_SOURCE( ' ', 'NONE', #104, .NOT_KNOWN. );
#184 = CARTESIAN_POINT( '', ( 0.000000000000000, 0.000000000000000, 0.000000000000000 ) );
#185 = DIRECTION( '', ( 0.000000000000000, 0.000000000000000, 1.00000000000000 ) );
#186 = DIRECTION( '', ( 1.00000000000000, 0.000000000000000, 0.000000000000000 ) );
#187 =  ( NAMED_UNIT( #112 )LENGTH_UNIT(  )SI_UNIT( .MILLI., .METRE. ) );
#188 = DRAUGHTING_PRE_DEFINED_CURVE_FONT( 'continuous' );
#189 = COLOUR_RGB( '', 0.689999997615810, 0.689999997615810, 0.689999997615810 );
#190 = AXIS2_PLACEMENT_3D( '', #266, #267, #268 );
#191 = DRAUGHTING_PRE_DEFINED_CURVE_FONT( 'continuous' );
#192 = COLOUR_RGB( '', 0.689999997615810, 0.689999997615810, 0.689999997615810 );
#193 = CARTESIAN_POINT( '', ( 0.000000000000000, -4.50655138206635E-015, -36.8000000000000 ) );
#194 = VECTOR( '', #269, 1.00000000000000 );
#195 = PRE_DEFINED_MARKER( '' );
#196 = COLOUR_RGB( '', 0.689999997615810, 0.689999997615810, 0.689999997615810 );
#197 = SURFACE_SIDE_STYLE( '', ( #270 ) );
#198 = EDGE_LOOP( '', ( #271, #272, #273, #274 ) );
#199 = AXIS2_PLACEMENT_3D( '', #275, #276, #277 );
#200 = DRAUGHTING_PRE_DEFINED_CURVE_FONT( 'continuous' );
#201 = COLOUR_RGB( '', 0.689999997615810, 0.689999997615810, 0.689999997615810 );
#202 = AXIS2_PLACEMENT_3D( '', #278, #279, #280 );
#203 = DRAUGHTING_PRE_DEFINED_CURVE_FONT( 'continuous' );
#204 = COLOUR_RGB( '', 0.689999997615810, 0.689999997615810, 0.689999997615810 );
#205 = AXIS2_PLACEMENT_3D( '', #281, #282, #283 );
#206 = SURFACE_SIDE_STYLE( '', ( #284 ) );
#207 = EDGE_LOOP( '', ( #285, #286 ) );
#208 = EDGE_LOOP( '', ( #287, #288 ) );
#209 = AXIS2_PLACEMENT_3D( '', #289, #290, #291 );
#210 = PRE_DEFINED_MARKER( '' );
#211 = COLOUR_RGB( '', 0.689999997615810, 0.689999997615810, 0.689999997615810 );
#212 = DRAUGHTING_PRE_DEFINED_CURVE_FONT( 'continuous' );
#213 = COLOUR_RGB( '', 0.689999997615810, 0.689999997615810, 0.689999997615810 );
#214 = AXIS2_PLACEMENT_3D( '', #292, #293, #294 );
#215 = SURFACE_SIDE_STYLE( '', ( #295 ) );
#216 = EDGE_LOOP( '', ( #296, #297, #298, #299 ) );
#217 = AXIS2_PLACEMENT_3D( '', #300, #301, #302 );
#218 = SURFACE_SIDE_STYLE( '', ( #303 ) );
#219 = EDGE_LOOP( '', ( #304, #305, #306, #307 ) );
#220 = AXIS2_PLACEMENT_3D( '', #308, #309, #310 );
#221 = SURFACE_SIDE_STYLE( '', ( #311 ) );
#222 = DRAUGHTING_PRE_DEFINED_CURVE_FONT( 'continuous' );
#223 = COLOUR_RGB( '', 0.689999997615810, 0.689999997615810, 0.689999997615810 );
#224 = AXIS2_PLACEMENT_3D( '', #312, #313, #314 );
#225 = SURFACE_SIDE_STYLE( '', ( #315 ) );
#226 = EDGE_LOOP( '', ( #316, #317, #318, #319 ) );
#227 = AXIS2_PLACEMENT_3D( '', #320, #321, #322 );
#228 = PRE_DEFINED_MARKER( '' );
#229 = COLOUR_RGB( '', 0.689999997615810, 0.689999997615810, 0.689999997615810 );
#230 = DRAUGHTING_PRE_DEFINED_CURVE_FONT( 'continuous' );
#231 = COLOUR_RGB( '', 0.689999997615810, 0.689999997615810, 0.689999997615810 );
#232 = CARTESIAN_POINT( '', ( 0.000000000000000, 4.50655138206635E-015, 36.8000000000000 ) );
#233 = VECTOR( '', #323, 1.00000000000000 );
#234 = PRE_DEFINED_MARKER( '' );
#235 = COLOUR_RGB( '', 0.689999997615810, 0.689999997615810, 0.689999997615810 );
#236 = DRAUGHTING_PRE_DEFINED_CURVE_FONT( 'continuous' );
#237 = COLOUR_RGB( '', 0.689999997615810, 0.689999997615810, 0.689999997615810 );
#238 = AXIS2_PLACEMENT_3D( '', #324, #325, #326 );
#239 = DRAUGHTING_PRE_DEFINED_CURVE_FONT( 'continuous' );
#240 = COLOUR_RGB( '', 0.689999997615810, 0.689999997615810, 0.689999997615810 );
#241 = CARTESIAN_POINT( '', ( 0.000000000000000, -5.51072859220070E-015, -45.0000000000000 ) );
#242 = VECTOR( '', #327, 1.00000000000000 );
#243 = PRE_DEFINED_MARKER( '' );
#244 = COLOUR_RGB( '', 0.689999997615810, 0.689999997615810, 0.689999997615810 );
#245 = DRAUGHTING_PRE_DEFINED_CURVE_FONT( 'continuous' );
#246 = COLOUR_RGB( '', 0.689999997615810, 0.689999997615810, 0.689999997615810 );
#247 = AXIS2_PLACEMENT_3D( '', #328, #329, #330 );
#248 = DRAUGHTING_PRE_DEFINED_CURVE_FONT( 'continuous' );
#249 = COLOUR_RGB( '', 0.689999997615810, 0.689999997615810, 0.689999997615810 );
#250 = AXIS2_PLACEMENT_3D( '', #331, #332, #333 );
#251 = DRAUGHTING_PRE_DEFINED_CURVE_FONT( 'continuous' );
#252 = COLOUR_RGB( '', 0.689999997615810, 0.689999997615810, 0.689999997615810 );
#253 = CARTESIAN_POINT( '', ( 0.000000000000000, 5.51072859220070E-015, 45.0000000000000 ) );
#254 = VECTOR( '', #334, 1.00000000000000 );
#255 = PRE_DEFINED_MARKER( '' );
#256 = COLOUR_RGB( '', 0.689999997615810, 0.689999997615810, 0.689999997615810 );
#257 = SURFACE_SIDE_STYLE( '', ( #335 ) );
#258 = EDGE_LOOP( '', ( #336, #337 ) );
#259 = EDGE_LOOP( '', ( #338, #339 ) );
#260 = AXIS2_PLACEMENT_3D( '', #340, #341, #342 );
#261 = PRE_DEFINED_MARKER( '' );
#262 = COLOUR_RGB( '', 0.689999997615810, 0.689999997615810, 0.689999997615810 );
#263 = PRE_DEFINED_MARKER( '' );
#264 = COLOUR_RGB( '', 0.689999997615810, 0.689999997615810, 0.689999997615810 );
#266 = CARTESIAN_POINT( '', ( 0.000000000000000, 0.000000000000000, 0.000000000000000 ) );
#267 = DIRECTION( '', ( 1.00000000000000, -0.000000000000000, 0.000000000000000 ) );
#268 = DIRECTION( '', ( 0.000000000000000, 0.000000000000000, -1.00000000000000 ) );
#269 = DIRECTION( '', ( 1.00000000000000, 0.000000000000000, 0.000000000000000 ) );
#270 = SURFACE_STYLE_FILL_AREA( #343 );
#271 = ORIENTED_EDGE( '', *, *, #53, .F. );
#272 = ORIENTED_EDGE( '', *, *, #51, .F. );
#273 = ORIENTED_EDGE( '', *, *, #81, .F. );
#274 = ORIENTED_EDGE( '', *, *, #91, .T. );
#275 = CARTESIAN_POINT( '', ( 0.000000000000000, 0.000000000000000, 0.000000000000000 ) );
#276 = DIRECTION( '', ( -1.00000000000000, -0.000000000000000, -0.000000000000000 ) );
#277 = DIRECTION( '', ( 0.000000000000000, 0.000000000000000, -1.00000000000000 ) );
#278 = CARTESIAN_POINT( '', ( 5000.00000000000, 0.000000000000000, 0.000000000000000 ) );
#279 = DIRECTION( '', ( -1.00000000000000, 0.000000000000000, 0.000000000000000 ) );
#280 = DIRECTION( '', ( 0.000000000000000, 0.000000000000000, -1.00000000000000 ) );
#281 = CARTESIAN_POINT( '', ( 5000.00000000000, 0.000000000000000, 0.000000000000000 ) );
#282 = DIRECTION( '', ( 1.00000000000000, 0.000000000000000, 0.000000000000000 ) );
#283 = DIRECTION( '', ( 0.000000000000000, 0.000000000000000, -1.00000000000000 ) );
#284 = SURFACE_STYLE_FILL_AREA( #344 );
#285 = ORIENTED_EDGE( '', *, *, #75, .F. );
#286 = ORIENTED_EDGE( '', *, *, #67, .F. );
#287 = ORIENTED_EDGE( '', *, *, #93, .T. );
#288 = ORIENTED_EDGE( '', *, *, #51, .T. );
#289 = CARTESIAN_POINT( '', ( 0.000000000000000, 0.000000000000000, 0.000000000000000 ) );
#290 = DIRECTION( '', ( 1.00000000000000, 0.000000000000000, 0.000000000000000 ) );
#291 = DIRECTION( '', ( 0.000000000000000, 0.000000000000000, -1.00000000000000 ) );
#292 = CARTESIAN_POINT( '', ( 0.000000000000000, 0.000000000000000, 0.000000000000000 ) );
#293 = DIRECTION( '', ( 1.00000000000000, -0.000000000000000, 0.000000000000000 ) );
#294 = DIRECTION( '', ( 0.000000000000000, 0.000000000000000, -1.00000000000000 ) );
#295 = SURFACE_STYLE_FILL_AREA( #345 );
#296 = ORIENTED_EDGE( '', *, *, #87, .T. );
#297 = ORIENTED_EDGE( '', *, *, #59, .T. );
#298 = ORIENTED_EDGE( '', *, *, #95, .T. );
#299 = ORIENTED_EDGE( '', *, *, #67, .T. );
#300 = CARTESIAN_POINT( '', ( 0.000000000000000, 0.000000000000000, 0.000000000000000 ) );
#301 = DIRECTION( '', ( -1.00000000000000, -0.000000000000000, -0.000000000000000 ) );
#302 = DIRECTION( '', ( 0.000000000000000, 0.000000000000000, -1.00000000000000 ) );
#303 = SURFACE_STYLE_FILL_AREA( #346 );
#304 = ORIENTED_EDGE( '', *, *, #53, .T. );
#305 = ORIENTED_EDGE( '', *, *, #61, .T. );
#306 = ORIENTED_EDGE( '', *, *, #81, .T. );
#307 = ORIENTED_EDGE( '', *, *, #93, .F. );
#308 = CARTESIAN_POINT( '', ( 0.000000000000000, 0.000000000000000, 0.000000000000000 ) );
#309 = DIRECTION( '', ( -1.00000000000000, -0.000000000000000, -0.000000000000000 ) );
#310 = DIRECTION( '', ( 0.000000000000000, 0.000000000000000, -1.00000000000000 ) );
#311 = SURFACE_STYLE_FILL_AREA( #347 );
#312 = CARTESIAN_POINT( '', ( 0.000000000000000, 0.000000000000000, 0.000000000000000 ) );
#313 = DIRECTION( '', ( 1.00000000000000, -0.000000000000000, 0.000000000000000 ) );
#314 = DIRECTION( '', ( 0.000000000000000, 0.000000000000000, -1.00000000000000 ) );
#315 = SURFACE_STYLE_FILL_AREA( #348 );
#316 = ORIENTED_EDGE( '', *, *, #87, .F. );
#317 = ORIENTED_EDGE( '', *, *, #75, .T. );
#318 = ORIENTED_EDGE( '', *, *, #95, .F. );
#319 = ORIENTED_EDGE( '', *, *, #85, .T. );
#320 = CARTESIAN_POINT( '', ( 0.000000000000000, 0.000000000000000, 0.000000000000000 ) );
#321 = DIRECTION( '', ( -1.00000000000000, -0.000000000000000, -0.000000000000000 ) );
#322 = DIRECTION( '', ( 0.000000000000000, 0.000000000000000, -1.00000000000000 ) );
#323 = DIRECTION( '', ( -1.00000000000000, 0.000000000000000, 0.000000000000000 ) );
#324 = CARTESIAN_POINT( '', ( 5000.00000000000, 0.000000000000000, 0.000000000000000 ) );
#325 = DIRECTION( '', ( -1.00000000000000, 0.000000000000000, 0.000000000000000 ) );
#326 = DIRECTION( '', ( 0.000000000000000, 0.000000000000000, -1.00000000000000 ) );
#327 = DIRECTION( '', ( 1.00000000000000, 0.000000000000000, 0.000000000000000 ) );
#328 = CARTESIAN_POINT( '', ( 5000.00000000000, 0.000000000000000, 0.000000000000000 ) );
#329 = DIRECTION( '', ( 1.00000000000000, 0.000000000000000, 0.000000000000000 ) );
#330 = DIRECTION( '', ( 0.000000000000000, 0.000000000000000, -1.00000000000000 ) );
#331 = CARTESIAN_POINT( '', ( 0.000000000000000, 0.000000000000000, 0.000000000000000 ) );
#332 = DIRECTION( '', ( 1.00000000000000, -0.000000000000000, 0.000000000000000 ) );
#333 = DIRECTION( '', ( 0.000000000000000, 0.000000000000000, -1.00000000000000 ) );
#334 = DIRECTION( '', ( -1.00000000000000, -0.000000000000000, -0.000000000000000 ) );
#335 = SURFACE_STYLE_FILL_AREA( #349 );
#336 = ORIENTED_EDGE( '', *, *, #59, .F. );
#337 = ORIENTED_EDGE( '', *, *, #85, .F. );
#338 = ORIENTED_EDGE( '', *, *, #61, .F. );
#339 = ORIENTED_EDGE( '', *, *, #91, .F. );
#340 = CARTESIAN_POINT( '', ( 5000.00000000000, 0.000000000000000, 0.000000000000000 ) );
#341 = DIRECTION( '', ( 1.00000000000000, 0.000000000000000, 0.000000000000000 ) );
#342 = DIRECTION( '', ( 0.000000000000000, 0.000000000000000, -1.00000000000000 ) );
#343 = FILL_AREA_STYLE( '', ( #350 ) );
#344 = FILL_AREA_STYLE( '', ( #351 ) );
#345 = FILL_AREA_STYLE( '', ( #352 ) );
#346 = FILL_AREA_STYLE( '', ( #353 ) );
#347 = FILL_AREA_STYLE( '', ( #354 ) );
#348 = FILL_AREA_STYLE( '', ( #355 ) );
#349 = FILL_AREA_STYLE( '', ( #356 ) );
#350 = FILL_AREA_STYLE_COLOUR( '', #357 );
#351 = FILL_AREA_STYLE_COLOUR( '', #358 );
#352 = FILL_AREA_STYLE_COLOUR( '', #359 );
#353 = FILL_AREA_STYLE_COLOUR( '', #360 );
#354 = FILL_AREA_STYLE_COLOUR( '', #361 );
#355 = FILL_AREA_STYLE_COLOUR( '', #362 );
#356 = FILL_AREA_STYLE_COLOUR( '', #363 );
#357 = COLOUR_RGB( '', 0.689999997615810, 0.689999997615810, 0.689999997615810 );
#358 = COLOUR_RGB( '', 0.689999997615810, 0.689999997615810, 0.689999997615810 );
#359 = COLOUR_RGB( '', 0.689999997615810, 0.689999997615810, 0.689999997615810 );
#360 = COLOUR_RGB( '', 0.689999997615810, 0.689999997615810, 0.689999997615810 );
#361 = COLOUR_RGB( '', 0.689999997615810, 0.689999997615810, 0.689999997615810 );
#362 = COLOUR_RGB( '', 0.689999997615810, 0.689999997615810, 0.689999997615810 );
#363 = COLOUR_RGB( '', 0.689999997615810, 0.689999997615810, 0.689999997615810 );
ENDSEC;
END-ISO-10303-21;
