ISO-10303-21;
HEADER;
/* Generated by software containing ST-Developer
 * from STEP Tools, Inc. (www.steptools.com) 
 */
/* OPTION: using custom renumber hook */

FILE_DESCRIPTION(
/* description */ ('STEP AP203'),
/* implementation_level */ '2;1');

FILE_NAME(
/* name */ '11036022517(architecture400)',
/* time_stamp */ '2022-06-30T14:12:22+02:00',
/* author */ ('License CC BY-ND 4.0'),
/* organization */ ('CADENAS'),
/* preprocessor_version */ 'ST-DEVELOPER v18.102',
/* originating_system */ 'PARTsolutions',
/* authorisation */ '  ');

FILE_SCHEMA (('CONFIG_CONTROL_DESIGN'));
ENDSEC;

DATA;
#10=PROPERTY_DEFINITION_REPRESENTATION(#14,#12);
#11=PROPERTY_DEFINITION_REPRESENTATION(#15,#13);
#12=REPRESENTATION('',(#16),#431);
#13=REPRESENTATION('',(#17),#431);
#14=PROPERTY_DEFINITION('pmi validation property','',#436);
#15=PROPERTY_DEFINITION('pmi validation property','',#436);
#16=VALUE_REPRESENTATION_ITEM('number of annotations',COUNT_MEASURE(0.));
#17=VALUE_REPRESENTATION_ITEM('number of views',COUNT_MEASURE(0.));
#18=SHAPE_REPRESENTATION_RELATIONSHIP('','',#248,#19);
#19=ADVANCED_BREP_SHAPE_REPRESENTATION('',(#246),#431);
#20=CONICAL_SURFACE('',#267,112.5,0.785398163397449);
#21=CONICAL_SURFACE('',#268,120.708154506438,0.785398163397449);
#22=CONICAL_SURFACE('',#278,120.708154506438,0.78539816339745);
#23=TOROIDAL_SURFACE('',#263,112.,0.500000000000005);
#24=TOROIDAL_SURFACE('',#272,112.,0.50000000000007);
#25=TOROIDAL_SURFACE('',#284,99.6,0.500000000000005);
#26=TOROIDAL_SURFACE('',#285,99.6000000000001,0.500000000000056);
#27=TOROIDAL_SURFACE('',#288,99.6000000000001,0.500000000000096);
#28=PLANE('',#260);
#29=PLANE('',#274);
#30=PLANE('',#282);
#31=ELLIPSE('',#252,258.960779638498,99.1);
#32=ELLIPSE('',#253,107.265067048976,99.1);
#33=ELLIPSE('',#257,130.653564949457,120.708154506438);
#34=ELLIPSE('',#258,315.425608473374,120.708154506438);
#35=ORIENTED_EDGE('',*,*,#77,.T.);
#36=ORIENTED_EDGE('',*,*,#78,.T.);
#37=ORIENTED_EDGE('',*,*,#79,.T.);
#38=ORIENTED_EDGE('',*,*,#80,.F.);
#39=ORIENTED_EDGE('',*,*,#81,.F.);
#40=ORIENTED_EDGE('',*,*,#82,.F.);
#41=ORIENTED_EDGE('',*,*,#83,.F.);
#42=ORIENTED_EDGE('',*,*,#84,.T.);
#43=ORIENTED_EDGE('',*,*,#85,.F.);
#44=ORIENTED_EDGE('',*,*,#86,.T.);
#45=ORIENTED_EDGE('',*,*,#85,.T.);
#46=ORIENTED_EDGE('',*,*,#87,.F.);
#47=ORIENTED_EDGE('',*,*,#88,.F.);
#48=ORIENTED_EDGE('',*,*,#87,.T.);
#49=ORIENTED_EDGE('',*,*,#84,.F.);
#50=ORIENTED_EDGE('',*,*,#88,.T.);
#51=ORIENTED_EDGE('',*,*,#89,.F.);
#52=ORIENTED_EDGE('',*,*,#81,.T.);
#53=ORIENTED_EDGE('',*,*,#90,.F.);
#54=ORIENTED_EDGE('',*,*,#89,.T.);
#55=ORIENTED_EDGE('',*,*,#90,.T.);
#56=ORIENTED_EDGE('',*,*,#91,.F.);
#57=ORIENTED_EDGE('',*,*,#92,.F.);
#58=ORIENTED_EDGE('',*,*,#91,.T.);
#59=ORIENTED_EDGE('',*,*,#93,.F.);
#60=ORIENTED_EDGE('',*,*,#83,.T.);
#61=ORIENTED_EDGE('',*,*,#82,.T.);
#62=ORIENTED_EDGE('',*,*,#94,.F.);
#63=ORIENTED_EDGE('',*,*,#93,.T.);
#64=ORIENTED_EDGE('',*,*,#95,.F.);
#65=ORIENTED_EDGE('',*,*,#94,.T.);
#66=ORIENTED_EDGE('',*,*,#96,.F.);
#67=ORIENTED_EDGE('',*,*,#95,.T.);
#68=ORIENTED_EDGE('',*,*,#80,.T.);
#69=ORIENTED_EDGE('',*,*,#86,.F.);
#70=ORIENTED_EDGE('',*,*,#92,.T.);
#71=ORIENTED_EDGE('',*,*,#77,.F.);
#72=ORIENTED_EDGE('',*,*,#97,.T.);
#73=ORIENTED_EDGE('',*,*,#78,.F.);
#74=ORIENTED_EDGE('',*,*,#79,.F.);
#75=ORIENTED_EDGE('',*,*,#96,.T.);
#76=ORIENTED_EDGE('',*,*,#97,.F.);
#77=EDGE_CURVE('',#98,#98,#119,.T.);
#78=EDGE_CURVE('',#99,#100,#31,.F.);
#79=EDGE_CURVE('',#100,#99,#32,.T.);
#80=EDGE_CURVE('',#101,#101,#120,.T.);
#81=EDGE_CURVE('',#102,#102,#121,.T.);
#82=EDGE_CURVE('',#103,#104,#33,.T.);
#83=EDGE_CURVE('',#104,#103,#34,.F.);
#84=EDGE_CURVE('',#105,#105,#122,.T.);
#85=EDGE_CURVE('',#106,#106,#123,.T.);
#86=EDGE_CURVE('',#107,#107,#124,.T.);
#87=EDGE_CURVE('',#108,#108,#125,.T.);
#88=EDGE_CURVE('',#109,#109,#126,.T.);
#89=EDGE_CURVE('',#110,#110,#127,.T.);
#90=EDGE_CURVE('',#111,#111,#128,.T.);
#91=EDGE_CURVE('',#112,#112,#129,.T.);
#92=EDGE_CURVE('',#113,#113,#130,.T.);
#93=EDGE_CURVE('',#114,#114,#131,.T.);
#94=EDGE_CURVE('',#115,#115,#132,.T.);
#95=EDGE_CURVE('',#116,#116,#133,.T.);
#96=EDGE_CURVE('',#117,#117,#134,.T.);
#97=EDGE_CURVE('',#118,#118,#135,.T.);
#98=VERTEX_POINT('',#372);
#99=VERTEX_POINT('',#374);
#100=VERTEX_POINT('',#375);
#101=VERTEX_POINT('',#378);
#102=VERTEX_POINT('',#381);
#103=VERTEX_POINT('',#383);
#104=VERTEX_POINT('',#384);
#105=VERTEX_POINT('',#387);
#106=VERTEX_POINT('',#390);
#107=VERTEX_POINT('',#392);
#108=VERTEX_POINT('',#395);
#109=VERTEX_POINT('',#398);
#110=VERTEX_POINT('',#402);
#111=VERTEX_POINT('',#405);
#112=VERTEX_POINT('',#408);
#113=VERTEX_POINT('',#411);
#114=VERTEX_POINT('',#414);
#115=VERTEX_POINT('',#417);
#116=VERTEX_POINT('',#420);
#117=VERTEX_POINT('',#423);
#118=VERTEX_POINT('',#428);
#119=CIRCLE('',#251,99.1);
#120=CIRCLE('',#254,99.1);
#121=CIRCLE('',#256,120.708154506438);
#122=CIRCLE('',#259,120.708154506438);
#123=CIRCLE('',#261,112.);
#124=CIRCLE('',#262,99.6);
#125=CIRCLE('',#264,112.5);
#126=CIRCLE('',#266,112.5);
#127=CIRCLE('',#269,112.5);
#128=CIRCLE('',#271,112.5);
#129=CIRCLE('',#273,112.);
#130=CIRCLE('',#275,99.6);
#131=CIRCLE('',#277,120.708154506438);
#132=CIRCLE('',#279,112.5);
#133=CIRCLE('',#281,112.5);
#134=CIRCLE('',#283,99.6);
#135=CIRCLE('',#287,99.1);
#136=EDGE_LOOP('',(#35));
#137=EDGE_LOOP('',(#36,#37));
#138=EDGE_LOOP('',(#38));
#139=EDGE_LOOP('',(#39));
#140=EDGE_LOOP('',(#40,#41));
#141=EDGE_LOOP('',(#42));
#142=EDGE_LOOP('',(#43));
#143=EDGE_LOOP('',(#44));
#144=EDGE_LOOP('',(#45));
#145=EDGE_LOOP('',(#46));
#146=EDGE_LOOP('',(#47));
#147=EDGE_LOOP('',(#48));
#148=EDGE_LOOP('',(#49));
#149=EDGE_LOOP('',(#50));
#150=EDGE_LOOP('',(#51));
#151=EDGE_LOOP('',(#52));
#152=EDGE_LOOP('',(#53));
#153=EDGE_LOOP('',(#54));
#154=EDGE_LOOP('',(#55));
#155=EDGE_LOOP('',(#56));
#156=EDGE_LOOP('',(#57));
#157=EDGE_LOOP('',(#58));
#158=EDGE_LOOP('',(#59));
#159=EDGE_LOOP('',(#60,#61));
#160=EDGE_LOOP('',(#62));
#161=EDGE_LOOP('',(#63));
#162=EDGE_LOOP('',(#64));
#163=EDGE_LOOP('',(#65));
#164=EDGE_LOOP('',(#66));
#165=EDGE_LOOP('',(#67));
#166=EDGE_LOOP('',(#68));
#167=EDGE_LOOP('',(#69));
#168=EDGE_LOOP('',(#70));
#169=EDGE_LOOP('',(#71));
#170=EDGE_LOOP('',(#72));
#171=EDGE_LOOP('',(#73,#74));
#172=EDGE_LOOP('',(#75));
#173=EDGE_LOOP('',(#76));
#174=FACE_BOUND('',#136,.T.);
#175=FACE_BOUND('',#137,.T.);
#176=FACE_BOUND('',#138,.T.);
#177=FACE_BOUND('',#139,.T.);
#178=FACE_BOUND('',#140,.T.);
#179=FACE_BOUND('',#141,.T.);
#180=FACE_BOUND('',#142,.T.);
#181=FACE_BOUND('',#143,.T.);
#182=FACE_BOUND('',#144,.T.);
#183=FACE_BOUND('',#145,.T.);
#184=FACE_BOUND('',#146,.T.);
#185=FACE_BOUND('',#147,.T.);
#186=FACE_BOUND('',#148,.T.);
#187=FACE_BOUND('',#149,.T.);
#188=FACE_BOUND('',#150,.T.);
#189=FACE_BOUND('',#151,.T.);
#190=FACE_BOUND('',#152,.T.);
#191=FACE_BOUND('',#153,.T.);
#192=FACE_BOUND('',#154,.T.);
#193=FACE_BOUND('',#155,.T.);
#194=FACE_BOUND('',#156,.T.);
#195=FACE_BOUND('',#157,.T.);
#196=FACE_BOUND('',#158,.T.);
#197=FACE_BOUND('',#159,.T.);
#198=FACE_BOUND('',#160,.T.);
#199=FACE_BOUND('',#161,.T.);
#200=FACE_BOUND('',#162,.T.);
#201=FACE_BOUND('',#163,.T.);
#202=FACE_BOUND('',#164,.T.);
#203=FACE_BOUND('',#165,.T.);
#204=FACE_BOUND('',#166,.T.);
#205=FACE_BOUND('',#167,.T.);
#206=FACE_BOUND('',#168,.T.);
#207=FACE_BOUND('',#169,.T.);
#208=FACE_BOUND('',#170,.T.);
#209=FACE_BOUND('',#171,.T.);
#210=FACE_BOUND('',#172,.T.);
#211=FACE_BOUND('',#173,.T.);
#212=CYLINDRICAL_SURFACE('',#250,99.1);
#213=CYLINDRICAL_SURFACE('',#255,120.708154506438);
#214=CYLINDRICAL_SURFACE('',#265,112.5);
#215=CYLINDRICAL_SURFACE('',#270,112.5);
#216=CYLINDRICAL_SURFACE('',#276,120.708154506438);
#217=CYLINDRICAL_SURFACE('',#280,112.5);
#218=CYLINDRICAL_SURFACE('',#286,99.1);
#219=ADVANCED_FACE('',(#174,#175,#176),#212,.F.);
#220=ADVANCED_FACE('',(#177,#178,#179),#213,.T.);
#221=ADVANCED_FACE('',(#180,#181),#28,.F.);
#222=ADVANCED_FACE('',(#182,#183),#23,.T.);
#223=ADVANCED_FACE('',(#184,#185),#214,.T.);
#224=ADVANCED_FACE('',(#186,#187),#20,.T.);
#225=ADVANCED_FACE('',(#188,#189),#21,.T.);
#226=ADVANCED_FACE('',(#190,#191),#215,.T.);
#227=ADVANCED_FACE('',(#192,#193),#24,.T.);
#228=ADVANCED_FACE('',(#194,#195),#29,.F.);
#229=ADVANCED_FACE('',(#196,#197),#216,.T.);
#230=ADVANCED_FACE('',(#198,#199),#22,.T.);
#231=ADVANCED_FACE('',(#200,#201),#217,.T.);
#232=ADVANCED_FACE('',(#202,#203),#30,.F.);
#233=ADVANCED_FACE('',(#204,#205),#25,.T.);
#234=ADVANCED_FACE('',(#206,#207),#26,.T.);
#235=ADVANCED_FACE('',(#208,#209),#218,.F.);
#236=ADVANCED_FACE('',(#210,#211),#27,.T.);
#237=CLOSED_SHELL('',(#219,#220,#221,#222,#223,#224,#225,#226,#227,#228,
#229,#230,#231,#232,#233,#234,#235,#236));
#238=STYLED_ITEM('',(#239),#246);
#239=PRESENTATION_STYLE_ASSIGNMENT((#240));
#240=SURFACE_STYLE_USAGE(.BOTH.,#241);
#241=SURFACE_SIDE_STYLE('',(#242));
#242=SURFACE_STYLE_FILL_AREA(#243);
#243=FILL_AREA_STYLE('',(#244));
#244=FILL_AREA_STYLE_COLOUR('',#245);
#245=COLOUR_RGB('',0.689999997615814,0.689999997615814,0.689999997615814);
#246=MANIFOLD_SOLID_BREP('11036022517(architecture400)',#237);
#247=SHAPE_DEFINITION_REPRESENTATION(#436,#248);
#248=SHAPE_REPRESENTATION('11036022517(architecture400)',(#249),#431);
#249=AXIS2_PLACEMENT_3D('',#369,#289,#290);
#250=AXIS2_PLACEMENT_3D('',#370,#291,#292);
#251=AXIS2_PLACEMENT_3D('',#371,#293,#294);
#252=AXIS2_PLACEMENT_3D('',#373,#295,#296);
#253=AXIS2_PLACEMENT_3D('',#376,#297,#298);
#254=AXIS2_PLACEMENT_3D('',#377,#299,#300);
#255=AXIS2_PLACEMENT_3D('',#379,#301,#302);
#256=AXIS2_PLACEMENT_3D('',#380,#303,#304);
#257=AXIS2_PLACEMENT_3D('',#382,#305,#306);
#258=AXIS2_PLACEMENT_3D('',#385,#307,#308);
#259=AXIS2_PLACEMENT_3D('',#386,#309,#310);
#260=AXIS2_PLACEMENT_3D('',#388,#311,#312);
#261=AXIS2_PLACEMENT_3D('',#389,#313,#314);
#262=AXIS2_PLACEMENT_3D('',#391,#315,#316);
#263=AXIS2_PLACEMENT_3D('',#393,#317,#318);
#264=AXIS2_PLACEMENT_3D('',#394,#319,#320);
#265=AXIS2_PLACEMENT_3D('',#396,#321,#322);
#266=AXIS2_PLACEMENT_3D('',#397,#323,#324);
#267=AXIS2_PLACEMENT_3D('',#399,#325,#326);
#268=AXIS2_PLACEMENT_3D('',#400,#327,#328);
#269=AXIS2_PLACEMENT_3D('',#401,#329,#330);
#270=AXIS2_PLACEMENT_3D('',#403,#331,#332);
#271=AXIS2_PLACEMENT_3D('',#404,#333,#334);
#272=AXIS2_PLACEMENT_3D('',#406,#335,#336);
#273=AXIS2_PLACEMENT_3D('',#407,#337,#338);
#274=AXIS2_PLACEMENT_3D('',#409,#339,#340);
#275=AXIS2_PLACEMENT_3D('',#410,#341,#342);
#276=AXIS2_PLACEMENT_3D('',#412,#343,#344);
#277=AXIS2_PLACEMENT_3D('',#413,#345,#346);
#278=AXIS2_PLACEMENT_3D('',#415,#347,#348);
#279=AXIS2_PLACEMENT_3D('',#416,#349,#350);
#280=AXIS2_PLACEMENT_3D('',#418,#351,#352);
#281=AXIS2_PLACEMENT_3D('',#419,#353,#354);
#282=AXIS2_PLACEMENT_3D('',#421,#355,#356);
#283=AXIS2_PLACEMENT_3D('',#422,#357,#358);
#284=AXIS2_PLACEMENT_3D('',#424,#359,#360);
#285=AXIS2_PLACEMENT_3D('',#425,#361,#362);
#286=AXIS2_PLACEMENT_3D('',#426,#363,#364);
#287=AXIS2_PLACEMENT_3D('',#427,#365,#366);
#288=AXIS2_PLACEMENT_3D('',#429,#367,#368);
#289=DIRECTION('',(0.,0.,1.));
#290=DIRECTION('',(1.,0.,0.));
#291=DIRECTION('',(1.,0.,0.));
#292=DIRECTION('',(0.,0.,-1.));
#293=DIRECTION('',(1.,0.,0.));
#294=DIRECTION('',(0.,0.,-1.));
#295=DIRECTION('',(0.38268343236509,0.,-0.923879532511287));
#296=DIRECTION('',(0.923879532511287,0.,0.38268343236509));
#297=DIRECTION('',(0.923879532511287,0.,0.38268343236509));
#298=DIRECTION('',(0.38268343236509,0.,-0.923879532511287));
#299=DIRECTION('',(1.,0.,0.));
#300=DIRECTION('',(0.,0.,-1.));
#301=DIRECTION('',(1.,0.,0.));
#302=DIRECTION('',(0.,0.,-1.));
#303=DIRECTION('',(1.,0.,0.));
#304=DIRECTION('',(0.,0.,-1.));
#305=DIRECTION('',(0.923879532511287,0.,0.38268343236509));
#306=DIRECTION('',(0.38268343236509,0.,-0.923879532511287));
#307=DIRECTION('',(0.38268343236509,0.,-0.923879532511287));
#308=DIRECTION('',(0.923879532511287,0.,0.38268343236509));
#309=DIRECTION('',(1.,0.,0.));
#310=DIRECTION('',(0.,0.,-1.));
#311=DIRECTION('',(1.,0.,0.));
#312=DIRECTION('',(0.,0.,-1.));
#313=DIRECTION('',(1.,0.,0.));
#314=DIRECTION('',(0.,0.,-1.));
#315=DIRECTION('',(1.,0.,0.));
#316=DIRECTION('',(0.,0.,-1.));
#317=DIRECTION('',(1.,0.,0.));
#318=DIRECTION('',(0.,0.,-1.));
#319=DIRECTION('',(1.,0.,0.));
#320=DIRECTION('',(0.,0.,-1.));
#321=DIRECTION('',(1.,0.,0.));
#322=DIRECTION('',(0.,0.,-1.));
#323=DIRECTION('',(1.,0.,0.));
#324=DIRECTION('',(0.,0.,-1.));
#325=DIRECTION('',(1.,0.,0.));
#326=DIRECTION('',(0.,0.,-1.));
#327=DIRECTION('',(-1.,0.,0.));
#328=DIRECTION('',(0.,0.,1.));
#329=DIRECTION('',(1.,0.,0.));
#330=DIRECTION('',(0.,0.,-1.));
#331=DIRECTION('',(1.,0.,0.));
#332=DIRECTION('',(0.,0.,-1.));
#333=DIRECTION('',(1.,0.,0.));
#334=DIRECTION('',(0.,0.,-1.));
#335=DIRECTION('',(1.,0.,0.));
#336=DIRECTION('',(0.,0.,-1.));
#337=DIRECTION('',(1.,0.,0.));
#338=DIRECTION('',(0.,0.,-1.));
#339=DIRECTION('',(-1.,0.,0.));
#340=DIRECTION('',(0.,0.,1.));
#341=DIRECTION('',(1.,0.,0.));
#342=DIRECTION('',(0.,0.,-1.));
#343=DIRECTION('',(0.707106781186547,0.,0.707106781186548));
#344=DIRECTION('',(0.707106781186548,0.,-0.707106781186547));
#345=DIRECTION('',(0.707106781186547,0.,0.707106781186548));
#346=DIRECTION('',(0.707106781186548,0.,-0.707106781186547));
#347=DIRECTION('',(-0.707106781186547,0.,-0.707106781186548));
#348=DIRECTION('',(-0.707106781186548,0.,0.707106781186547));
#349=DIRECTION('',(0.707106781186547,0.,0.707106781186548));
#350=DIRECTION('',(0.707106781186548,0.,-0.707106781186547));
#351=DIRECTION('',(0.707106781186547,0.,0.707106781186548));
#352=DIRECTION('',(0.707106781186548,0.,-0.707106781186547));
#353=DIRECTION('',(0.707106781186547,0.,0.707106781186548));
#354=DIRECTION('',(0.707106781186548,0.,-0.707106781186547));
#355=DIRECTION('',(-0.707106781186547,0.,-0.707106781186548));
#356=DIRECTION('',(-0.707106781186548,0.,0.707106781186547));
#357=DIRECTION('',(0.707106781186547,0.,0.707106781186548));
#358=DIRECTION('',(0.707106781186548,0.,-0.707106781186547));
#359=DIRECTION('',(1.,0.,0.));
#360=DIRECTION('',(0.,0.,-1.));
#361=DIRECTION('',(1.,0.,0.));
#362=DIRECTION('',(0.,0.,-1.));
#363=DIRECTION('',(0.707106781186547,0.,0.707106781186548));
#364=DIRECTION('',(0.707106781186548,0.,-0.707106781186547));
#365=DIRECTION('',(0.707106781186547,0.,0.707106781186548));
#366=DIRECTION('',(0.707106781186548,0.,-0.707106781186547));
#367=DIRECTION('',(0.707106781186547,0.,0.707106781186548));
#368=DIRECTION('',(0.707106781186548,0.,-0.707106781186547));
#369=CARTESIAN_POINT('',(0.,0.,0.));
#370=CARTESIAN_POINT('',(678.,0.,0.));
#371=CARTESIAN_POINT('',(677.5,0.,0.));
#372=CARTESIAN_POINT('',(677.5,0.,-99.1));
#373=CARTESIAN_POINT('',(206.,0.,0.));
#374=CARTESIAN_POINT('',(206.,-99.1,-2.21183347953231E-14));
#375=CARTESIAN_POINT('',(206.,99.1,0.));
#376=CARTESIAN_POINT('',(206.,0.,0.));
#377=CARTESIAN_POINT('',(0.500000000000167,0.,0.));
#378=CARTESIAN_POINT('',(0.500000000000167,0.,-99.1));
#379=CARTESIAN_POINT('',(678.,0.,0.));
#380=CARTESIAN_POINT('',(547.791845493562,0.,0.));
#381=CARTESIAN_POINT('',(547.791845493562,0.,-120.708154506438));
#382=CARTESIAN_POINT('',(206.,0.,0.));
#383=CARTESIAN_POINT('',(206.,120.708154506438,-1.63699668695904E-14));
#384=CARTESIAN_POINT('',(206.,-120.708154506438,0.));
#385=CARTESIAN_POINT('',(206.,0.,0.));
#386=CARTESIAN_POINT('',(130.208154506438,0.,0.));
#387=CARTESIAN_POINT('',(130.208154506438,0.,-120.708154506438));
#388=CARTESIAN_POINT('',(0.,0.,0.));
#389=CARTESIAN_POINT('',(0.,0.,0.));
#390=CARTESIAN_POINT('',(0.,0.,-112.));
#391=CARTESIAN_POINT('',(1.11022302462516E-13,0.,0.));
#392=CARTESIAN_POINT('',(1.11022302462516E-13,0.,-99.6));
#393=CARTESIAN_POINT('',(0.500000000000005,0.,0.));
#394=CARTESIAN_POINT('',(0.499999999999945,0.,0.));
#395=CARTESIAN_POINT('',(0.499999999999945,0.,-112.5));
#396=CARTESIAN_POINT('',(678.,0.,0.));
#397=CARTESIAN_POINT('',(122.,0.,0.));
#398=CARTESIAN_POINT('',(122.,0.,-112.5));
#399=CARTESIAN_POINT('',(122.,0.,0.));
#400=CARTESIAN_POINT('',(547.791845493562,0.,0.));
#401=CARTESIAN_POINT('',(556.,0.,0.));
#402=CARTESIAN_POINT('',(556.,0.,-112.5));
#403=CARTESIAN_POINT('',(678.,0.,0.));
#404=CARTESIAN_POINT('',(677.5,0.,0.));
#405=CARTESIAN_POINT('',(677.5,0.,-112.5));
#406=CARTESIAN_POINT('',(677.5,0.,0.));
#407=CARTESIAN_POINT('',(678.,0.,0.));
#408=CARTESIAN_POINT('',(678.,0.,-112.));
#409=CARTESIAN_POINT('',(678.,0.,112.));
#410=CARTESIAN_POINT('',(678.,0.,0.));
#411=CARTESIAN_POINT('',(678.,0.,-99.6));
#412=CARTESIAN_POINT('',(541.168614282424,0.,335.168614282424));
#413=CARTESIAN_POINT('',(449.097545265136,0.,243.097545265136));
#414=CARTESIAN_POINT('',(534.451099861151,0.,157.74399066912));
#415=CARTESIAN_POINT('',(449.097545265136,0.,243.097545265136));
#416=CARTESIAN_POINT('',(454.901586977665,0.,248.901586977665));
#417=CARTESIAN_POINT('',(534.451099861151,0.,169.352074094178));
#418=CARTESIAN_POINT('',(541.168614282424,0.,335.168614282424));
#419=CARTESIAN_POINT('',(541.168614282424,0.,335.168614282424));
#420=CARTESIAN_POINT('',(620.71812716591,0.,255.619101398937));
#421=CARTESIAN_POINT('',(461.619101398937,0.,414.71812716591));
#422=CARTESIAN_POINT('',(541.168614282424,0.,335.168614282424));
#423=CARTESIAN_POINT('',(611.596449688604,0.,264.740778876243));
#424=CARTESIAN_POINT('',(0.500000000000118,0.,0.));
#425=CARTESIAN_POINT('',(677.5,0.,0.));
#426=CARTESIAN_POINT('',(541.168614282424,0.,335.168614282424));
#427=CARTESIAN_POINT('',(540.81506089183,0.,334.81506089183));
#428=CARTESIAN_POINT('',(610.889342907417,0.,264.740778876243));
#429=CARTESIAN_POINT('',(540.81506089183,0.,334.81506089183));
#430=MECHANICAL_DESIGN_GEOMETRIC_PRESENTATION_REPRESENTATION('',(#238),
#431);
#431=(
GEOMETRIC_REPRESENTATION_CONTEXT(3)
GLOBAL_UNCERTAINTY_ASSIGNED_CONTEXT((#432))
GLOBAL_UNIT_ASSIGNED_CONTEXT((#435,#434,#433))
REPRESENTATION_CONTEXT('11036022517(architecture400)',
'TOP_LEVEL_ASSEMBLY_PART')
);
#432=UNCERTAINTY_MEASURE_WITH_UNIT(LENGTH_MEASURE(0.005),#435,
'DISTANCE_ACCURACY_VALUE','Maximum Tolerance applied to model');
#433=(
NAMED_UNIT(*)
SI_UNIT($,.STERADIAN.)
SOLID_ANGLE_UNIT()
);
#434=(
NAMED_UNIT(*)
PLANE_ANGLE_UNIT()
SI_UNIT($,.RADIAN.)
);
#435=(
LENGTH_UNIT()
NAMED_UNIT(*)
SI_UNIT(.MILLI.,.METRE.)
);
#436=PRODUCT_DEFINITION_SHAPE('','',#437);
#437=PRODUCT_DEFINITION('','',#439,#438);
#438=DESIGN_CONTEXT('',#445,'design');
#439=PRODUCT_DEFINITION_FORMATION_WITH_SPECIFIED_SOURCE('','',#441,
 .NOT_KNOWN.);
#440=PRODUCT_RELATED_PRODUCT_CATEGORY('','',(#441));
#441=PRODUCT('11036022517(architecture400)',
'11036022517(architecture400)','11036022517(architecture400)',(#443));
#442=PRODUCT_CATEGORY('','');
#443=MECHANICAL_CONTEXT('',#445,'mechanical');
#444=APPLICATION_PROTOCOL_DEFINITION('international standard',
'config_control_design',2010,#445);
#445=APPLICATION_CONTEXT(
'configuration controlled 3D designs of mechanical parts and assemblie
s');
ENDSEC;
END-ISO-10303-21;
