ISO-10303-21;
HEADER;
FILE_DESCRIPTION( ( '' ), '1' );
FILE_NAME( '//se01002/users/anro/AGRU_70712020017_PE_100-RC_schwarz_Rohr_12m_200X11_9__SDR17__ISO_S-8_05.stp', '2017-12-12T08:11:23', ( '' ), ( '' ), ' ', ' ', ' ' );
FILE_SCHEMA( ( 'automotive_design' ) );
ENDSEC;
DATA;
#1 = MECHANICAL_DESIGN_GEOMETRIC_PRESENTATION_REPRESENTATION( ' ', ( #10, #11, #12, #13, #14, #15, #16, #17, #18, #19, #20, #21, #22, #23, #24, #25, #26, #27, #28, #29, #30, #31, #32, #33, #34, #35, #36 ), #6 );
#2 = PRODUCT_DEFINITION_CONTEXT( '', #37, 'design' );
#3 = APPLICATION_PROTOCOL_DEFINITION( 'INTERNATIONAL STANDARD', 'automotive_design', 1994, #37 );
#4 = PRODUCT_CATEGORY_RELATIONSHIP( 'NONE', 'NONE', #38, #39 );
#5 = SHAPE_DEFINITION_REPRESENTATION( #40, #41 );
#6 =  ( GEOMETRIC_REPRESENTATION_CONTEXT( 3 )GLOBAL_UNCERTAINTY_ASSIGNED_CONTEXT( ( #44 ) )GLOBAL_UNIT_ASSIGNED_CONTEXT( ( #46, #47, #48 ) )REPRESENTATION_CONTEXT( 'NONE', 'WORKSPACE' ) );
#10 = STYLED_ITEM( '', ( #50 ), #51 );
#11 = STYLED_ITEM( '', ( #52 ), #53 );
#12 = STYLED_ITEM( '', ( #54 ), #55 );
#13 = STYLED_ITEM( '', ( #56 ), #57 );
#14 = STYLED_ITEM( '', ( #58 ), #59 );
#15 = STYLED_ITEM( '', ( #60 ), #61 );
#16 = STYLED_ITEM( '', ( #62 ), #63 );
#17 = STYLED_ITEM( '', ( #64 ), #65 );
#18 = STYLED_ITEM( '', ( #66 ), #67 );
#19 = STYLED_ITEM( '', ( #68 ), #69 );
#20 = STYLED_ITEM( '', ( #70 ), #71 );
#21 = STYLED_ITEM( '', ( #72 ), #73 );
#22 = STYLED_ITEM( '', ( #74 ), #75 );
#23 = STYLED_ITEM( '', ( #76 ), #77 );
#24 = STYLED_ITEM( '', ( #78 ), #79 );
#25 = STYLED_ITEM( '', ( #80 ), #81 );
#26 = STYLED_ITEM( '', ( #82 ), #83 );
#27 = STYLED_ITEM( '', ( #84 ), #85 );
#28 = STYLED_ITEM( '', ( #86 ), #87 );
#29 = STYLED_ITEM( '', ( #88 ), #89 );
#30 = STYLED_ITEM( '', ( #90 ), #91 );
#31 = STYLED_ITEM( '', ( #92 ), #93 );
#32 = STYLED_ITEM( '', ( #94 ), #95 );
#33 = STYLED_ITEM( '', ( #96 ), #97 );
#34 = STYLED_ITEM( '', ( #98 ), #99 );
#35 = STYLED_ITEM( '', ( #100 ), #101 );
#36 = STYLED_ITEM( '', ( #102 ), #103 );
#37 = APPLICATION_CONTEXT( ' ' );
#38 = PRODUCT_CATEGORY( 'part', 'NONE' );
#39 = PRODUCT_RELATED_PRODUCT_CATEGORY( 'detail', ' ', ( #104 ) );
#40 = PRODUCT_DEFINITION_SHAPE( 'NONE', 'NONE', #105 );
#41 = ADVANCED_BREP_SHAPE_REPRESENTATION( '1', ( #83, #106 ), #6 );
#44 = UNCERTAINTY_MEASURE_WITH_UNIT( LENGTH_MEASURE( 1.00000000000000E-006 ), #46, '', '' );
#46 =  ( CONVERSION_BASED_UNIT( 'MILLIMETRE', #109 )LENGTH_UNIT(  )NAMED_UNIT( #112 ) );
#47 =  ( NAMED_UNIT( #114 )PLANE_ANGLE_UNIT(  )SI_UNIT( $, .RADIAN. ) );
#48 =  ( NAMED_UNIT( #114 )SOLID_ANGLE_UNIT(  )SI_UNIT( $, .STERADIAN. ) );
#50 = PRESENTATION_STYLE_ASSIGNMENT( ( #120 ) );
#51 = ADVANCED_FACE( '', ( #121 ), #122, .T. );
#52 = PRESENTATION_STYLE_ASSIGNMENT( ( #123 ) );
#53 = ADVANCED_FACE( '', ( #124, #125 ), #126, .T. );
#54 = PRESENTATION_STYLE_ASSIGNMENT( ( #127 ) );
#55 = ADVANCED_FACE( '', ( #128 ), #129, .T. );
#56 = PRESENTATION_STYLE_ASSIGNMENT( ( #130 ) );
#57 = VERTEX_POINT( '', #131 );
#58 = PRESENTATION_STYLE_ASSIGNMENT( ( #132 ) );
#59 = EDGE_CURVE( '', #79, #57, #133, .T. );
#60 = PRESENTATION_STYLE_ASSIGNMENT( ( #134 ) );
#61 = ADVANCED_FACE( '', ( #135, #136 ), #137, .F. );
#62 = PRESENTATION_STYLE_ASSIGNMENT( ( #138 ) );
#63 = VERTEX_POINT( '', #139 );
#64 = PRESENTATION_STYLE_ASSIGNMENT( ( #140 ) );
#65 = VERTEX_POINT( '', #141 );
#66 = PRESENTATION_STYLE_ASSIGNMENT( ( #142 ) );
#67 = EDGE_CURVE( '', #65, #87, #143, .T. );
#68 = PRESENTATION_STYLE_ASSIGNMENT( ( #144 ) );
#69 = EDGE_CURVE( '', #101, #103, #145, .T. );
#70 = PRESENTATION_STYLE_ASSIGNMENT( ( #146 ) );
#71 = VERTEX_POINT( '', #147 );
#72 = PRESENTATION_STYLE_ASSIGNMENT( ( #148 ) );
#73 = EDGE_CURVE( '', #63, #79, #149, .T. );
#74 = PRESENTATION_STYLE_ASSIGNMENT( ( #150 ) );
#75 = EDGE_CURVE( '', #101, #87, #151, .T. );
#76 = PRESENTATION_STYLE_ASSIGNMENT( ( #152 ) );
#77 = EDGE_CURVE( '', #57, #79, #153, .T. );
#78 = PRESENTATION_STYLE_ASSIGNMENT( ( #154 ) );
#79 = VERTEX_POINT( '', #155 );
#80 = PRESENTATION_STYLE_ASSIGNMENT( ( #156 ) );
#81 = ADVANCED_FACE( '', ( #157 ), #158, .F. );
#82 = PRESENTATION_STYLE_ASSIGNMENT( ( #159 ) );
#83 = MANIFOLD_SOLID_BREP( '1', #160 );
#84 = PRESENTATION_STYLE_ASSIGNMENT( ( #161 ) );
#85 = EDGE_CURVE( '', #87, #65, #162, .T. );
#86 = PRESENTATION_STYLE_ASSIGNMENT( ( #163 ) );
#87 = VERTEX_POINT( '', #164 );
#88 = PRESENTATION_STYLE_ASSIGNMENT( ( #165 ) );
#89 = EDGE_CURVE( '', #63, #71, #166, .T. );
#90 = PRESENTATION_STYLE_ASSIGNMENT( ( #167 ) );
#91 = EDGE_CURVE( '', #103, #101, #168, .T. );
#92 = PRESENTATION_STYLE_ASSIGNMENT( ( #169 ) );
#93 = EDGE_CURVE( '', #65, #103, #170, .T. );
#94 = PRESENTATION_STYLE_ASSIGNMENT( ( #171 ) );
#95 = EDGE_CURVE( '', #71, #63, #172, .T. );
#96 = PRESENTATION_STYLE_ASSIGNMENT( ( #173 ) );
#97 = ADVANCED_FACE( '', ( #174 ), #175, .F. );
#98 = PRESENTATION_STYLE_ASSIGNMENT( ( #176 ) );
#99 = EDGE_CURVE( '', #57, #71, #177, .T. );
#100 = PRESENTATION_STYLE_ASSIGNMENT( ( #178 ) );
#101 = VERTEX_POINT( '', #179 );
#102 = PRESENTATION_STYLE_ASSIGNMENT( ( #180 ) );
#103 = VERTEX_POINT( '', #181 );
#104 = PRODUCT( '1', '1', 'PART-1-DESC', ( #182 ) );
#105 = PRODUCT_DEFINITION( 'NONE', 'NONE', #183, #2 );
#106 = AXIS2_PLACEMENT_3D( '', #184, #185, #186 );
#109 = LENGTH_MEASURE_WITH_UNIT( LENGTH_MEASURE( 1.00000000000000 ), #187 );
#112 = DIMENSIONAL_EXPONENTS( 1.00000000000000, 0.000000000000000, 0.000000000000000, 0.000000000000000, 0.000000000000000, 0.000000000000000, 0.000000000000000 );
#114 = DIMENSIONAL_EXPONENTS( 0.000000000000000, 0.000000000000000, 0.000000000000000, 0.000000000000000, 0.000000000000000, 0.000000000000000, 0.000000000000000 );
#120 = SURFACE_STYLE_USAGE( .BOTH., #188 );
#121 = FACE_OUTER_BOUND( '', #189, .T. );
#122 = CYLINDRICAL_SURFACE( '', #190, 100.000000000000 );
#123 = SURFACE_STYLE_USAGE( .BOTH., #191 );
#124 = FACE_OUTER_BOUND( '', #192, .T. );
#125 = FACE_BOUND( '', #193, .T. );
#126 = PLANE( '', #194 );
#127 = SURFACE_STYLE_USAGE( .BOTH., #195 );
#128 = FACE_OUTER_BOUND( '', #196, .T. );
#129 = CYLINDRICAL_SURFACE( '', #197, 100.000000000000 );
#130 = POINT_STYLE( ' ', #198, POSITIVE_LENGTH_MEASURE( 1.00000000000000E-006 ), #199 );
#131 = CARTESIAN_POINT( '', ( 0.000000000000000, 0.000000000000000, -100.000000000000 ) );
#132 = CURVE_STYLE( '', #200, POSITIVE_LENGTH_MEASURE( 1.00000000000000E-006 ), #201 );
#133 = CIRCLE( '', #202, 100.000000000000 );
#134 = SURFACE_STYLE_USAGE( .BOTH., #203 );
#135 = FACE_OUTER_BOUND( '', #204, .T. );
#136 = FACE_BOUND( '', #205, .T. );
#137 = PLANE( '', #206 );
#138 = POINT_STYLE( ' ', #207, POSITIVE_LENGTH_MEASURE( 1.00000000000000E-006 ), #208 );
#139 = CARTESIAN_POINT( '', ( 5000.00000000000, 1.22460635382238E-014, 100.000000000000 ) );
#140 = POINT_STYLE( ' ', #209, POSITIVE_LENGTH_MEASURE( 1.00000000000000E-006 ), #210 );
#141 = CARTESIAN_POINT( '', ( 5000.00000000000, 1.07887819771751E-014, 88.1000000000000 ) );
#142 = CURVE_STYLE( '', #211, POSITIVE_LENGTH_MEASURE( 1.00000000000000E-006 ), #212 );
#143 = CIRCLE( '', #213, 88.1000000000000 );
#144 = CURVE_STYLE( '', #214, POSITIVE_LENGTH_MEASURE( 1.00000000000000E-006 ), #215 );
#145 = CIRCLE( '', #216, 88.1000000000000 );
#146 = POINT_STYLE( ' ', #217, POSITIVE_LENGTH_MEASURE( 1.00000000000000E-006 ), #218 );
#147 = CARTESIAN_POINT( '', ( 5000.00000000000, 0.000000000000000, -100.000000000000 ) );
#148 = CURVE_STYLE( '', #219, POSITIVE_LENGTH_MEASURE( 1.00000000000000E-006 ), #220 );
#149 = LINE( '', #221, #222 );
#150 = CURVE_STYLE( '', #223, POSITIVE_LENGTH_MEASURE( 1.00000000000000E-006 ), #224 );
#151 = LINE( '', #225, #226 );
#152 = CURVE_STYLE( '', #227, POSITIVE_LENGTH_MEASURE( 1.00000000000000E-006 ), #228 );
#153 = CIRCLE( '', #229, 100.000000000000 );
#154 = POINT_STYLE( ' ', #230, POSITIVE_LENGTH_MEASURE( 1.00000000000000E-006 ), #231 );
#155 = CARTESIAN_POINT( '', ( 0.000000000000000, 1.22460635382238E-014, 100.000000000000 ) );
#156 = SURFACE_STYLE_USAGE( .BOTH., #232 );
#157 = FACE_OUTER_BOUND( '', #233, .T. );
#158 = CYLINDRICAL_SURFACE( '', #234, 88.1000000000000 );
#159 = SURFACE_STYLE_USAGE( .BOTH., #235 );
#160 = CLOSED_SHELL( '', ( #51, #97, #81, #55, #53, #61 ) );
#161 = CURVE_STYLE( '', #236, POSITIVE_LENGTH_MEASURE( 1.00000000000000E-006 ), #237 );
#162 = CIRCLE( '', #238, 88.1000000000000 );
#163 = POINT_STYLE( ' ', #239, POSITIVE_LENGTH_MEASURE( 1.00000000000000E-006 ), #240 );
#164 = CARTESIAN_POINT( '', ( 5000.00000000000, 0.000000000000000, -88.1000000000000 ) );
#165 = CURVE_STYLE( '', #241, POSITIVE_LENGTH_MEASURE( 1.00000000000000E-006 ), #242 );
#166 = CIRCLE( '', #243, 100.000000000000 );
#167 = CURVE_STYLE( '', #244, POSITIVE_LENGTH_MEASURE( 1.00000000000000E-006 ), #245 );
#168 = CIRCLE( '', #246, 88.1000000000000 );
#169 = CURVE_STYLE( '', #247, POSITIVE_LENGTH_MEASURE( 1.00000000000000E-006 ), #248 );
#170 = LINE( '', #249, #250 );
#171 = CURVE_STYLE( '', #251, POSITIVE_LENGTH_MEASURE( 1.00000000000000E-006 ), #252 );
#172 = CIRCLE( '', #253, 100.000000000000 );
#173 = SURFACE_STYLE_USAGE( .BOTH., #254 );
#174 = FACE_OUTER_BOUND( '', #255, .T. );
#175 = CYLINDRICAL_SURFACE( '', #256, 88.1000000000000 );
#176 = CURVE_STYLE( '', #257, POSITIVE_LENGTH_MEASURE( 1.00000000000000E-006 ), #258 );
#177 = LINE( '', #259, #260 );
#178 = POINT_STYLE( ' ', #261, POSITIVE_LENGTH_MEASURE( 1.00000000000000E-006 ), #262 );
#179 = CARTESIAN_POINT( '', ( 0.000000000000000, 0.000000000000000, -88.1000000000000 ) );
#180 = POINT_STYLE( ' ', #263, POSITIVE_LENGTH_MEASURE( 1.00000000000000E-006 ), #264 );
#181 = CARTESIAN_POINT( '', ( 0.000000000000000, 1.07887819771751E-014, 88.1000000000000 ) );
#182 = PRODUCT_CONTEXT( '', #37, 'mechanical' );
#183 = PRODUCT_DEFINITION_FORMATION_WITH_SPECIFIED_SOURCE( ' ', 'NONE', #104, .NOT_KNOWN. );
#184 = CARTESIAN_POINT( '', ( 0.000000000000000, 0.000000000000000, 0.000000000000000 ) );
#185 = DIRECTION( '', ( 0.000000000000000, 0.000000000000000, 1.00000000000000 ) );
#186 = DIRECTION( '', ( 1.00000000000000, 0.000000000000000, 0.000000000000000 ) );
#187 =  ( NAMED_UNIT( #112 )LENGTH_UNIT(  )SI_UNIT( .MILLI., .METRE. ) );
#188 = SURFACE_SIDE_STYLE( '', ( #266 ) );
#189 = EDGE_LOOP( '', ( #267, #268, #269, #270 ) );
#190 = AXIS2_PLACEMENT_3D( '', #271, #272, #273 );
#191 = SURFACE_SIDE_STYLE( '', ( #274 ) );
#192 = EDGE_LOOP( '', ( #275, #276 ) );
#193 = EDGE_LOOP( '', ( #277, #278 ) );
#194 = AXIS2_PLACEMENT_3D( '', #279, #280, #281 );
#195 = SURFACE_SIDE_STYLE( '', ( #282 ) );
#196 = EDGE_LOOP( '', ( #283, #284, #285, #286 ) );
#197 = AXIS2_PLACEMENT_3D( '', #287, #288, #289 );
#198 = PRE_DEFINED_MARKER( '' );
#199 = COLOUR_RGB( '', 0.689999997615810, 0.689999997615810, 0.689999997615810 );
#200 = DRAUGHTING_PRE_DEFINED_CURVE_FONT( 'continuous' );
#201 = COLOUR_RGB( '', 0.689999997615810, 0.689999997615810, 0.689999997615810 );
#202 = AXIS2_PLACEMENT_3D( '', #290, #291, #292 );
#203 = SURFACE_SIDE_STYLE( '', ( #293 ) );
#204 = EDGE_LOOP( '', ( #294, #295 ) );
#205 = EDGE_LOOP( '', ( #296, #297 ) );
#206 = AXIS2_PLACEMENT_3D( '', #298, #299, #300 );
#207 = PRE_DEFINED_MARKER( '' );
#208 = COLOUR_RGB( '', 0.689999997615810, 0.689999997615810, 0.689999997615810 );
#209 = PRE_DEFINED_MARKER( '' );
#210 = COLOUR_RGB( '', 0.689999997615810, 0.689999997615810, 0.689999997615810 );
#211 = DRAUGHTING_PRE_DEFINED_CURVE_FONT( 'continuous' );
#212 = COLOUR_RGB( '', 0.689999997615810, 0.689999997615810, 0.689999997615810 );
#213 = AXIS2_PLACEMENT_3D( '', #301, #302, #303 );
#214 = DRAUGHTING_PRE_DEFINED_CURVE_FONT( 'continuous' );
#215 = COLOUR_RGB( '', 0.689999997615810, 0.689999997615810, 0.689999997615810 );
#216 = AXIS2_PLACEMENT_3D( '', #304, #305, #306 );
#217 = PRE_DEFINED_MARKER( '' );
#218 = COLOUR_RGB( '', 0.689999997615810, 0.689999997615810, 0.689999997615810 );
#219 = DRAUGHTING_PRE_DEFINED_CURVE_FONT( 'continuous' );
#220 = COLOUR_RGB( '', 0.689999997615810, 0.689999997615810, 0.689999997615810 );
#221 = CARTESIAN_POINT( '', ( 0.000000000000000, 1.22460635382238E-014, 100.000000000000 ) );
#222 = VECTOR( '', #307, 1.00000000000000 );
#223 = DRAUGHTING_PRE_DEFINED_CURVE_FONT( 'continuous' );
#224 = COLOUR_RGB( '', 0.689999997615810, 0.689999997615810, 0.689999997615810 );
#225 = CARTESIAN_POINT( '', ( 0.000000000000000, -1.07887819771751E-014, -88.1000000000000 ) );
#226 = VECTOR( '', #308, 1.00000000000000 );
#227 = DRAUGHTING_PRE_DEFINED_CURVE_FONT( 'continuous' );
#228 = COLOUR_RGB( '', 0.689999997615810, 0.689999997615810, 0.689999997615810 );
#229 = AXIS2_PLACEMENT_3D( '', #309, #310, #311 );
#230 = PRE_DEFINED_MARKER( '' );
#231 = COLOUR_RGB( '', 0.689999997615810, 0.689999997615810, 0.689999997615810 );
#232 = SURFACE_SIDE_STYLE( '', ( #312 ) );
#233 = EDGE_LOOP( '', ( #313, #314, #315, #316 ) );
#234 = AXIS2_PLACEMENT_3D( '', #317, #318, #319 );
#235 = SURFACE_SIDE_STYLE( '', ( #320 ) );
#236 = DRAUGHTING_PRE_DEFINED_CURVE_FONT( 'continuous' );
#237 = COLOUR_RGB( '', 0.689999997615810, 0.689999997615810, 0.689999997615810 );
#238 = AXIS2_PLACEMENT_3D( '', #321, #322, #323 );
#239 = PRE_DEFINED_MARKER( '' );
#240 = COLOUR_RGB( '', 0.689999997615810, 0.689999997615810, 0.689999997615810 );
#241 = DRAUGHTING_PRE_DEFINED_CURVE_FONT( 'continuous' );
#242 = COLOUR_RGB( '', 0.689999997615810, 0.689999997615810, 0.689999997615810 );
#243 = AXIS2_PLACEMENT_3D( '', #324, #325, #326 );
#244 = DRAUGHTING_PRE_DEFINED_CURVE_FONT( 'continuous' );
#245 = COLOUR_RGB( '', 0.689999997615810, 0.689999997615810, 0.689999997615810 );
#246 = AXIS2_PLACEMENT_3D( '', #327, #328, #329 );
#247 = DRAUGHTING_PRE_DEFINED_CURVE_FONT( 'continuous' );
#248 = COLOUR_RGB( '', 0.689999997615810, 0.689999997615810, 0.689999997615810 );
#249 = CARTESIAN_POINT( '', ( 0.000000000000000, 1.07887819771751E-014, 88.1000000000000 ) );
#250 = VECTOR( '', #330, 1.00000000000000 );
#251 = DRAUGHTING_PRE_DEFINED_CURVE_FONT( 'continuous' );
#252 = COLOUR_RGB( '', 0.689999997615810, 0.689999997615810, 0.689999997615810 );
#253 = AXIS2_PLACEMENT_3D( '', #331, #332, #333 );
#254 = SURFACE_SIDE_STYLE( '', ( #334 ) );
#255 = EDGE_LOOP( '', ( #335, #336, #337, #338 ) );
#256 = AXIS2_PLACEMENT_3D( '', #339, #340, #341 );
#257 = DRAUGHTING_PRE_DEFINED_CURVE_FONT( 'continuous' );
#258 = COLOUR_RGB( '', 0.689999997615810, 0.689999997615810, 0.689999997615810 );
#259 = CARTESIAN_POINT( '', ( 0.000000000000000, -1.22460635382238E-014, -100.000000000000 ) );
#260 = VECTOR( '', #342, 1.00000000000000 );
#261 = PRE_DEFINED_MARKER( '' );
#262 = COLOUR_RGB( '', 0.689999997615810, 0.689999997615810, 0.689999997615810 );
#263 = PRE_DEFINED_MARKER( '' );
#264 = COLOUR_RGB( '', 0.689999997615810, 0.689999997615810, 0.689999997615810 );
#266 = SURFACE_STYLE_FILL_AREA( #343 );
#267 = ORIENTED_EDGE( '', *, *, #99, .F. );
#268 = ORIENTED_EDGE( '', *, *, #77, .T. );
#269 = ORIENTED_EDGE( '', *, *, #73, .F. );
#270 = ORIENTED_EDGE( '', *, *, #89, .T. );
#271 = CARTESIAN_POINT( '', ( 0.000000000000000, 0.000000000000000, 0.000000000000000 ) );
#272 = DIRECTION( '', ( -1.00000000000000, -0.000000000000000, -0.000000000000000 ) );
#273 = DIRECTION( '', ( 0.000000000000000, 0.000000000000000, -1.00000000000000 ) );
#274 = SURFACE_STYLE_FILL_AREA( #344 );
#275 = ORIENTED_EDGE( '', *, *, #95, .F. );
#276 = ORIENTED_EDGE( '', *, *, #89, .F. );
#277 = ORIENTED_EDGE( '', *, *, #85, .F. );
#278 = ORIENTED_EDGE( '', *, *, #67, .F. );
#279 = CARTESIAN_POINT( '', ( 5000.00000000000, 0.000000000000000, 0.000000000000000 ) );
#280 = DIRECTION( '', ( 1.00000000000000, 0.000000000000000, 0.000000000000000 ) );
#281 = DIRECTION( '', ( 0.000000000000000, 0.000000000000000, -1.00000000000000 ) );
#282 = SURFACE_STYLE_FILL_AREA( #345 );
#283 = ORIENTED_EDGE( '', *, *, #99, .T. );
#284 = ORIENTED_EDGE( '', *, *, #95, .T. );
#285 = ORIENTED_EDGE( '', *, *, #73, .T. );
#286 = ORIENTED_EDGE( '', *, *, #59, .T. );
#287 = CARTESIAN_POINT( '', ( 0.000000000000000, 0.000000000000000, 0.000000000000000 ) );
#288 = DIRECTION( '', ( -1.00000000000000, -0.000000000000000, -0.000000000000000 ) );
#289 = DIRECTION( '', ( 0.000000000000000, 0.000000000000000, -1.00000000000000 ) );
#290 = CARTESIAN_POINT( '', ( 0.000000000000000, 0.000000000000000, 0.000000000000000 ) );
#291 = DIRECTION( '', ( 1.00000000000000, -0.000000000000000, 0.000000000000000 ) );
#292 = DIRECTION( '', ( 0.000000000000000, 0.000000000000000, -1.00000000000000 ) );
#293 = SURFACE_STYLE_FILL_AREA( #346 );
#294 = ORIENTED_EDGE( '', *, *, #77, .F. );
#295 = ORIENTED_EDGE( '', *, *, #59, .F. );
#296 = ORIENTED_EDGE( '', *, *, #69, .T. );
#297 = ORIENTED_EDGE( '', *, *, #91, .T. );
#298 = CARTESIAN_POINT( '', ( 0.000000000000000, 0.000000000000000, 0.000000000000000 ) );
#299 = DIRECTION( '', ( 1.00000000000000, 0.000000000000000, 0.000000000000000 ) );
#300 = DIRECTION( '', ( 0.000000000000000, 0.000000000000000, -1.00000000000000 ) );
#301 = CARTESIAN_POINT( '', ( 5000.00000000000, 0.000000000000000, 0.000000000000000 ) );
#302 = DIRECTION( '', ( 1.00000000000000, 0.000000000000000, 0.000000000000000 ) );
#303 = DIRECTION( '', ( 0.000000000000000, 0.000000000000000, -1.00000000000000 ) );
#304 = CARTESIAN_POINT( '', ( 0.000000000000000, 0.000000000000000, 0.000000000000000 ) );
#305 = DIRECTION( '', ( 1.00000000000000, -0.000000000000000, 0.000000000000000 ) );
#306 = DIRECTION( '', ( 0.000000000000000, 0.000000000000000, -1.00000000000000 ) );
#307 = DIRECTION( '', ( -1.00000000000000, -0.000000000000000, -0.000000000000000 ) );
#308 = DIRECTION( '', ( 1.00000000000000, 0.000000000000000, 0.000000000000000 ) );
#309 = CARTESIAN_POINT( '', ( 0.000000000000000, 0.000000000000000, 0.000000000000000 ) );
#310 = DIRECTION( '', ( 1.00000000000000, -0.000000000000000, 0.000000000000000 ) );
#311 = DIRECTION( '', ( 0.000000000000000, 0.000000000000000, -1.00000000000000 ) );
#312 = SURFACE_STYLE_FILL_AREA( #347 );
#313 = ORIENTED_EDGE( '', *, *, #75, .T. );
#314 = ORIENTED_EDGE( '', *, *, #85, .T. );
#315 = ORIENTED_EDGE( '', *, *, #93, .T. );
#316 = ORIENTED_EDGE( '', *, *, #69, .F. );
#317 = CARTESIAN_POINT( '', ( 0.000000000000000, 0.000000000000000, 0.000000000000000 ) );
#318 = DIRECTION( '', ( -1.00000000000000, -0.000000000000000, -0.000000000000000 ) );
#319 = DIRECTION( '', ( 0.000000000000000, 0.000000000000000, -1.00000000000000 ) );
#320 = SURFACE_STYLE_FILL_AREA( #348 );
#321 = CARTESIAN_POINT( '', ( 5000.00000000000, 0.000000000000000, 0.000000000000000 ) );
#322 = DIRECTION( '', ( 1.00000000000000, 0.000000000000000, 0.000000000000000 ) );
#323 = DIRECTION( '', ( 0.000000000000000, 0.000000000000000, -1.00000000000000 ) );
#324 = CARTESIAN_POINT( '', ( 5000.00000000000, 0.000000000000000, 0.000000000000000 ) );
#325 = DIRECTION( '', ( -1.00000000000000, 0.000000000000000, 0.000000000000000 ) );
#326 = DIRECTION( '', ( 0.000000000000000, 0.000000000000000, -1.00000000000000 ) );
#327 = CARTESIAN_POINT( '', ( 0.000000000000000, 0.000000000000000, 0.000000000000000 ) );
#328 = DIRECTION( '', ( 1.00000000000000, -0.000000000000000, 0.000000000000000 ) );
#329 = DIRECTION( '', ( 0.000000000000000, 0.000000000000000, -1.00000000000000 ) );
#330 = DIRECTION( '', ( -1.00000000000000, 0.000000000000000, 0.000000000000000 ) );
#331 = CARTESIAN_POINT( '', ( 5000.00000000000, 0.000000000000000, 0.000000000000000 ) );
#332 = DIRECTION( '', ( -1.00000000000000, 0.000000000000000, 0.000000000000000 ) );
#333 = DIRECTION( '', ( 0.000000000000000, 0.000000000000000, -1.00000000000000 ) );
#334 = SURFACE_STYLE_FILL_AREA( #349 );
#335 = ORIENTED_EDGE( '', *, *, #75, .F. );
#336 = ORIENTED_EDGE( '', *, *, #91, .F. );
#337 = ORIENTED_EDGE( '', *, *, #93, .F. );
#338 = ORIENTED_EDGE( '', *, *, #67, .T. );
#339 = CARTESIAN_POINT( '', ( 0.000000000000000, 0.000000000000000, 0.000000000000000 ) );
#340 = DIRECTION( '', ( -1.00000000000000, -0.000000000000000, -0.000000000000000 ) );
#341 = DIRECTION( '', ( 0.000000000000000, 0.000000000000000, -1.00000000000000 ) );
#342 = DIRECTION( '', ( 1.00000000000000, 0.000000000000000, 0.000000000000000 ) );
#343 = FILL_AREA_STYLE( '', ( #350 ) );
#344 = FILL_AREA_STYLE( '', ( #351 ) );
#345 = FILL_AREA_STYLE( '', ( #352 ) );
#346 = FILL_AREA_STYLE( '', ( #353 ) );
#347 = FILL_AREA_STYLE( '', ( #354 ) );
#348 = FILL_AREA_STYLE( '', ( #355 ) );
#349 = FILL_AREA_STYLE( '', ( #356 ) );
#350 = FILL_AREA_STYLE_COLOUR( '', #357 );
#351 = FILL_AREA_STYLE_COLOUR( '', #358 );
#352 = FILL_AREA_STYLE_COLOUR( '', #359 );
#353 = FILL_AREA_STYLE_COLOUR( '', #360 );
#354 = FILL_AREA_STYLE_COLOUR( '', #361 );
#355 = FILL_AREA_STYLE_COLOUR( '', #362 );
#356 = FILL_AREA_STYLE_COLOUR( '', #363 );
#357 = COLOUR_RGB( '', 0.689999997615810, 0.689999997615810, 0.689999997615810 );
#358 = COLOUR_RGB( '', 0.689999997615810, 0.689999997615810, 0.689999997615810 );
#359 = COLOUR_RGB( '', 0.689999997615810, 0.689999997615810, 0.689999997615810 );
#360 = COLOUR_RGB( '', 0.689999997615810, 0.689999997615810, 0.689999997615810 );
#361 = COLOUR_RGB( '', 0.689999997615810, 0.689999997615810, 0.689999997615810 );
#362 = COLOUR_RGB( '', 0.689999997615810, 0.689999997615810, 0.689999997615810 );
#363 = COLOUR_RGB( '', 0.689999997615810, 0.689999997615810, 0.689999997615810 );
ENDSEC;
END-ISO-10303-21;
