ISO-10303-21;
HEADER;
/* Generated by software containing ST-Developer
 * from STEP Tools, Inc. (www.steptools.com) 
 */

FILE_DESCRIPTION(
/* description */ (''),
/* implementation_level */ '2;1');

FILE_NAME(
/* name */ 
'Q:\\Ric010\\FF7\\FIPlastiCAD\\FIP\\Lavoro\\PVC Fittings\\PVC Fittings
 STEP\\TRIV\\TRIV040032.ipt.stp',
/* time_stamp */ '2013-10-01T14:56:25+02:00',
/* author */ ('bfaro'),
/* organization */ (''),
/* preprocessor_version */ 'ST-DEVELOPER v15.2',
/* originating_system */ 'Autodesk Inventor 2014',
/* authorisation */ '');

FILE_SCHEMA (('AUTOMOTIVE_DESIGN { 1 0 10303 214 3 1 1 }'));
ENDSEC;

DATA;
#10=SHAPE_REPRESENTATION_RELATIONSHIP('SRR','None',#451,#11);
#11=ADVANCED_BREP_SHAPE_REPRESENTATION($,(#181),#442);
#12=STYLED_ITEM($,(#459),#181);
#13=PLANE($,#202);
#14=PLANE($,#203);
#15=PLANE($,#204);
#16=PLANE($,#205);
#17=PLANE($,#206);
#18=PLANE($,#207);
#19=FACE_BOUND($,#60,.T.);
#20=FACE_BOUND($,#61,.T.);
#21=FACE_BOUND($,#62,.T.);
#22=FACE_BOUND($,#63,.T.);
#23=FACE_BOUND($,#65,.T.);
#24=FACE_BOUND($,#66,.T.);
#25=FACE_BOUND($,#67,.T.);
#26=FACE_BOUND($,#68,.T.);
#27=FACE_BOUND($,#70,.T.);
#28=FACE_BOUND($,#72,.T.);
#29=FACE_BOUND($,#74,.T.);
#30=FACE_BOUND($,#76,.T.);
#31=FACE_BOUND($,#77,.T.);
#32=FACE_BOUND($,#78,.T.);
#33=FACE_BOUND($,#80,.T.);
#34=FACE_BOUND($,#82,.T.);
#35=FACE_BOUND($,#83,.T.);
#36=FACE_BOUND($,#84,.T.);
#37=FACE_BOUND($,#85,.T.);
#38=FACE_BOUND($,#86,.T.);
#39=CIRCLE($,#184,15.5);
#40=CIRCLE($,#186,19.);
#41=CIRCLE($,#187,19.);
#42=CIRCLE($,#189,20.);
#43=CIRCLE($,#190,20.);
#44=CIRCLE($,#192,25.);
#45=CIRCLE($,#193,25.);
#46=CIRCLE($,#195,21.);
#47=CIRCLE($,#197,20.);
#48=CIRCLE($,#198,20.);
#49=CIRCLE($,#200,16.);
#50=CIRCLE($,#201,16.);
#51=FACE_OUTER_BOUND($,#59,.T.);
#52=FACE_OUTER_BOUND($,#64,.T.);
#53=FACE_OUTER_BOUND($,#69,.T.);
#54=FACE_OUTER_BOUND($,#71,.T.);
#55=FACE_OUTER_BOUND($,#73,.T.);
#56=FACE_OUTER_BOUND($,#75,.T.);
#57=FACE_OUTER_BOUND($,#79,.T.);
#58=FACE_OUTER_BOUND($,#81,.T.);
#59=EDGE_LOOP($,(#126));
#60=EDGE_LOOP($,(#127));
#61=EDGE_LOOP($,(#128));
#62=EDGE_LOOP($,(#129));
#63=EDGE_LOOP($,(#130));
#64=EDGE_LOOP($,(#131));
#65=EDGE_LOOP($,(#132));
#66=EDGE_LOOP($,(#133,#134,#135,#136));
#67=EDGE_LOOP($,(#137));
#68=EDGE_LOOP($,(#138));
#69=EDGE_LOOP($,(#139,#140,#141,#142));
#70=EDGE_LOOP($,(#143));
#71=EDGE_LOOP($,(#144));
#72=EDGE_LOOP($,(#145));
#73=EDGE_LOOP($,(#146));
#74=EDGE_LOOP($,(#147));
#75=EDGE_LOOP($,(#148));
#76=EDGE_LOOP($,(#149));
#77=EDGE_LOOP($,(#150));
#78=EDGE_LOOP($,(#151));
#79=EDGE_LOOP($,(#152));
#80=EDGE_LOOP($,(#153));
#81=EDGE_LOOP($,(#154));
#82=EDGE_LOOP($,(#155));
#83=EDGE_LOOP($,(#156));
#84=EDGE_LOOP($,(#157));
#85=EDGE_LOOP($,(#158));
#86=EDGE_LOOP($,(#159));
#87=B_SPLINE_CURVE_WITH_KNOTS($,3,(#263,#264,#265,#266,#267,#268,#269,#270,
#271,#272,#273,#274,#275,#276,#277,#278,#279,#280,#281,#282,#283,#284,#285,
#286,#287,#288,#289,#290,#291,#292,#293,#294,#295,#296,#297,#298,#299,#300,
#301,#302,#303,#304,#305,#306,#307,#308,#309,#310,#311,#312,#313,#314,#315,
#316,#317,#318,#319,#320,#321,#322,#323,#324,#325,#326,#327,#328),
 .UNSPECIFIED.,.T.,.F.,(4,2,2,2,2,2,2,2,2,2,2,2,2,2,2,2,2,2,2,2,2,2,2,2,
2,2,2,2,2,2,2,2,4),(0.,0.320052103809002,0.640104207618005,0.960156311427007,
1.28020841523601,1.58897274313316,1.89773707103031,2.20650139892746,2.51526572682461,
2.82403005472177,3.13279438261892,3.44155871051607,3.75032303841322,4.07037514222222,
4.39042724603122,4.71047934984023,5.03053145364923,5.35058355744896,5.67063566124869,
5.99068776504842,6.31073986884815,6.61950419674328,6.92826852463841,7.23703285253354,
7.54579718042867,7.85456150832568,8.16332583622268,8.47209016411969,8.7808544920167,
9.1009065958145,9.4209586996123,9.7410108034101,10.0610629072079),
 .UNSPECIFIED.);
#88=B_SPLINE_CURVE_WITH_KNOTS($,3,(#344,#345,#346,#347,#348,#349,#350,#351,
#352,#353,#354,#355,#356,#357,#358,#359,#360,#361),.UNSPECIFIED.,.F.,.F.,
(4,2,2,2,2,2,2,2,4),(6.87135913694226,7.31023663654833,7.7491141361544,
8.18799163576047,8.62686913536654,9.04691152786241,9.46695392035827,9.88699631285413,
10.30703870535),.UNSPECIFIED.);
#89=B_SPLINE_CURVE_WITH_KNOTS($,3,(#363,#364,#365,#366,#367,#368,#369,#370,
#371,#372,#373,#374,#375,#376,#377,#378,#379,#380),.UNSPECIFIED.,.F.,.F.,
(4,2,2,2,2,2,2,2,4),(-6.87135913694226,-6.43248163732849,-5.99360413771473,
-5.55472663810096,-5.11584913848719,-4.69580674598318,-4.27576435347916,
-3.85572196097515,-3.43567956847113),.UNSPECIFIED.);
#90=B_SPLINE_CURVE_WITH_KNOTS($,3,(#382,#383,#384,#385,#386,#387,#388,#389,
#390,#391,#392,#393,#394,#395,#396,#397,#398,#399),.UNSPECIFIED.,.F.,.F.,
(4,2,2,2,2,2,2,2,4),(10.3070387052874,10.7270810977914,11.1471234902954,
11.5671658827994,11.9872082753034,12.4260857749172,12.864963274531,13.3038407741447,
13.7427182737585),.UNSPECIFIED.);
#91=B_SPLINE_CURVE_WITH_KNOTS($,3,(#400,#401,#402,#403,#404,#405,#406,#407,
#408,#409,#410,#411,#412,#413,#414,#415,#416,#417),.UNSPECIFIED.,.F.,.F.,
(4,2,2,2,2,2,2,2,4),(-3.43567956840812,-3.01563717591494,-2.59559478342177,
-2.17555239092859,-1.75550999843542,-1.31663249882656,-0.877754999217709,
-0.438877499608854,0.),.UNSPECIFIED.);
#92=VERTEX_POINT($,#262);
#93=VERTEX_POINT($,#329);
#94=VERTEX_POINT($,#332);
#95=VERTEX_POINT($,#334);
#96=VERTEX_POINT($,#337);
#97=VERTEX_POINT($,#339);
#98=VERTEX_POINT($,#342);
#99=VERTEX_POINT($,#343);
#100=VERTEX_POINT($,#362);
#101=VERTEX_POINT($,#381);
#102=VERTEX_POINT($,#418);
#103=VERTEX_POINT($,#420);
#104=VERTEX_POINT($,#423);
#105=VERTEX_POINT($,#426);
#106=VERTEX_POINT($,#428);
#107=VERTEX_POINT($,#431);
#108=VERTEX_POINT($,#433);
#109=EDGE_CURVE($,#92,#92,#87,.T.);
#110=EDGE_CURVE($,#93,#93,#39,.T.);
#111=EDGE_CURVE($,#94,#94,#40,.T.);
#112=EDGE_CURVE($,#95,#95,#41,.T.);
#113=EDGE_CURVE($,#96,#96,#42,.T.);
#114=EDGE_CURVE($,#97,#97,#43,.T.);
#115=EDGE_CURVE($,#98,#99,#88,.T.);
#116=EDGE_CURVE($,#98,#100,#89,.T.);
#117=EDGE_CURVE($,#100,#101,#90,.T.);
#118=EDGE_CURVE($,#99,#101,#91,.T.);
#119=EDGE_CURVE($,#102,#102,#44,.T.);
#120=EDGE_CURVE($,#103,#103,#45,.T.);
#121=EDGE_CURVE($,#104,#104,#46,.T.);
#122=EDGE_CURVE($,#105,#105,#47,.T.);
#123=EDGE_CURVE($,#106,#106,#48,.T.);
#124=EDGE_CURVE($,#107,#107,#49,.T.);
#125=EDGE_CURVE($,#108,#108,#50,.T.);
#126=ORIENTED_EDGE($,*,*,#109,.F.);
#127=ORIENTED_EDGE($,*,*,#110,.F.);
#128=ORIENTED_EDGE($,*,*,#109,.T.);
#129=ORIENTED_EDGE($,*,*,#111,.F.);
#130=ORIENTED_EDGE($,*,*,#112,.F.);
#131=ORIENTED_EDGE($,*,*,#113,.T.);
#132=ORIENTED_EDGE($,*,*,#114,.F.);
#133=ORIENTED_EDGE($,*,*,#115,.F.);
#134=ORIENTED_EDGE($,*,*,#116,.T.);
#135=ORIENTED_EDGE($,*,*,#117,.T.);
#136=ORIENTED_EDGE($,*,*,#118,.F.);
#137=ORIENTED_EDGE($,*,*,#119,.T.);
#138=ORIENTED_EDGE($,*,*,#120,.F.);
#139=ORIENTED_EDGE($,*,*,#116,.F.);
#140=ORIENTED_EDGE($,*,*,#115,.T.);
#141=ORIENTED_EDGE($,*,*,#118,.T.);
#142=ORIENTED_EDGE($,*,*,#117,.F.);
#143=ORIENTED_EDGE($,*,*,#121,.F.);
#144=ORIENTED_EDGE($,*,*,#122,.T.);
#145=ORIENTED_EDGE($,*,*,#123,.F.);
#146=ORIENTED_EDGE($,*,*,#124,.T.);
#147=ORIENTED_EDGE($,*,*,#125,.F.);
#148=ORIENTED_EDGE($,*,*,#119,.F.);
#149=ORIENTED_EDGE($,*,*,#114,.T.);
#150=ORIENTED_EDGE($,*,*,#111,.T.);
#151=ORIENTED_EDGE($,*,*,#113,.F.);
#152=ORIENTED_EDGE($,*,*,#120,.T.);
#153=ORIENTED_EDGE($,*,*,#122,.F.);
#154=ORIENTED_EDGE($,*,*,#121,.T.);
#155=ORIENTED_EDGE($,*,*,#124,.F.);
#156=ORIENTED_EDGE($,*,*,#112,.T.);
#157=ORIENTED_EDGE($,*,*,#123,.T.);
#158=ORIENTED_EDGE($,*,*,#110,.T.);
#159=ORIENTED_EDGE($,*,*,#125,.T.);
#160=CYLINDRICAL_SURFACE($,#183,15.5);
#161=CYLINDRICAL_SURFACE($,#185,19.);
#162=CYLINDRICAL_SURFACE($,#188,20.);
#163=CYLINDRICAL_SURFACE($,#191,25.);
#164=CYLINDRICAL_SURFACE($,#194,21.);
#165=CYLINDRICAL_SURFACE($,#196,20.);
#166=CYLINDRICAL_SURFACE($,#199,16.);
#167=ADVANCED_FACE($,(#51,#19),#160,.F.);
#168=ADVANCED_FACE($,(#20,#21,#22),#161,.F.);
#169=ADVANCED_FACE($,(#52,#23),#162,.F.);
#170=ADVANCED_FACE($,(#24,#25,#26),#163,.T.);
#171=ADVANCED_FACE($,(#53,#27),#164,.T.);
#172=ADVANCED_FACE($,(#54,#28),#165,.F.);
#173=ADVANCED_FACE($,(#55,#29),#166,.F.);
#174=ADVANCED_FACE($,(#56,#30),#13,.T.);
#175=ADVANCED_FACE($,(#31,#32),#14,.T.);
#176=ADVANCED_FACE($,(#57,#33),#15,.T.);
#177=ADVANCED_FACE($,(#58,#34),#16,.T.);
#178=ADVANCED_FACE($,(#35,#36),#17,.T.);
#179=ADVANCED_FACE($,(#37,#38),#18,.T.);
#180=CLOSED_SHELL($,(#167,#168,#169,#170,#171,#172,#173,#174,#175,#176,
#177,#178,#179));
#181=MANIFOLD_SOLID_BREP('Solido1',#180);
#182=AXIS2_PLACEMENT_3D('placement',#260,#208,#209);
#183=AXIS2_PLACEMENT_3D($,#261,#210,#211);
#184=AXIS2_PLACEMENT_3D($,#330,#212,#213);
#185=AXIS2_PLACEMENT_3D($,#331,#214,#215);
#186=AXIS2_PLACEMENT_3D($,#333,#216,#217);
#187=AXIS2_PLACEMENT_3D($,#335,#218,#219);
#188=AXIS2_PLACEMENT_3D($,#336,#220,#221);
#189=AXIS2_PLACEMENT_3D($,#338,#222,#223);
#190=AXIS2_PLACEMENT_3D($,#340,#224,#225);
#191=AXIS2_PLACEMENT_3D($,#341,#226,#227);
#192=AXIS2_PLACEMENT_3D($,#419,#228,#229);
#193=AXIS2_PLACEMENT_3D($,#421,#230,#231);
#194=AXIS2_PLACEMENT_3D($,#422,#232,#233);
#195=AXIS2_PLACEMENT_3D($,#424,#234,#235);
#196=AXIS2_PLACEMENT_3D($,#425,#236,#237);
#197=AXIS2_PLACEMENT_3D($,#427,#238,#239);
#198=AXIS2_PLACEMENT_3D($,#429,#240,#241);
#199=AXIS2_PLACEMENT_3D($,#430,#242,#243);
#200=AXIS2_PLACEMENT_3D($,#432,#244,#245);
#201=AXIS2_PLACEMENT_3D($,#434,#246,#247);
#202=AXIS2_PLACEMENT_3D($,#435,#248,#249);
#203=AXIS2_PLACEMENT_3D($,#436,#250,#251);
#204=AXIS2_PLACEMENT_3D($,#437,#252,#253);
#205=AXIS2_PLACEMENT_3D($,#438,#254,#255);
#206=AXIS2_PLACEMENT_3D($,#439,#256,#257);
#207=AXIS2_PLACEMENT_3D($,#440,#258,#259);
#208=DIRECTION('axis',(0.,0.,1.));
#209=DIRECTION('refdir',(1.,0.,0.));
#210=DIRECTION('center_axis',(-1.,0.,-4.48966989711767E-011));
#211=DIRECTION('ref_axis',(-4.48966989711767E-011,0.,1.));
#212=DIRECTION('center_axis',(-1.,0.,-4.489664E-011));
#213=DIRECTION('ref_axis',(-4.48966989711767E-011,0.,1.));
#214=DIRECTION('center_axis',(0.,0.,-1.));
#215=DIRECTION('ref_axis',(-1.,0.,0.));
#216=DIRECTION('center_axis',(0.,0.,1.));
#217=DIRECTION('ref_axis',(-1.,0.,0.));
#218=DIRECTION('center_axis',(0.,0.,-1.));
#219=DIRECTION('ref_axis',(-1.,0.,0.));
#220=DIRECTION('center_axis',(0.,0.,1.));
#221=DIRECTION('ref_axis',(1.,0.,0.));
#222=DIRECTION('center_axis',(0.,0.,1.));
#223=DIRECTION('ref_axis',(1.,0.,0.));
#224=DIRECTION('center_axis',(0.,0.,1.));
#225=DIRECTION('ref_axis',(1.,0.,0.));
#226=DIRECTION('center_axis',(0.,0.,1.));
#227=DIRECTION('ref_axis',(1.,0.,0.));
#228=DIRECTION('center_axis',(0.,0.,1.));
#229=DIRECTION('ref_axis',(1.,0.,0.));
#230=DIRECTION('center_axis',(0.,0.,1.));
#231=DIRECTION('ref_axis',(1.,0.,0.));
#232=DIRECTION('center_axis',(1.,0.,4.489664E-011));
#233=DIRECTION('ref_axis',(4.489664E-011,0.,-1.));
#234=DIRECTION('center_axis',(1.,0.,4.489664E-011));
#235=DIRECTION('ref_axis',(4.489664E-011,0.,-1.));
#236=DIRECTION('center_axis',(0.,0.,1.));
#237=DIRECTION('ref_axis',(1.,0.,0.));
#238=DIRECTION('center_axis',(0.,0.,1.));
#239=DIRECTION('ref_axis',(1.,0.,0.));
#240=DIRECTION('center_axis',(0.,0.,1.));
#241=DIRECTION('ref_axis',(1.,0.,0.));
#242=DIRECTION('center_axis',(1.,4.17064193306243E-015,4.48966116809143E-011));
#243=DIRECTION('ref_axis',(4.48965864485729E-011,0.,-1.));
#244=DIRECTION('center_axis',(1.,0.,4.489664E-011));
#245=DIRECTION('ref_axis',(4.489664E-011,0.,-1.));
#246=DIRECTION('center_axis',(1.,0.,4.489664E-011));
#247=DIRECTION('ref_axis',(4.489664E-011,0.,-1.));
#248=DIRECTION('center_axis',(0.,0.,-1.));
#249=DIRECTION('ref_axis',(-1.,0.,0.));
#250=DIRECTION('center_axis',(0.,0.,-1.));
#251=DIRECTION('ref_axis',(-1.,0.,0.));
#252=DIRECTION('center_axis',(0.,0.,1.));
#253=DIRECTION('ref_axis',(1.,0.,0.));
#254=DIRECTION('center_axis',(1.,0.,4.489664E-011));
#255=DIRECTION('ref_axis',(4.48963533017377E-011,0.,-1.));
#256=DIRECTION('center_axis',(0.,0.,1.));
#257=DIRECTION('ref_axis',(1.,0.,0.));
#258=DIRECTION('center_axis',(1.,0.,4.489664E-011));
#259=DIRECTION('ref_axis',(4.48967085731056E-011,0.,-1.));
#260=CARTESIAN_POINT('',(0.,0.,0.));
#261=CARTESIAN_POINT('Origin',(22.,0.,48.000000000988));
#262=CARTESIAN_POINT('',(10.988630487918,15.5,48.0000000004936));
#263=CARTESIAN_POINT('Ctrl Pts',(10.988630487918,15.5,48.0000000004936));
#264=CARTESIAN_POINT('Ctrl Pts',(10.988630487918,15.5,49.0668403465236));
#265=CARTESIAN_POINT('Ctrl Pts',(11.1483038850182,15.3895232708518,50.1192757910625));
#266=CARTESIAN_POINT('Ctrl Pts',(11.7066424961027,14.9691892498742,52.1535683881588));
#267=CARTESIAN_POINT('Ctrl Pts',(12.1022272998976,14.6593827432343,53.1362802374247));
#268=CARTESIAN_POINT('Ctrl Pts',(13.0047585152311,13.8649798838067,55.0029428327906));
#269=CARTESIAN_POINT('Ctrl Pts',(13.5113366521986,13.3796204116056,55.8879574366609));
#270=CARTESIAN_POINT('Ctrl Pts',(14.5307578278407,12.2648904469105,57.5292485066392));
#271=CARTESIAN_POINT('Ctrl Pts',(15.0435383824032,11.6350593275641,58.2852508899003));
#272=CARTESIAN_POINT('Ctrl Pts',(15.9799486675829,10.3090537871467,59.6112564303485));
#273=CARTESIAN_POINT('Ctrl Pts',(16.4411661318994,9.56758295301635,60.2349896086795));
#274=CARTESIAN_POINT('Ctrl Pts',(17.2905215789332,7.93022388609542,61.3545933480369));
#275=CARTESIAN_POINT('Ctrl Pts',(17.678363198573,7.03419130192698,61.8504776061797));
#276=CARTESIAN_POINT('Ctrl Pts',(18.3202677651873,5.13538423442707,62.6609487235779));
#277=CARTESIAN_POINT('Ctrl Pts',(18.5747850416217,4.13037620467189,62.9762400913013));
#278=CARTESIAN_POINT('Ctrl Pts',(18.9147394198878,2.0773251130371,63.3958596789218));
#279=CARTESIAN_POINT('Ctrl Pts',(19.,1.02921442632384,63.5000000008533));
#280=CARTESIAN_POINT('Ctrl Pts',(19.,-1.02921442632384,63.5000000008533));
#281=CARTESIAN_POINT('Ctrl Pts',(18.9147394198878,-2.0773251130371,63.3958596789218));
#282=CARTESIAN_POINT('Ctrl Pts',(18.5747850416217,-4.13037620467189,62.9762400913013));
#283=CARTESIAN_POINT('Ctrl Pts',(18.3202677651873,-5.13538423442707,62.6609487235779));
#284=CARTESIAN_POINT('Ctrl Pts',(17.678363198573,-7.03419130192698,61.8504776061797));
#285=CARTESIAN_POINT('Ctrl Pts',(17.2905215789332,-7.93022388609542,61.3545933480369));
#286=CARTESIAN_POINT('Ctrl Pts',(16.4411661318994,-9.56758295301635,60.2349896086795));
#287=CARTESIAN_POINT('Ctrl Pts',(15.9799486675829,-10.3090537871467,59.6112564303485));
#288=CARTESIAN_POINT('Ctrl Pts',(15.0435383824032,-11.6350593275641,58.2852508899003));
#289=CARTESIAN_POINT('Ctrl Pts',(14.5307578278407,-12.2648904469105,57.5292485066392));
#290=CARTESIAN_POINT('Ctrl Pts',(13.5113366521986,-13.3796204116056,55.8879574366609));
#291=CARTESIAN_POINT('Ctrl Pts',(13.0047585152311,-13.8649798838067,55.0029428327906));
#292=CARTESIAN_POINT('Ctrl Pts',(12.1022272998976,-14.6593827432343,53.1362802374247));
#293=CARTESIAN_POINT('Ctrl Pts',(11.7066424961027,-14.9691892498742,52.1535683881588));
#294=CARTESIAN_POINT('Ctrl Pts',(11.1483038850182,-15.3895232708518,50.1192757910625));
#295=CARTESIAN_POINT('Ctrl Pts',(10.988630487918,-15.5,49.0668403465236));
#296=CARTESIAN_POINT('Ctrl Pts',(10.988630487918,-15.5,46.9331596544945));
#297=CARTESIAN_POINT('Ctrl Pts',(11.14830388501,-15.3895232708576,45.8807242099848));
#298=CARTESIAN_POINT('Ctrl Pts',(11.7066424960819,-14.9691892498903,43.8464316129528));
#299=CARTESIAN_POINT('Ctrl Pts',(12.1022272998721,-14.6593827432552,42.8637197637222));
#300=CARTESIAN_POINT('Ctrl Pts',(13.0047585152002,-13.8649798838355,40.9970571684347));
#301=CARTESIAN_POINT('Ctrl Pts',(13.5113366521671,-13.3796204116373,40.1120425646066));
#302=CARTESIAN_POINT('Ctrl Pts',(14.5307578278085,-12.2648904469485,38.470751494715));
#303=CARTESIAN_POINT('Ctrl Pts',(15.0435383823711,-11.6350593276053,37.7147491114981));
#304=CARTESIAN_POINT('Ctrl Pts',(15.9799486675593,-10.3090537871843,36.388743571119));
#305=CARTESIAN_POINT('Ctrl Pts',(16.4411661318836,-9.56758295304445,35.7650103928184));
#306=CARTESIAN_POINT('Ctrl Pts',(17.2905215789287,-7.93022388610638,34.6454066535219));
#307=CARTESIAN_POINT('Ctrl Pts',(17.678363198572,-7.03419130193035,34.1495223954095));
#308=CARTESIAN_POINT('Ctrl Pts',(18.3202677651896,-5.13538423441977,33.3390512780647));
#309=CARTESIAN_POINT('Ctrl Pts',(18.574785041624,-4.13037620466159,33.0237599103643));
#310=CARTESIAN_POINT('Ctrl Pts',(18.9147394198888,-2.07732511302707,32.6041403227758));
#311=CARTESIAN_POINT('Ctrl Pts',(19.,-1.0292144263171,32.5000000008533));
#312=CARTESIAN_POINT('Ctrl Pts',(19.,1.02921442632335,32.5000000008533));
#313=CARTESIAN_POINT('Ctrl Pts',(18.9147394198878,2.07732511303928,32.6041403227771));
#314=CARTESIAN_POINT('Ctrl Pts',(18.5747850416192,4.13037620468457,33.0237599103702));
#315=CARTESIAN_POINT('Ctrl Pts',(18.3202677651821,5.13538423444756,33.3390512780741));
#316=CARTESIAN_POINT('Ctrl Pts',(17.6783631985579,7.03419130196626,34.1495223954273));
#317=CARTESIAN_POINT('Ctrl Pts',(17.2905215789109,7.93022388614561,34.6454066535448));
#318=CARTESIAN_POINT('Ctrl Pts',(16.4411661318581,9.56758295308868,35.7650103928526));
#319=CARTESIAN_POINT('Ctrl Pts',(15.9799486675298,10.3090537872302,36.3887435711594));
#320=CARTESIAN_POINT('Ctrl Pts',(15.0435383823401,11.6350593276449,37.7147491115434));
#321=CARTESIAN_POINT('Ctrl Pts',(14.5307578277803,12.2648904469815,38.4707514947581));
#322=CARTESIAN_POINT('Ctrl Pts',(13.5113366521452,13.379620411659,40.1120425646441));
#323=CARTESIAN_POINT('Ctrl Pts',(13.004758515182,13.8649798838523,40.9970571684688));
#324=CARTESIAN_POINT('Ctrl Pts',(12.1022272998611,14.659382743264,42.8637197637485));
#325=CARTESIAN_POINT('Ctrl Pts',(11.7066424960745,14.969189249896,43.8464316129748));
#326=CARTESIAN_POINT('Ctrl Pts',(11.1483038850081,15.3895232708589,45.8807242099968));
#327=CARTESIAN_POINT('Ctrl Pts',(10.988630487918,15.5,46.933159654501));
#328=CARTESIAN_POINT('Ctrl Pts',(10.988630487918,15.5,48.0000000004936));
#329=CARTESIAN_POINT('',(22.0000000006959,1.8982025386784E-015,32.500000000988));
#330=CARTESIAN_POINT('Origin',(22.,0.,48.000000000988));
#331=CARTESIAN_POINT('Origin',(0.,0.,70.));
#332=CARTESIAN_POINT('',(19.,2.32682891837997E-015,26.));
#333=CARTESIAN_POINT('Origin',(0.,0.,26.));
#334=CARTESIAN_POINT('',(19.,2.32682891837997E-015,70.));
#335=CARTESIAN_POINT('Origin',(0.,0.,70.));
#336=CARTESIAN_POINT('Origin',(0.,0.,13.));
#337=CARTESIAN_POINT('',(-20.,-2.449213E-015,26.));
#338=CARTESIAN_POINT('Origin',(0.,0.,26.));
#339=CARTESIAN_POINT('',(-20.,-2.449213E-015,0.));
#340=CARTESIAN_POINT('Origin',(0.,0.,0.));
#341=CARTESIAN_POINT('Origin',(0.,0.,0.));
#342=CARTESIAN_POINT('',(13.564659966251,-21.,48.000000000609));
#343=CARTESIAN_POINT('',(25.,-2.63677968348475E-015,27.0000000011224));
#344=CARTESIAN_POINT('Ctrl Pts',(13.5646599662505,-21.,48.000000000609));
#345=CARTESIAN_POINT('Ctrl Pts',(13.5646599662505,-21.,46.5370750019221));
#346=CARTESIAN_POINT('Ctrl Pts',(13.8072172637132,-20.8473744999012,45.1081398030209));
#347=CARTESIAN_POINT('Ctrl Pts',(14.6334130770685,-20.2759831672326,42.3554994876843));
#348=CARTESIAN_POINT('Ctrl Pts',(15.2123123334645,-19.8570103632419,41.0304170773947));
#349=CARTESIAN_POINT('Ctrl Pts',(16.5195415733716,-18.7835052600687,38.5102222935348));
#350=CARTESIAN_POINT('Ctrl Pts',(17.2475116268258,-18.127971549055,37.3145356813674));
#351=CARTESIAN_POINT('Ctrl Pts',(18.7052633151076,-16.6196610893664,35.0930497336616));
#352=CARTESIAN_POINT('Ctrl Pts',(19.4351471463732,-15.7662398988108,34.0677550898483));
#353=CARTESIAN_POINT('Ctrl Pts',(20.7601674330821,-13.9715992776363,32.2731144687334));
#354=CARTESIAN_POINT('Ctrl Pts',(21.4086952680279,-12.9710235837244,31.4304408209039));
#355=CARTESIAN_POINT('Ctrl Pts',(22.6016754221354,-10.7584364125421,29.9153714357852));
#356=CARTESIAN_POINT('Ctrl Pts',(23.1457548684509,-9.5462246759995,29.2429745803792));
#357=CARTESIAN_POINT('Ctrl Pts',(24.0461174612646,-6.9742833675168,28.1426134233137));
#358=CARTESIAN_POINT('Ctrl Pts',(24.4030742928507,-5.61148267614743,27.713680169124));
#359=CARTESIAN_POINT('Ctrl Pts',(24.8801367703743,-2.82445872346028,27.1422450141991));
#360=CARTESIAN_POINT('Ctrl Pts',(25.,-1.40014130831955,27.0000000011224));
#361=CARTESIAN_POINT('Ctrl Pts',(25.,0.,27.0000000011224));
#362=CARTESIAN_POINT('',(25.,-6.123032E-015,69.000000001122));
#363=CARTESIAN_POINT('Ctrl Pts',(13.5646599662505,-21.,48.000000000609));
#364=CARTESIAN_POINT('Ctrl Pts',(13.5646599662505,-21.,49.4629249993216));
#365=CARTESIAN_POINT('Ctrl Pts',(13.8072172637199,-20.8473744998968,50.8918601982486));
#366=CARTESIAN_POINT('Ctrl Pts',(14.6334130770769,-20.2759831672265,53.6445005136504));
#367=CARTESIAN_POINT('Ctrl Pts',(15.2123123334688,-19.8570103632382,54.969582923979));
#368=CARTESIAN_POINT('Ctrl Pts',(16.5195415733621,-18.7835052600767,57.4897777079308));
#369=CARTESIAN_POINT('Ctrl Pts',(17.2475116268066,-18.1279715490724,58.6854643201498));
#370=CARTESIAN_POINT('Ctrl Pts',(18.7052633150709,-16.6196610894068,60.9069502679643));
#371=CARTESIAN_POINT('Ctrl Pts',(19.4351471463287,-15.7662398988647,61.9322449118346));
#372=CARTESIAN_POINT('Ctrl Pts',(20.76016743303,-13.9715992777129,63.7268855330621));
#373=CARTESIAN_POINT('Ctrl Pts',(21.4086952679762,-12.9710235838095,64.5695591809518));
#374=CARTESIAN_POINT('Ctrl Pts',(22.6016754220901,-10.758436412637,66.0846285661877));
#375=CARTESIAN_POINT('Ctrl Pts',(23.1457548684116,-9.54622467609569,66.7570254216507));
#376=CARTESIAN_POINT('Ctrl Pts',(24.0461174612393,-6.97428336760516,67.857386578815));
#377=CARTESIAN_POINT('Ctrl Pts',(24.4030742928334,-5.61148267622652,68.2863198330466));
#378=CARTESIAN_POINT('Ctrl Pts',(24.8801367703697,-2.82445872350878,68.8577549880295));
#379=CARTESIAN_POINT('Ctrl Pts',(25.,-1.40014130834672,69.0000000011224));
#380=CARTESIAN_POINT('Ctrl Pts',(25.,-2.91433543964104E-015,69.0000000011224));
#381=CARTESIAN_POINT('',(13.564659966251,21.,48.000000000609));
#382=CARTESIAN_POINT('Ctrl Pts',(25.,2.91433543964104E-015,69.0000000011224));
#383=CARTESIAN_POINT('Ctrl Pts',(25.,1.40014130834672,69.0000000011224));
#384=CARTESIAN_POINT('Ctrl Pts',(24.8801367703697,2.82445872350878,68.8577549880295));
#385=CARTESIAN_POINT('Ctrl Pts',(24.4030742928334,5.61148267622652,68.2863198330466));
#386=CARTESIAN_POINT('Ctrl Pts',(24.0461174612393,6.97428336760516,67.857386578815));
#387=CARTESIAN_POINT('Ctrl Pts',(23.1457548684116,9.54622467609568,66.7570254216507));
#388=CARTESIAN_POINT('Ctrl Pts',(22.6016754220901,10.7584364126369,66.0846285661877));
#389=CARTESIAN_POINT('Ctrl Pts',(21.4086952679762,12.9710235838095,64.5695591809518));
#390=CARTESIAN_POINT('Ctrl Pts',(20.7601674330301,13.9715992777129,63.7268855330621));
#391=CARTESIAN_POINT('Ctrl Pts',(19.4351471463287,15.7662398988647,61.9322449118346));
#392=CARTESIAN_POINT('Ctrl Pts',(18.7052633150709,16.6196610894068,60.9069502679643));
#393=CARTESIAN_POINT('Ctrl Pts',(17.2475116268066,18.1279715490724,58.6854643201498));
#394=CARTESIAN_POINT('Ctrl Pts',(16.5195415733621,18.7835052600767,57.4897777079308));
#395=CARTESIAN_POINT('Ctrl Pts',(15.2123123334688,19.8570103632382,54.969582923979));
#396=CARTESIAN_POINT('Ctrl Pts',(14.6334130770769,20.2759831672265,53.6445005136504));
#397=CARTESIAN_POINT('Ctrl Pts',(13.8072172637199,20.8473744998968,50.8918601982486));
#398=CARTESIAN_POINT('Ctrl Pts',(13.5646599662505,21.,49.4629249993216));
#399=CARTESIAN_POINT('Ctrl Pts',(13.5646599662505,21.,48.000000000609));
#400=CARTESIAN_POINT('Ctrl Pts',(25.,-5.27355936696949E-015,27.0000000011224));
#401=CARTESIAN_POINT('Ctrl Pts',(25.,1.40014130831058,27.0000000011224));
#402=CARTESIAN_POINT('Ctrl Pts',(24.8801367703758,2.8244587234428,27.1422450141973));
#403=CARTESIAN_POINT('Ctrl Pts',(24.4030742928578,5.61148267611463,27.7136801691155));
#404=CARTESIAN_POINT('Ctrl Pts',(24.0461174612757,6.97428336747716,28.1426134233003));
#405=CARTESIAN_POINT('Ctrl Pts',(23.1457548684715,9.54622467594839,29.2429745803538));
#406=CARTESIAN_POINT('Ctrl Pts',(22.6016754221617,10.7584364124863,29.9153714357526));
#407=CARTESIAN_POINT('Ctrl Pts',(21.4086952680656,12.9710235836616,31.4304408208553));
#408=CARTESIAN_POINT('Ctrl Pts',(20.7601674331257,13.9715992775711,32.273114468676));
#409=CARTESIAN_POINT('Ctrl Pts',(19.4351471464193,15.7662398987548,34.0677550897842));
#410=CARTESIAN_POINT('Ctrl Pts',(18.7052633151496,16.6196610893197,35.0930497336007));
#411=CARTESIAN_POINT('Ctrl Pts',(17.2475116268585,18.1279715490244,37.3145356813146));
#412=CARTESIAN_POINT('Ctrl Pts',(16.5195415733989,18.783505260045,38.5102222934868));
#413=CARTESIAN_POINT('Ctrl Pts',(15.2123123334812,19.8570103632294,41.0304170773577));
#414=CARTESIAN_POINT('Ctrl Pts',(14.6334130770799,20.2759831672245,42.3554994876534));
#415=CARTESIAN_POINT('Ctrl Pts',(13.8072172637162,20.8473744998993,45.1081398030038));
#416=CARTESIAN_POINT('Ctrl Pts',(13.5646599662505,21.,46.5370750019128));
#417=CARTESIAN_POINT('Ctrl Pts',(13.5646599662505,21.,48.000000000609));
#418=CARTESIAN_POINT('',(25.,-6.123032E-015,0.));
#419=CARTESIAN_POINT('Origin',(0.,0.,0.));
#420=CARTESIAN_POINT('',(-25.,-3.061516E-015,96.));
#421=CARTESIAN_POINT('Origin',(0.,0.,96.));
#422=CARTESIAN_POINT('Origin',(0.,0.,48.));
#423=CARTESIAN_POINT('',(43.9999999990572,-2.571673E-015,69.0000000019755));
#424=CARTESIAN_POINT('Origin',(44.,0.,48.000000001975));
#425=CARTESIAN_POINT('Origin',(0.,0.,83.));
#426=CARTESIAN_POINT('',(-20.,-2.449213E-015,96.));
#427=CARTESIAN_POINT('Origin',(0.,0.,96.));
#428=CARTESIAN_POINT('',(-20.,-2.449213E-015,70.));
#429=CARTESIAN_POINT('Origin',(0.,0.,70.));
#430=CARTESIAN_POINT('Origin',(33.,0.,48.0000000014819));
#431=CARTESIAN_POINT('',(43.9999999992817,-1.95937E-015,64.0000000019757));
#432=CARTESIAN_POINT('Origin',(44.,0.,48.000000001975));
#433=CARTESIAN_POINT('',(21.9999999992817,-1.95937E-015,64.000000000988));
#434=CARTESIAN_POINT('Origin',(22.,0.,48.000000000988));
#435=CARTESIAN_POINT('Origin',(0.,0.,0.));
#436=CARTESIAN_POINT('Origin',(0.,0.,26.));
#437=CARTESIAN_POINT('Origin',(0.,0.,96.));
#438=CARTESIAN_POINT('Origin',(44.,0.,48.000000001975));
#439=CARTESIAN_POINT('Origin',(0.,0.,70.));
#440=CARTESIAN_POINT('Origin',(22.,0.,48.000000000988));
#441=UNCERTAINTY_MEASURE_WITH_UNIT(LENGTH_MEASURE(0.01),#443,
'DISTANCE_ACCURACY_VALUE',
'Maximum model space distance between geometric entities at asserted c
onnectivities');
#442=(
GEOMETRIC_REPRESENTATION_CONTEXT(3)
GLOBAL_UNCERTAINTY_ASSIGNED_CONTEXT((#441))
GLOBAL_UNIT_ASSIGNED_CONTEXT((#443,#446,#444))
REPRESENTATION_CONTEXT('','3D')
);
#443=(
LENGTH_UNIT()
NAMED_UNIT(*)
SI_UNIT(.MILLI.,.METRE.)
);
#444=(
NAMED_UNIT(*)
SI_UNIT($,.STERADIAN.)
SOLID_ANGLE_UNIT()
);
#445=DIMENSIONAL_EXPONENTS(0.,0.,0.,0.,0.,0.,0.);
#446=(
CONVERSION_BASED_UNIT('degree',#448)
NAMED_UNIT(#445)
PLANE_ANGLE_UNIT()
);
#447=(
NAMED_UNIT(*)
PLANE_ANGLE_UNIT()
SI_UNIT($,.RADIAN.)
);
#448=PLANE_ANGLE_MEASURE_WITH_UNIT(PLANE_ANGLE_MEASURE(0.01745329252),#447);
#449=SHAPE_DEFINITION_REPRESENTATION(#450,#451);
#450=PRODUCT_DEFINITION_SHAPE('',$,#453);
#451=SHAPE_REPRESENTATION('',(#182),#442);
#452=PRODUCT_DEFINITION_CONTEXT('3D Mechanical Parts',#456,'design');
#453=PRODUCT_DEFINITION('TRIV040032','TRIV040032',#454,#452);
#454=PRODUCT_DEFINITION_FORMATION('',$,#458);
#455=APPLICATION_PROTOCOL_DEFINITION('international standard',
'automotive_design',2009,#456);
#456=APPLICATION_CONTEXT(
'Core Data for Automotive Mechanical Design Process');
#457=PRODUCT_CONTEXT('3D Mechanical Parts',#456,'mechanical');
#458=PRODUCT('TRIV040032','TRIV040032',$,(#457));
#459=PRESENTATION_STYLE_ASSIGNMENT((#460));
#460=SURFACE_STYLE_USAGE(.BOTH.,#461);
#461=SURFACE_SIDE_STYLE($,(#462));
#462=SURFACE_STYLE_FILL_AREA(#463);
#463=FILL_AREA_STYLE($,(#464));
#464=FILL_AREA_STYLE_COLOUR($,#465);
#465=COLOUR_RGB('',0.509803921568627,0.509803921568627,0.588235294117647);
ENDSEC;
END-ISO-10303-21;
