ISO-10303-21;
HEADER;
/* Generated by software containing ST-Developer
 * from STEP Tools, Inc. (www.steptools.com) 
 */

FILE_DESCRIPTION(
/* description */ (''),
/* implementation_level */ '2;1');

FILE_NAME(
/* name */ 
'Q:\\Ric010\\FF7\\FIPlastiCAD\\FIP\\Lavoro\\PVC Fittings\\PVC Fittings
 STEP\\DIFV\\DIFV020016038.ipt.stp',
/* time_stamp */ '2013-10-01T14:36:45+02:00',
/* author */ ('bfaro'),
/* organization */ (''),
/* preprocessor_version */ 'ST-DEVELOPER v15.2',
/* originating_system */ 'Autodesk Inventor 2014',
/* authorisation */ '');

FILE_SCHEMA (('AUTOMOTIVE_DESIGN { 1 0 10303 214 3 1 1 }'));
ENDSEC;

DATA;
#10=SHAPE_REPRESENTATION_RELATIONSHIP('SRR','None',#544,#11);
#11=ADVANCED_BREP_SHAPE_REPRESENTATION($,(#313),#535);
#12=CONICAL_SURFACE($,#337,12.875,74.9999999999999);
#13=LINE($,#445,#29);
#14=LINE($,#447,#30);
#15=LINE($,#448,#31);
#16=LINE($,#455,#32);
#17=LINE($,#456,#33);
#18=LINE($,#463,#34);
#19=LINE($,#464,#35);
#20=LINE($,#471,#36);
#21=LINE($,#472,#37);
#22=LINE($,#475,#38);
#23=LINE($,#477,#39);
#24=LINE($,#479,#40);
#25=LINE($,#480,#41);
#26=LINE($,#488,#42);
#27=LINE($,#494,#43);
#28=LINE($,#500,#44);
#29=VECTOR($,#358,5.52390515728702);
#30=VECTOR($,#359,9.77544007200504);
#31=VECTOR($,#360,5.52390515728702);
#32=VECTOR($,#363,5.52390515728702);
#33=VECTOR($,#364,9.77544007200505);
#34=VECTOR($,#367,5.52390515728702);
#35=VECTOR($,#368,9.77544007200505);
#36=VECTOR($,#371,5.52390515728702);
#37=VECTOR($,#372,9.77544007200505);
#38=VECTOR($,#375,9.77544007200505);
#39=VECTOR($,#376,9.77544007200505);
#40=VECTOR($,#377,9.77544007200504);
#41=VECTOR($,#378,9.77544007200504);
#42=VECTOR($,#383,5.52390515728702);
#43=VECTOR($,#386,5.52390515728702);
#44=VECTOR($,#389,5.52390515728702);
#45=(
BOUNDED_CURVE()
B_SPLINE_CURVE(2,(#441,#442,#443),.UNSPECIFIED.,.F.,.F.)
B_SPLINE_CURVE_WITH_KNOTS((3,3),(0.240932570297183,1.27045747022978),
 .UNSPECIFIED.)
CURVE()
GEOMETRIC_REPRESENTATION_ITEM()
RATIONAL_B_SPLINE_CURVE((1.0499658410449,1.13647483692079,1.04996584104571))
REPRESENTATION_ITEM($)
);
#46=(
BOUNDED_CURVE()
B_SPLINE_CURVE(2,(#451,#452,#453),.UNSPECIFIED.,.F.,.F.)
B_SPLINE_CURVE_WITH_KNOTS((3,3),(0.240932570297182,1.27045747022978),
 .UNSPECIFIED.)
CURVE()
GEOMETRIC_REPRESENTATION_ITEM()
RATIONAL_B_SPLINE_CURVE((1.0499658410449,1.1364748369208,1.04996584104571))
REPRESENTATION_ITEM($)
);
#47=(
BOUNDED_CURVE()
B_SPLINE_CURVE(2,(#459,#460,#461),.UNSPECIFIED.,.F.,.F.)
B_SPLINE_CURVE_WITH_KNOTS((3,3),(0.240932570297185,1.27045747022978),
 .UNSPECIFIED.)
CURVE()
GEOMETRIC_REPRESENTATION_ITEM()
RATIONAL_B_SPLINE_CURVE((1.0499658410449,1.13647483692079,1.04996584104571))
REPRESENTATION_ITEM($)
);
#48=(
BOUNDED_CURVE()
B_SPLINE_CURVE(2,(#467,#468,#469),.UNSPECIFIED.,.F.,.F.)
B_SPLINE_CURVE_WITH_KNOTS((3,3),(0.240932570297183,1.27045747022978),
 .UNSPECIFIED.)
CURVE()
GEOMETRIC_REPRESENTATION_ITEM()
RATIONAL_B_SPLINE_CURVE((1.0499658410449,1.1364748369208,1.04996584104571))
REPRESENTATION_ITEM($)
);
#49=(
BOUNDED_CURVE()
B_SPLINE_CURVE(2,(#485,#486,#487),.UNSPECIFIED.,.F.,.F.)
B_SPLINE_CURVE_WITH_KNOTS((3,3),(0.240932570297185,1.27045747022978),
 .UNSPECIFIED.)
CURVE()
GEOMETRIC_REPRESENTATION_ITEM()
RATIONAL_B_SPLINE_CURVE((1.0499658410449,1.13647483692079,1.04996584104571))
REPRESENTATION_ITEM($)
);
#50=(
BOUNDED_CURVE()
B_SPLINE_CURVE(2,(#491,#492,#493),.UNSPECIFIED.,.F.,.F.)
B_SPLINE_CURVE_WITH_KNOTS((3,3),(0.240932570297183,1.27045747022978),
 .UNSPECIFIED.)
CURVE()
GEOMETRIC_REPRESENTATION_ITEM()
RATIONAL_B_SPLINE_CURVE((1.0499658410449,1.1364748369208,1.04996584104571))
REPRESENTATION_ITEM($)
);
#51=(
BOUNDED_CURVE()
B_SPLINE_CURVE(2,(#497,#498,#499),.UNSPECIFIED.,.F.,.F.)
B_SPLINE_CURVE_WITH_KNOTS((3,3),(0.240932570297183,1.27045747022979),
 .UNSPECIFIED.)
CURVE()
GEOMETRIC_REPRESENTATION_ITEM()
RATIONAL_B_SPLINE_CURVE((1.0499658410449,1.1364748369208,1.04996584104571))
REPRESENTATION_ITEM($)
);
#52=(
BOUNDED_CURVE()
B_SPLINE_CURVE(2,(#502,#503,#504),.UNSPECIFIED.,.F.,.F.)
B_SPLINE_CURVE_WITH_KNOTS((3,3),(0.240932570297183,1.27045747022978),
 .UNSPECIFIED.)
CURVE()
GEOMETRIC_REPRESENTATION_ITEM()
RATIONAL_B_SPLINE_CURVE((1.0499658410449,1.1364748369208,1.04996584104571))
REPRESENTATION_ITEM($)
);
#53=PLANE($,#318);
#54=PLANE($,#319);
#55=PLANE($,#320);
#56=PLANE($,#321);
#57=PLANE($,#322);
#58=PLANE($,#324);
#59=PLANE($,#325);
#60=PLANE($,#326);
#61=PLANE($,#327);
#62=PLANE($,#328);
#63=PLANE($,#333);
#64=PLANE($,#340);
#65=PLANE($,#341);
#66=PLANE($,#345);
#67=FACE_BOUND($,#102,.T.);
#68=FACE_BOUND($,#108,.T.);
#69=FACE_BOUND($,#114,.T.);
#70=FACE_BOUND($,#116,.T.);
#71=FACE_BOUND($,#118,.T.);
#72=FACE_BOUND($,#120,.T.);
#73=FACE_BOUND($,#122,.T.);
#74=FACE_BOUND($,#124,.T.);
#75=FACE_BOUND($,#125,.T.);
#76=FACE_BOUND($,#126,.T.);
#77=FACE_BOUND($,#128,.T.);
#78=FACE_BOUND($,#130,.T.);
#79=FACE_BOUND($,#132,.T.);
#80=FACE_BOUND($,#134,.T.);
#81=FACE_OUTER_BOUND($,#101,.T.);
#82=FACE_OUTER_BOUND($,#103,.T.);
#83=FACE_OUTER_BOUND($,#104,.T.);
#84=FACE_OUTER_BOUND($,#105,.T.);
#85=FACE_OUTER_BOUND($,#106,.T.);
#86=FACE_OUTER_BOUND($,#107,.T.);
#87=FACE_OUTER_BOUND($,#109,.T.);
#88=FACE_OUTER_BOUND($,#110,.T.);
#89=FACE_OUTER_BOUND($,#111,.T.);
#90=FACE_OUTER_BOUND($,#112,.T.);
#91=FACE_OUTER_BOUND($,#113,.T.);
#92=FACE_OUTER_BOUND($,#115,.T.);
#93=FACE_OUTER_BOUND($,#117,.T.);
#94=FACE_OUTER_BOUND($,#119,.T.);
#95=FACE_OUTER_BOUND($,#121,.T.);
#96=FACE_OUTER_BOUND($,#123,.T.);
#97=FACE_OUTER_BOUND($,#127,.T.);
#98=FACE_OUTER_BOUND($,#129,.T.);
#99=FACE_OUTER_BOUND($,#131,.T.);
#100=FACE_OUTER_BOUND($,#133,.T.);
#101=EDGE_LOOP($,(#211));
#102=EDGE_LOOP($,(#212));
#103=EDGE_LOOP($,(#213,#214,#215,#216));
#104=EDGE_LOOP($,(#217,#218,#219,#220));
#105=EDGE_LOOP($,(#221,#222,#223,#224));
#106=EDGE_LOOP($,(#225,#226,#227,#228));
#107=EDGE_LOOP($,(#229,#230,#231,#232,#233,#234,#235,#236));
#108=EDGE_LOOP($,(#237));
#109=EDGE_LOOP($,(#238,#239,#240,#241));
#110=EDGE_LOOP($,(#242,#243,#244,#245));
#111=EDGE_LOOP($,(#246,#247,#248,#249));
#112=EDGE_LOOP($,(#250,#251,#252,#253));
#113=EDGE_LOOP($,(#254));
#114=EDGE_LOOP($,(#255));
#115=EDGE_LOOP($,(#256));
#116=EDGE_LOOP($,(#257));
#117=EDGE_LOOP($,(#258));
#118=EDGE_LOOP($,(#259));
#119=EDGE_LOOP($,(#260));
#120=EDGE_LOOP($,(#261));
#121=EDGE_LOOP($,(#262,#263,#264,#265,#266,#267,#268,#269));
#122=EDGE_LOOP($,(#270));
#123=EDGE_LOOP($,(#271));
#124=EDGE_LOOP($,(#272));
#125=EDGE_LOOP($,(#273));
#126=EDGE_LOOP($,(#274));
#127=EDGE_LOOP($,(#275));
#128=EDGE_LOOP($,(#276));
#129=EDGE_LOOP($,(#277));
#130=EDGE_LOOP($,(#278));
#131=EDGE_LOOP($,(#279));
#132=EDGE_LOOP($,(#280));
#133=EDGE_LOOP($,(#281));
#134=EDGE_LOOP($,(#282));
#135=CIRCLE($,#316,8.331);
#136=CIRCLE($,#317,8.331);
#137=CIRCLE($,#323,11.75);
#138=CIRCLE($,#329,10.);
#139=CIRCLE($,#330,8.);
#140=CIRCLE($,#332,10.);
#141=CIRCLE($,#334,14.);
#142=CIRCLE($,#336,14.);
#143=CIRCLE($,#339,11.75);
#144=CIRCLE($,#342,7.00000000000001);
#145=CIRCLE($,#344,7.);
#146=CIRCLE($,#346,8.00000000000001);
#147=VERTEX_POINT($,#434);
#148=VERTEX_POINT($,#436);
#149=VERTEX_POINT($,#439);
#150=VERTEX_POINT($,#440);
#151=VERTEX_POINT($,#444);
#152=VERTEX_POINT($,#446);
#153=VERTEX_POINT($,#450);
#154=VERTEX_POINT($,#454);
#155=VERTEX_POINT($,#458);
#156=VERTEX_POINT($,#462);
#157=VERTEX_POINT($,#466);
#158=VERTEX_POINT($,#470);
#159=VERTEX_POINT($,#474);
#160=VERTEX_POINT($,#476);
#161=VERTEX_POINT($,#478);
#162=VERTEX_POINT($,#481);
#163=VERTEX_POINT($,#484);
#164=VERTEX_POINT($,#490);
#165=VERTEX_POINT($,#496);
#166=VERTEX_POINT($,#506);
#167=VERTEX_POINT($,#508);
#168=VERTEX_POINT($,#511);
#169=VERTEX_POINT($,#514);
#170=VERTEX_POINT($,#517);
#171=VERTEX_POINT($,#521);
#172=VERTEX_POINT($,#525);
#173=VERTEX_POINT($,#528);
#174=VERTEX_POINT($,#531);
#175=EDGE_CURVE($,#147,#147,#135,.T.);
#176=EDGE_CURVE($,#148,#148,#136,.T.);
#177=EDGE_CURVE($,#149,#150,#45,.T.);
#178=EDGE_CURVE($,#149,#151,#13,.T.);
#179=EDGE_CURVE($,#152,#151,#14,.T.);
#180=EDGE_CURVE($,#150,#152,#15,.T.);
#181=EDGE_CURVE($,#153,#149,#46,.T.);
#182=EDGE_CURVE($,#153,#154,#16,.T.);
#183=EDGE_CURVE($,#151,#154,#17,.T.);
#184=EDGE_CURVE($,#155,#153,#47,.T.);
#185=EDGE_CURVE($,#155,#156,#18,.T.);
#186=EDGE_CURVE($,#154,#156,#19,.T.);
#187=EDGE_CURVE($,#157,#155,#48,.T.);
#188=EDGE_CURVE($,#157,#158,#20,.T.);
#189=EDGE_CURVE($,#156,#158,#21,.T.);
#190=EDGE_CURVE($,#158,#159,#22,.T.);
#191=EDGE_CURVE($,#159,#160,#23,.T.);
#192=EDGE_CURVE($,#160,#161,#24,.T.);
#193=EDGE_CURVE($,#161,#152,#25,.T.);
#194=EDGE_CURVE($,#162,#162,#137,.T.);
#195=EDGE_CURVE($,#150,#163,#49,.T.);
#196=EDGE_CURVE($,#163,#161,#26,.T.);
#197=EDGE_CURVE($,#163,#164,#50,.T.);
#198=EDGE_CURVE($,#164,#160,#27,.T.);
#199=EDGE_CURVE($,#164,#165,#51,.T.);
#200=EDGE_CURVE($,#165,#159,#28,.T.);
#201=EDGE_CURVE($,#165,#157,#52,.T.);
#202=EDGE_CURVE($,#166,#166,#138,.T.);
#203=EDGE_CURVE($,#167,#167,#139,.T.);
#204=EDGE_CURVE($,#168,#168,#140,.T.);
#205=EDGE_CURVE($,#169,#169,#141,.T.);
#206=EDGE_CURVE($,#170,#170,#142,.T.);
#207=EDGE_CURVE($,#171,#171,#143,.T.);
#208=EDGE_CURVE($,#172,#172,#144,.T.);
#209=EDGE_CURVE($,#173,#173,#145,.T.);
#210=EDGE_CURVE($,#174,#174,#146,.T.);
#211=ORIENTED_EDGE($,*,*,#175,.F.);
#212=ORIENTED_EDGE($,*,*,#176,.F.);
#213=ORIENTED_EDGE($,*,*,#177,.F.);
#214=ORIENTED_EDGE($,*,*,#178,.T.);
#215=ORIENTED_EDGE($,*,*,#179,.F.);
#216=ORIENTED_EDGE($,*,*,#180,.F.);
#217=ORIENTED_EDGE($,*,*,#181,.F.);
#218=ORIENTED_EDGE($,*,*,#182,.T.);
#219=ORIENTED_EDGE($,*,*,#183,.F.);
#220=ORIENTED_EDGE($,*,*,#178,.F.);
#221=ORIENTED_EDGE($,*,*,#184,.F.);
#222=ORIENTED_EDGE($,*,*,#185,.T.);
#223=ORIENTED_EDGE($,*,*,#186,.F.);
#224=ORIENTED_EDGE($,*,*,#182,.F.);
#225=ORIENTED_EDGE($,*,*,#187,.F.);
#226=ORIENTED_EDGE($,*,*,#188,.T.);
#227=ORIENTED_EDGE($,*,*,#189,.F.);
#228=ORIENTED_EDGE($,*,*,#185,.F.);
#229=ORIENTED_EDGE($,*,*,#190,.T.);
#230=ORIENTED_EDGE($,*,*,#191,.T.);
#231=ORIENTED_EDGE($,*,*,#192,.T.);
#232=ORIENTED_EDGE($,*,*,#193,.T.);
#233=ORIENTED_EDGE($,*,*,#179,.T.);
#234=ORIENTED_EDGE($,*,*,#183,.T.);
#235=ORIENTED_EDGE($,*,*,#186,.T.);
#236=ORIENTED_EDGE($,*,*,#189,.T.);
#237=ORIENTED_EDGE($,*,*,#194,.F.);
#238=ORIENTED_EDGE($,*,*,#195,.F.);
#239=ORIENTED_EDGE($,*,*,#180,.T.);
#240=ORIENTED_EDGE($,*,*,#193,.F.);
#241=ORIENTED_EDGE($,*,*,#196,.F.);
#242=ORIENTED_EDGE($,*,*,#197,.F.);
#243=ORIENTED_EDGE($,*,*,#196,.T.);
#244=ORIENTED_EDGE($,*,*,#192,.F.);
#245=ORIENTED_EDGE($,*,*,#198,.F.);
#246=ORIENTED_EDGE($,*,*,#199,.F.);
#247=ORIENTED_EDGE($,*,*,#198,.T.);
#248=ORIENTED_EDGE($,*,*,#191,.F.);
#249=ORIENTED_EDGE($,*,*,#200,.F.);
#250=ORIENTED_EDGE($,*,*,#201,.F.);
#251=ORIENTED_EDGE($,*,*,#200,.T.);
#252=ORIENTED_EDGE($,*,*,#190,.F.);
#253=ORIENTED_EDGE($,*,*,#188,.F.);
#254=ORIENTED_EDGE($,*,*,#202,.F.);
#255=ORIENTED_EDGE($,*,*,#203,.T.);
#256=ORIENTED_EDGE($,*,*,#204,.F.);
#257=ORIENTED_EDGE($,*,*,#202,.T.);
#258=ORIENTED_EDGE($,*,*,#205,.F.);
#259=ORIENTED_EDGE($,*,*,#204,.T.);
#260=ORIENTED_EDGE($,*,*,#206,.F.);
#261=ORIENTED_EDGE($,*,*,#205,.T.);
#262=ORIENTED_EDGE($,*,*,#187,.T.);
#263=ORIENTED_EDGE($,*,*,#184,.T.);
#264=ORIENTED_EDGE($,*,*,#181,.T.);
#265=ORIENTED_EDGE($,*,*,#177,.T.);
#266=ORIENTED_EDGE($,*,*,#195,.T.);
#267=ORIENTED_EDGE($,*,*,#197,.T.);
#268=ORIENTED_EDGE($,*,*,#199,.T.);
#269=ORIENTED_EDGE($,*,*,#201,.T.);
#270=ORIENTED_EDGE($,*,*,#206,.T.);
#271=ORIENTED_EDGE($,*,*,#194,.T.);
#272=ORIENTED_EDGE($,*,*,#207,.F.);
#273=ORIENTED_EDGE($,*,*,#175,.T.);
#274=ORIENTED_EDGE($,*,*,#207,.T.);
#275=ORIENTED_EDGE($,*,*,#176,.T.);
#276=ORIENTED_EDGE($,*,*,#208,.F.);
#277=ORIENTED_EDGE($,*,*,#209,.F.);
#278=ORIENTED_EDGE($,*,*,#208,.T.);
#279=ORIENTED_EDGE($,*,*,#210,.F.);
#280=ORIENTED_EDGE($,*,*,#209,.T.);
#281=ORIENTED_EDGE($,*,*,#203,.F.);
#282=ORIENTED_EDGE($,*,*,#210,.T.);
#283=CYLINDRICAL_SURFACE($,#315,8.331);
#284=CYLINDRICAL_SURFACE($,#331,10.);
#285=CYLINDRICAL_SURFACE($,#335,14.);
#286=CYLINDRICAL_SURFACE($,#338,11.75);
#287=CYLINDRICAL_SURFACE($,#343,7.00000000000001);
#288=CYLINDRICAL_SURFACE($,#347,8.);
#289=STYLED_ITEM($,(#553),#291);
#290=STYLED_ITEM($,(#552),#313);
#291=ADVANCED_FACE($,(#81,#67),#283,.F.);
#292=ADVANCED_FACE($,(#82),#53,.T.);
#293=ADVANCED_FACE($,(#83),#54,.T.);
#294=ADVANCED_FACE($,(#84),#55,.T.);
#295=ADVANCED_FACE($,(#85),#56,.T.);
#296=ADVANCED_FACE($,(#86,#68),#57,.T.);
#297=ADVANCED_FACE($,(#87),#58,.T.);
#298=ADVANCED_FACE($,(#88),#59,.T.);
#299=ADVANCED_FACE($,(#89),#60,.T.);
#300=ADVANCED_FACE($,(#90),#61,.T.);
#301=ADVANCED_FACE($,(#91,#69),#62,.T.);
#302=ADVANCED_FACE($,(#92,#70),#284,.T.);
#303=ADVANCED_FACE($,(#93,#71),#63,.T.);
#304=ADVANCED_FACE($,(#94,#72),#285,.T.);
#305=ADVANCED_FACE($,(#95,#73),#12,.T.);
#306=ADVANCED_FACE($,(#96,#74),#286,.T.);
#307=ADVANCED_FACE($,(#75,#76),#64,.T.);
#308=ADVANCED_FACE($,(#97,#77),#65,.T.);
#309=ADVANCED_FACE($,(#98,#78),#287,.F.);
#310=ADVANCED_FACE($,(#99,#79),#66,.T.);
#311=ADVANCED_FACE($,(#100,#80),#288,.F.);
#312=CLOSED_SHELL($,(#291,#292,#293,#294,#295,#296,#297,#298,#299,#300,
#301,#302,#303,#304,#305,#306,#307,#308,#309,#310,#311));
#313=MANIFOLD_SOLID_BREP('Solido1',#312);
#314=AXIS2_PLACEMENT_3D('placement',#432,#348,#349);
#315=AXIS2_PLACEMENT_3D($,#433,#350,#351);
#316=AXIS2_PLACEMENT_3D($,#435,#352,#353);
#317=AXIS2_PLACEMENT_3D($,#437,#354,#355);
#318=AXIS2_PLACEMENT_3D($,#438,#356,#357);
#319=AXIS2_PLACEMENT_3D($,#449,#361,#362);
#320=AXIS2_PLACEMENT_3D($,#457,#365,#366);
#321=AXIS2_PLACEMENT_3D($,#465,#369,#370);
#322=AXIS2_PLACEMENT_3D($,#473,#373,#374);
#323=AXIS2_PLACEMENT_3D($,#482,#379,#380);
#324=AXIS2_PLACEMENT_3D($,#483,#381,#382);
#325=AXIS2_PLACEMENT_3D($,#489,#384,#385);
#326=AXIS2_PLACEMENT_3D($,#495,#387,#388);
#327=AXIS2_PLACEMENT_3D($,#501,#390,#391);
#328=AXIS2_PLACEMENT_3D($,#505,#392,#393);
#329=AXIS2_PLACEMENT_3D($,#507,#394,#395);
#330=AXIS2_PLACEMENT_3D($,#509,#396,#397);
#331=AXIS2_PLACEMENT_3D($,#510,#398,#399);
#332=AXIS2_PLACEMENT_3D($,#512,#400,#401);
#333=AXIS2_PLACEMENT_3D($,#513,#402,#403);
#334=AXIS2_PLACEMENT_3D($,#515,#404,#405);
#335=AXIS2_PLACEMENT_3D($,#516,#406,#407);
#336=AXIS2_PLACEMENT_3D($,#518,#408,#409);
#337=AXIS2_PLACEMENT_3D($,#519,#410,#411);
#338=AXIS2_PLACEMENT_3D($,#520,#412,#413);
#339=AXIS2_PLACEMENT_3D($,#522,#414,#415);
#340=AXIS2_PLACEMENT_3D($,#523,#416,#417);
#341=AXIS2_PLACEMENT_3D($,#524,#418,#419);
#342=AXIS2_PLACEMENT_3D($,#526,#420,#421);
#343=AXIS2_PLACEMENT_3D($,#527,#422,#423);
#344=AXIS2_PLACEMENT_3D($,#529,#424,#425);
#345=AXIS2_PLACEMENT_3D($,#530,#426,#427);
#346=AXIS2_PLACEMENT_3D($,#532,#428,#429);
#347=AXIS2_PLACEMENT_3D($,#533,#430,#431);
#348=DIRECTION('axis',(0.,0.,1.));
#349=DIRECTION('refdir',(1.,0.,0.));
#350=DIRECTION('center_axis',(0.,0.,-1.));
#351=DIRECTION('ref_axis',(-1.,0.,0.));
#352=DIRECTION('center_axis',(0.,0.,-1.));
#353=DIRECTION('ref_axis',(-1.,0.,0.));
#354=DIRECTION('center_axis',(0.,0.,1.));
#355=DIRECTION('ref_axis',(-1.,0.,0.));
#356=DIRECTION('center_axis',(0.38268343236509,-0.923879532511287,0.));
#357=DIRECTION('ref_axis',(0.923879532511287,0.38268343236509,0.));
#358=DIRECTION($,(0.,0.,1.));
#359=DIRECTION($,(0.923879532511287,0.38268343236509,0.));
#360=DIRECTION($,(0.,0.,1.));
#361=DIRECTION('center_axis',(0.923879532511287,-0.38268343236509,0.));
#362=DIRECTION('ref_axis',(0.38268343236509,0.923879532511287,0.));
#363=DIRECTION($,(0.,0.,1.));
#364=DIRECTION($,(0.38268343236509,0.923879532511287,0.));
#365=DIRECTION('center_axis',(0.923879532511287,0.38268343236509,0.));
#366=DIRECTION('ref_axis',(-0.38268343236509,0.923879532511287,0.));
#367=DIRECTION($,(0.,0.,1.));
#368=DIRECTION($,(-0.38268343236509,0.923879532511287,0.));
#369=DIRECTION('center_axis',(0.38268343236509,0.923879532511287,0.));
#370=DIRECTION('ref_axis',(-0.923879532511287,0.38268343236509,0.));
#371=DIRECTION($,(0.,0.,1.));
#372=DIRECTION($,(-0.923879532511287,0.38268343236509,0.));
#373=DIRECTION('center_axis',(0.,0.,1.));
#374=DIRECTION('ref_axis',(1.,0.,0.));
#375=DIRECTION($,(-0.923879532511287,-0.38268343236509,0.));
#376=DIRECTION($,(-0.38268343236509,-0.923879532511287,0.));
#377=DIRECTION($,(0.38268343236509,-0.923879532511287,0.));
#378=DIRECTION($,(0.923879532511287,-0.38268343236509,0.));
#379=DIRECTION('center_axis',(0.,0.,1.));
#380=DIRECTION('ref_axis',(0.,-1.,0.));
#381=DIRECTION('center_axis',(-0.38268343236509,-0.923879532511287,0.));
#382=DIRECTION('ref_axis',(0.923879532511287,-0.38268343236509,0.));
#383=DIRECTION($,(0.,0.,1.));
#384=DIRECTION('center_axis',(-0.923879532511287,-0.38268343236509,0.));
#385=DIRECTION('ref_axis',(0.38268343236509,-0.923879532511287,0.));
#386=DIRECTION($,(0.,0.,1.));
#387=DIRECTION('center_axis',(-0.923879532511287,0.38268343236509,0.));
#388=DIRECTION('ref_axis',(-0.382683432365089,-0.923879532511287,0.));
#389=DIRECTION($,(0.,0.,1.));
#390=DIRECTION('center_axis',(-0.38268343236509,0.923879532511287,0.));
#391=DIRECTION('ref_axis',(-0.923879532511287,-0.38268343236509,0.));
#392=DIRECTION('center_axis',(0.,0.,-1.));
#393=DIRECTION('ref_axis',(-1.,0.,0.));
#394=DIRECTION('center_axis',(0.,0.,1.));
#395=DIRECTION('ref_axis',(0.,-1.,0.));
#396=DIRECTION('center_axis',(0.,0.,1.));
#397=DIRECTION('ref_axis',(0.,-1.,0.));
#398=DIRECTION('center_axis',(0.,0.,1.));
#399=DIRECTION('ref_axis',(0.,-1.,0.));
#400=DIRECTION('center_axis',(0.,0.,1.));
#401=DIRECTION('ref_axis',(0.,-1.,0.));
#402=DIRECTION('center_axis',(0.,0.,-1.));
#403=DIRECTION('ref_axis',(-1.,0.,0.));
#404=DIRECTION('center_axis',(0.,0.,1.));
#405=DIRECTION('ref_axis',(0.,-1.,0.));
#406=DIRECTION('center_axis',(0.,0.,1.));
#407=DIRECTION('ref_axis',(0.,-1.,0.));
#408=DIRECTION('center_axis',(0.,0.,1.));
#409=DIRECTION('ref_axis',(0.,-1.,0.));
#410=DIRECTION('center_axis',(0.,0.,-1.));
#411=DIRECTION('ref_axis',(0.,-1.,0.));
#412=DIRECTION('center_axis',(0.,0.,1.));
#413=DIRECTION('ref_axis',(0.,-1.,0.));
#414=DIRECTION('center_axis',(0.,0.,1.));
#415=DIRECTION('ref_axis',(0.,-1.,0.));
#416=DIRECTION('center_axis',(0.,0.,1.));
#417=DIRECTION('ref_axis',(1.,0.,0.));
#418=DIRECTION('center_axis',(0.,0.,1.));
#419=DIRECTION('ref_axis',(1.,0.,0.));
#420=DIRECTION('center_axis',(0.,0.,1.));
#421=DIRECTION('ref_axis',(0.,-1.,0.));
#422=DIRECTION('center_axis',(0.,0.,1.));
#423=DIRECTION('ref_axis',(0.,-1.,0.));
#424=DIRECTION('center_axis',(0.,0.,1.));
#425=DIRECTION('ref_axis',(0.,-1.,0.));
#426=DIRECTION('center_axis',(0.,0.,-1.));
#427=DIRECTION('ref_axis',(-1.,0.,0.));
#428=DIRECTION('center_axis',(0.,0.,1.));
#429=DIRECTION('ref_axis',(0.,-1.,0.));
#430=DIRECTION('center_axis',(0.,0.,1.));
#431=DIRECTION('ref_axis',(0.,-1.,0.));
#432=CARTESIAN_POINT('',(0.,0.,0.));
#433=CARTESIAN_POINT('Origin',(0.,0.,36.));
#434=CARTESIAN_POINT('',(8.331,1.02025324836966E-015,36.));
#435=CARTESIAN_POINT('Origin',(0.,0.,36.));
#436=CARTESIAN_POINT('',(8.331,1.02025324836966E-015,23.1));
#437=CARTESIAN_POINT('Origin',(0.,0.,23.1));
#438=CARTESIAN_POINT('Origin',(3.44962978558425E-015,-12.7722279634503,
18.25));
#439=CARTESIAN_POINT('',(9.03132900381612,-9.03132900381612,18.726094842713));
#440=CARTESIAN_POINT('',(3.44962978558425E-015,-12.7722279634503,18.726094842713));
#441=CARTESIAN_POINT('Ctrl Pts',(9.03132900381612,-9.03132900381612,18.726094842713));
#442=CARTESIAN_POINT('Ctrl Pts',(4.5156645018895,-10.9017784836409,19.2272802703116));
#443=CARTESIAN_POINT('Ctrl Pts',(3.44962978558425E-015,-12.7722279634503,
18.726094842713));
#444=CARTESIAN_POINT('',(9.03132900381612,-9.03132900381612,24.25));
#445=CARTESIAN_POINT($,(9.03132900381612,-9.03132900381612,18.25));
#446=CARTESIAN_POINT('',(3.44962978558425E-015,-12.7722279634503,24.25));
#447=CARTESIAN_POINT($,(3.44962978558425E-015,-12.7722279634503,24.25));
#448=CARTESIAN_POINT($,(3.44962978558425E-015,-12.7722279634503,18.25));
#449=CARTESIAN_POINT('Origin',(9.03132900381612,-9.03132900381612,18.25));
#450=CARTESIAN_POINT('',(12.7722279634503,-1.9433826132054E-015,18.726094842713));
#451=CARTESIAN_POINT('Ctrl Pts',(12.7722279634503,-1.9433826132054E-015,
18.726094842713));
#452=CARTESIAN_POINT('Ctrl Pts',(10.9017784836255,-4.51566450192661,19.2272802703116));
#453=CARTESIAN_POINT('Ctrl Pts',(9.03132900381612,-9.03132900381612,18.726094842713));
#454=CARTESIAN_POINT('',(12.7722279634503,-2.22044604925031E-015,24.25));
#455=CARTESIAN_POINT($,(12.7722279634503,-1.9433826132054E-015,18.25));
#456=CARTESIAN_POINT($,(9.03132900381612,-9.03132900381612,24.25));
#457=CARTESIAN_POINT('Origin',(12.7722279634503,-1.9433826132054E-015,18.25));
#458=CARTESIAN_POINT('',(9.03132900381612,9.03132900381612,18.726094842713));
#459=CARTESIAN_POINT('Ctrl Pts',(9.03132900381612,9.03132900381612,18.726094842713));
#460=CARTESIAN_POINT('Ctrl Pts',(10.9017784836409,4.51566450188951,19.2272802703116));
#461=CARTESIAN_POINT('Ctrl Pts',(12.7722279634503,-1.9433826132054E-015,
18.726094842713));
#462=CARTESIAN_POINT('',(9.03132900381612,9.03132900381612,24.25));
#463=CARTESIAN_POINT($,(9.03132900381612,9.03132900381612,18.25));
#464=CARTESIAN_POINT($,(12.7722279634503,-1.9433826132054E-015,24.25));
#465=CARTESIAN_POINT('Origin',(9.03132900381612,9.03132900381612,18.25));
#466=CARTESIAN_POINT('',(0.,12.7722279634503,18.726094842713));
#467=CARTESIAN_POINT('Ctrl Pts',(0.,12.7722279634503,18.726094842713));
#468=CARTESIAN_POINT('Ctrl Pts',(4.51566450192661,10.9017784836255,19.2272802703116));
#469=CARTESIAN_POINT('Ctrl Pts',(9.03132900381612,9.03132900381612,18.726094842713));
#470=CARTESIAN_POINT('',(0.,12.7722279634503,24.25));
#471=CARTESIAN_POINT($,(0.,12.7722279634503,18.25));
#472=CARTESIAN_POINT($,(9.03132900381612,9.03132900381612,24.25));
#473=CARTESIAN_POINT('Origin',(7.45320777932833E-016,-1.70359034956076E-015,
24.25));
#474=CARTESIAN_POINT('',(-9.03132900381612,9.03132900381612,24.25));
#475=CARTESIAN_POINT($,(0.,12.7722279634503,24.25));
#476=CARTESIAN_POINT('',(-12.7722279634503,-8.88178419700125E-015,24.25));
#477=CARTESIAN_POINT($,(-9.03132900381612,9.03132900381612,24.25));
#478=CARTESIAN_POINT('',(-9.03132900381612,-9.03132900381613,24.25));
#479=CARTESIAN_POINT($,(-12.7722279634503,-8.23448653999363E-015,24.25));
#480=CARTESIAN_POINT($,(-9.03132900381612,-9.03132900381613,24.25));
#481=CARTESIAN_POINT('',(-1.43895998899814E-015,11.75,24.25));
#482=CARTESIAN_POINT('Origin',(0.,0.,24.25));
#483=CARTESIAN_POINT('Origin',(-9.03132900381612,-9.03132900381613,18.25));
#484=CARTESIAN_POINT('',(-9.03132900381612,-9.03132900381612,18.726094842713));
#485=CARTESIAN_POINT('Ctrl Pts',(3.44962978558425E-015,-12.7722279634503,
18.726094842713));
#486=CARTESIAN_POINT('Ctrl Pts',(-4.51566450192661,-10.9017784836255,19.2272802703116));
#487=CARTESIAN_POINT('Ctrl Pts',(-9.03132900381612,-9.03132900381612,18.726094842713));
#488=CARTESIAN_POINT($,(-9.03132900381612,-9.03132900381613,18.25));
#489=CARTESIAN_POINT('Origin',(-12.7722279634503,-8.23448653999363E-015,
18.25));
#490=CARTESIAN_POINT('',(-12.7722279634503,-8.23448653999363E-015,18.726094842713));
#491=CARTESIAN_POINT('Ctrl Pts',(-9.03132900381612,-9.03132900381612,18.726094842713));
#492=CARTESIAN_POINT('Ctrl Pts',(-10.9017784836409,-4.51566450188951,19.2272802703116));
#493=CARTESIAN_POINT('Ctrl Pts',(-12.7722279634503,-8.23448653999363E-015,
18.726094842713));
#494=CARTESIAN_POINT($,(-12.7722279634503,-8.23448653999363E-015,18.25));
#495=CARTESIAN_POINT('Origin',(-9.03132900381612,9.03132900381612,18.25));
#496=CARTESIAN_POINT('',(-9.03132900381612,9.03132900381612,18.726094842713));
#497=CARTESIAN_POINT('Ctrl Pts',(-12.7722279634503,-8.23448653999363E-015,
18.726094842713));
#498=CARTESIAN_POINT('Ctrl Pts',(-10.9017784836255,4.51566450192661,19.2272802703116));
#499=CARTESIAN_POINT('Ctrl Pts',(-9.03132900381612,9.03132900381612,18.726094842713));
#500=CARTESIAN_POINT($,(-9.03132900381612,9.03132900381612,18.25));
#501=CARTESIAN_POINT('Origin',(0.,12.7722279634503,18.25));
#502=CARTESIAN_POINT('Ctrl Pts',(-9.03132900381612,9.03132900381612,18.726094842713));
#503=CARTESIAN_POINT('Ctrl Pts',(-4.51566450188951,10.9017784836409,19.2272802703116));
#504=CARTESIAN_POINT('Ctrl Pts',(0.,12.7722279634503,18.726094842713));
#505=CARTESIAN_POINT('Origin',(0.,-9.,0.));
#506=CARTESIAN_POINT('',(0.,-10.,0.));
#507=CARTESIAN_POINT('Origin',(0.,0.,0.));
#508=CARTESIAN_POINT('',(0.,-8.,0.));
#509=CARTESIAN_POINT('Origin',(0.,0.,0.));
#510=CARTESIAN_POINT('Origin',(0.,0.,8.));
#511=CARTESIAN_POINT('',(0.,-10.,16.));
#512=CARTESIAN_POINT('Origin',(0.,0.,16.));
#513=CARTESIAN_POINT('Origin',(0.,-12.,16.));
#514=CARTESIAN_POINT('',(0.,-14.,16.));
#515=CARTESIAN_POINT('Origin',(0.,0.,16.));
#516=CARTESIAN_POINT('Origin',(0.,0.,17.198557158515));
#517=CARTESIAN_POINT('',(0.,-14.,18.39711431703));
#518=CARTESIAN_POINT('Origin',(0.,0.,18.39711431703));
#519=CARTESIAN_POINT('Origin',(0.,0.,18.698557158515));
#520=CARTESIAN_POINT('Origin',(0.,0.,27.5));
#521=CARTESIAN_POINT('',(0.,-11.75,36.));
#522=CARTESIAN_POINT('Origin',(0.,0.,36.));
#523=CARTESIAN_POINT('Origin',(0.,-10.2,36.));
#524=CARTESIAN_POINT('Origin',(0.,-7.825,23.1));
#525=CARTESIAN_POINT('',(0.,-7.00000000000001,23.1));
#526=CARTESIAN_POINT('Origin',(0.,0.,23.1));
#527=CARTESIAN_POINT('Origin',(0.,0.,18.65));
#528=CARTESIAN_POINT('',(0.,-7.,14.2));
#529=CARTESIAN_POINT('Origin',(0.,0.,14.2));
#530=CARTESIAN_POINT('Origin',(0.,-7.5,14.2));
#531=CARTESIAN_POINT('',(0.,-8.00000000000001,14.2));
#532=CARTESIAN_POINT('Origin',(0.,0.,14.2));
#533=CARTESIAN_POINT('Origin',(0.,0.,7.1));
#534=UNCERTAINTY_MEASURE_WITH_UNIT(LENGTH_MEASURE(0.01),#536,
'DISTANCE_ACCURACY_VALUE',
'Maximum model space distance between geometric entities at asserted c
onnectivities');
#535=(
GEOMETRIC_REPRESENTATION_CONTEXT(3)
GLOBAL_UNCERTAINTY_ASSIGNED_CONTEXT((#534))
GLOBAL_UNIT_ASSIGNED_CONTEXT((#536,#539,#537))
REPRESENTATION_CONTEXT('','3D')
);
#536=(
LENGTH_UNIT()
NAMED_UNIT(*)
SI_UNIT(.MILLI.,.METRE.)
);
#537=(
NAMED_UNIT(*)
SI_UNIT($,.STERADIAN.)
SOLID_ANGLE_UNIT()
);
#538=DIMENSIONAL_EXPONENTS(0.,0.,0.,0.,0.,0.,0.);
#539=(
CONVERSION_BASED_UNIT('degree',#541)
NAMED_UNIT(#538)
PLANE_ANGLE_UNIT()
);
#540=(
NAMED_UNIT(*)
PLANE_ANGLE_UNIT()
SI_UNIT($,.RADIAN.)
);
#541=PLANE_ANGLE_MEASURE_WITH_UNIT(PLANE_ANGLE_MEASURE(0.01745329252),#540);
#542=SHAPE_DEFINITION_REPRESENTATION(#543,#544);
#543=PRODUCT_DEFINITION_SHAPE('',$,#546);
#544=SHAPE_REPRESENTATION('',(#314),#535);
#545=PRODUCT_DEFINITION_CONTEXT('3D Mechanical Parts',#549,'design');
#546=PRODUCT_DEFINITION('DIFV020016038','DIFV020016038',#547,#545);
#547=PRODUCT_DEFINITION_FORMATION('',$,#551);
#548=APPLICATION_PROTOCOL_DEFINITION('international standard',
'automotive_design',2009,#549);
#549=APPLICATION_CONTEXT(
'Core Data for Automotive Mechanical Design Process');
#550=PRODUCT_CONTEXT('3D Mechanical Parts',#549,'mechanical');
#551=PRODUCT('DIFV020016038','DIFV020016038',$,(#550));
#552=PRESENTATION_STYLE_ASSIGNMENT((#554));
#553=PRESENTATION_STYLE_ASSIGNMENT((#555));
#554=SURFACE_STYLE_USAGE(.BOTH.,#556);
#555=SURFACE_STYLE_USAGE(.BOTH.,#557);
#556=SURFACE_SIDE_STYLE($,(#558));
#557=SURFACE_SIDE_STYLE($,(#559));
#558=SURFACE_STYLE_FILL_AREA(#560);
#559=SURFACE_STYLE_FILL_AREA(#561);
#560=FILL_AREA_STYLE($,(#562));
#561=FILL_AREA_STYLE($,(#563));
#562=FILL_AREA_STYLE_COLOUR($,#564);
#563=FILL_AREA_STYLE_COLOUR($,#565);
#564=COLOUR_RGB('',0.509803921568627,0.509803921568627,0.588235294117647);
#565=COLOUR_RGB('',1.,0.,0.);
ENDSEC;
END-ISO-10303-21;
