ISO-10303-21;
HEADER;
FILE_DESCRIPTION( ( 'STEP AP214' ), '1' );
FILE_NAME( 'p:/temp/worker_10/temp/exporttempdir_4344_807_rKuOy/format_0/22050011007(architecture400).stp', '2021-11-17T11:35:01', ( 'License CC BY-ND 4.0' ), ( 'CADENAS' ), ' ', 'PARTsolutions', ' ' );
FILE_SCHEMA( ( 'AUTOMOTIVE_DESIGN { 1 0 10303 214 1 1 1 1 }' ) );
ENDSEC;
DATA;
#1 = MECHANICAL_DESIGN_GEOMETRIC_PRESENTATION_REPRESENTATION( ' ', ( #10, #11, #12, #13, #14, #15, #16, #17, #18, #19, #20, #21 ), #6 );
#2 = PRODUCT_DEFINITION_CONTEXT( '', #22, 'design' );
#3 = APPLICATION_PROTOCOL_DEFINITION( 'international standard', 'automotive_design', 2001, #22 );
#4 = PRODUCT_CATEGORY_RELATIONSHIP( 'NONE', 'NONE', #23, #24 );
#5 = SHAPE_DEFINITION_REPRESENTATION( #25, #26 );
#6 =  ( GEOMETRIC_REPRESENTATION_CONTEXT( 3 )GLOBAL_UNCERTAINTY_ASSIGNED_CONTEXT( ( #29 ) )GLOBAL_UNIT_ASSIGNED_CONTEXT( ( #31, #32, #33 ) )REPRESENTATION_CONTEXT( 'NONE', 'WORKSPACE' ) );
#10 = STYLED_ITEM( '', ( #35 ), #36 );
#11 = STYLED_ITEM( '', ( #37 ), #38 );
#12 = STYLED_ITEM( '', ( #39 ), #40 );
#13 = STYLED_ITEM( '', ( #41 ), #42 );
#14 = STYLED_ITEM( '', ( #43 ), #44 );
#15 = STYLED_ITEM( '', ( #45 ), #46 );
#16 = STYLED_ITEM( '', ( #47 ), #48 );
#17 = STYLED_ITEM( '', ( #49 ), #50 );
#18 = STYLED_ITEM( '', ( #51 ), #52 );
#19 = STYLED_ITEM( '', ( #53 ), #54 );
#20 = STYLED_ITEM( '', ( #55 ), #56 );
#21 = STYLED_ITEM( '', ( #57 ), #58 );
#22 = APPLICATION_CONTEXT( 'core data for automotive mechanical design processes' );
#23 = PRODUCT_CATEGORY( 'part', 'NONE' );
#24 = PRODUCT_RELATED_PRODUCT_CATEGORY( 'detail', ' ', ( #59 ) );
#25 = PRODUCT_DEFINITION_SHAPE( 'NONE', 'NONE', #60 );
#26 = ADVANCED_BREP_SHAPE_REPRESENTATION( '_22050011007(architecture400)', ( #61, #62 ), #6 );
#29 = UNCERTAINTY_MEASURE_WITH_UNIT( LENGTH_MEASURE( 0.00100000000000000 ), #31, '', '' );
#31 =  ( CONVERSION_BASED_UNIT( 'MILLIMETRE', #65 )LENGTH_UNIT(  )NAMED_UNIT( #68 ) );
#32 =  ( NAMED_UNIT( #70 )PLANE_ANGLE_UNIT(  )SI_UNIT( $, .RADIAN. ) );
#33 =  ( NAMED_UNIT( #70 )SI_UNIT( $, .STERADIAN. )SOLID_ANGLE_UNIT(  ) );
#35 = PRESENTATION_STYLE_ASSIGNMENT( ( #76 ) );
#36 = ADVANCED_FACE( '', ( #77, #78 ), #79, .T. );
#37 = PRESENTATION_STYLE_ASSIGNMENT( ( #80 ) );
#38 = ADVANCED_FACE( '', ( #81, #82 ), #83, .F. );
#39 = PRESENTATION_STYLE_ASSIGNMENT( ( #84 ) );
#40 = ADVANCED_FACE( '', ( #85, #86 ), #87, .T. );
#41 = PRESENTATION_STYLE_ASSIGNMENT( ( #88 ) );
#42 = ADVANCED_FACE( '', ( #89, #90 ), #91, .F. );
#43 = PRESENTATION_STYLE_ASSIGNMENT( ( #92 ) );
#44 = ADVANCED_FACE( '', ( #93, #94 ), #95, .T. );
#45 = PRESENTATION_STYLE_ASSIGNMENT( ( #96 ) );
#46 = ADVANCED_FACE( '', ( #97, #98 ), #99, .F. );
#47 = PRESENTATION_STYLE_ASSIGNMENT( ( #100 ) );
#48 = ADVANCED_FACE( '', ( #101, #102 ), #103, .F. );
#49 = PRESENTATION_STYLE_ASSIGNMENT( ( #104 ) );
#50 = ADVANCED_FACE( '', ( #105 ), #106, .T. );
#51 = PRESENTATION_STYLE_ASSIGNMENT( ( #107 ) );
#52 = ADVANCED_FACE( '', ( #108, #109 ), #110, .T. );
#53 = PRESENTATION_STYLE_ASSIGNMENT( ( #111 ) );
#54 = ADVANCED_FACE( '', ( #112, #113 ), #114, .F. );
#55 = PRESENTATION_STYLE_ASSIGNMENT( ( #115 ) );
#56 = ADVANCED_FACE( '', ( #116, #117 ), #118, .F. );
#57 = PRESENTATION_STYLE_ASSIGNMENT( ( #119 ) );
#58 = ADVANCED_FACE( '', ( #120 ), #121, .F. );
#59 = PRODUCT( '_22050011007(architecture400)', '_22050011007(architecture400)', 'PART-_22050011007(architecture400)-DESC', ( #122 ) );
#60 = PRODUCT_DEFINITION( 'NONE', 'NONE', #123, #2 );
#61 = MANIFOLD_SOLID_BREP( '_22050011007(architecture400)', #124 );
#62 = AXIS2_PLACEMENT_3D( '', #125, #126, #127 );
#65 = LENGTH_MEASURE_WITH_UNIT( LENGTH_MEASURE( 1.00000000000000 ), #128 );
#68 = DIMENSIONAL_EXPONENTS( 1.00000000000000, 0.000000000000000, 0.000000000000000, 0.000000000000000, 0.000000000000000, 0.000000000000000, 0.000000000000000 );
#70 = DIMENSIONAL_EXPONENTS( 0.000000000000000, 0.000000000000000, 0.000000000000000, 0.000000000000000, 0.000000000000000, 0.000000000000000, 0.000000000000000 );
#76 = SURFACE_STYLE_USAGE( .BOTH., #129 );
#77 = FACE_OUTER_BOUND( '', #130, .T. );
#78 = FACE_OUTER_BOUND( '', #131, .T. );
#79 = CYLINDRICAL_SURFACE( '', #132, 67.5000000000000 );
#80 = SURFACE_STYLE_USAGE( .BOTH., #133 );
#81 = FACE_OUTER_BOUND( '', #134, .T. );
#82 = FACE_OUTER_BOUND( '', #135, .T. );
#83 = CYLINDRICAL_SURFACE( '', #136, 55.0000000000000 );
#84 = SURFACE_STYLE_USAGE( .BOTH., #137 );
#85 = FACE_BOUND( '', #138, .T. );
#86 = FACE_OUTER_BOUND( '', #139, .T. );
#87 = PLANE( '', #140 );
#88 = SURFACE_STYLE_USAGE( .BOTH., #141 );
#89 = FACE_BOUND( '', #142, .T. );
#90 = FACE_OUTER_BOUND( '', #143, .T. );
#91 = PLANE( '', #144 );
#92 = SURFACE_STYLE_USAGE( .BOTH., #145 );
#93 = FACE_OUTER_BOUND( '', #146, .T. );
#94 = FACE_BOUND( '', #147, .T. );
#95 = PLANE( '', #148 );
#96 = SURFACE_STYLE_USAGE( .BOTH., #149 );
#97 = FACE_OUTER_BOUND( '', #150, .T. );
#98 = FACE_OUTER_BOUND( '', #151, .T. );
#99 = CYLINDRICAL_SURFACE( '', #152, 50.8333333333000 );
#100 = SURFACE_STYLE_USAGE( .BOTH., #153 );
#101 = FACE_OUTER_BOUND( '', #154, .T. );
#102 = FACE_OUTER_BOUND( '', #155, .T. );
#103 = CYLINDRICAL_SURFACE( '', #156, 55.0000000000000 );
#104 = SURFACE_STYLE_USAGE( .BOTH., #157 );
#105 = FACE_OUTER_BOUND( '', #158, .T. );
#106 = SPHERICAL_SURFACE( '', #159, 67.5000000000000 );
#107 = SURFACE_STYLE_USAGE( .BOTH., #160 );
#108 = FACE_OUTER_BOUND( '', #161, .T. );
#109 = FACE_OUTER_BOUND( '', #162, .T. );
#110 = CYLINDRICAL_SURFACE( '', #163, 67.5000000000000 );
#111 = SURFACE_STYLE_USAGE( .BOTH., #164 );
#112 = FACE_BOUND( '', #165, .T. );
#113 = FACE_OUTER_BOUND( '', #166, .T. );
#114 = PLANE( '', #167 );
#115 = SURFACE_STYLE_USAGE( .BOTH., #168 );
#116 = FACE_OUTER_BOUND( '', #169, .T. );
#117 = FACE_OUTER_BOUND( '', #170, .T. );
#118 = CYLINDRICAL_SURFACE( '', #171, 50.8333333333000 );
#119 = SURFACE_STYLE_USAGE( .BOTH., #172 );
#120 = FACE_OUTER_BOUND( '', #173, .T. );
#121 = SPHERICAL_SURFACE( '', #174, 50.8333333333000 );
#122 = PRODUCT_CONTEXT( '', #22, 'mechanical' );
#123 = PRODUCT_DEFINITION_FORMATION_WITH_SPECIFIED_SOURCE( ' ', 'NONE', #59, .NOT_KNOWN. );
#124 = CLOSED_SHELL( '', ( #54, #52, #50, #36, #56, #40, #38, #42, #48, #44, #46, #58 ) );
#125 = CARTESIAN_POINT( '', ( 0.000000000000000, 0.000000000000000, 0.000000000000000 ) );
#126 = DIRECTION( '', ( 0.000000000000000, 0.000000000000000, 1.00000000000000 ) );
#127 = DIRECTION( '', ( 1.00000000000000, 0.000000000000000, 0.000000000000000 ) );
#128 =  ( LENGTH_UNIT(  )NAMED_UNIT( #68 )SI_UNIT( .MILLI., .METRE. ) );
#129 = SURFACE_SIDE_STYLE( '', ( #176 ) );
#130 = EDGE_LOOP( '', ( #177 ) );
#131 = EDGE_LOOP( '', ( #178, #179 ) );
#132 = AXIS2_PLACEMENT_3D( '', #180, #181, #182 );
#133 = SURFACE_SIDE_STYLE( '', ( #183 ) );
#134 = EDGE_LOOP( '', ( #184 ) );
#135 = EDGE_LOOP( '', ( #185 ) );
#136 = AXIS2_PLACEMENT_3D( '', #186, #187, #188 );
#137 = SURFACE_SIDE_STYLE( '', ( #189 ) );
#138 = EDGE_LOOP( '', ( #190 ) );
#139 = EDGE_LOOP( '', ( #191 ) );
#140 = AXIS2_PLACEMENT_3D( '', #192, #193, #194 );
#141 = SURFACE_SIDE_STYLE( '', ( #195 ) );
#142 = EDGE_LOOP( '', ( #196 ) );
#143 = EDGE_LOOP( '', ( #197 ) );
#144 = AXIS2_PLACEMENT_3D( '', #198, #199, #200 );
#145 = SURFACE_SIDE_STYLE( '', ( #201 ) );
#146 = EDGE_LOOP( '', ( #202 ) );
#147 = EDGE_LOOP( '', ( #203 ) );
#148 = AXIS2_PLACEMENT_3D( '', #204, #205, #206 );
#149 = SURFACE_SIDE_STYLE( '', ( #207 ) );
#150 = EDGE_LOOP( '', ( #208 ) );
#151 = EDGE_LOOP( '', ( #209, #210 ) );
#152 = AXIS2_PLACEMENT_3D( '', #211, #212, #213 );
#153 = SURFACE_SIDE_STYLE( '', ( #214 ) );
#154 = EDGE_LOOP( '', ( #215 ) );
#155 = EDGE_LOOP( '', ( #216 ) );
#156 = AXIS2_PLACEMENT_3D( '', #217, #218, #219 );
#157 = SURFACE_SIDE_STYLE( '', ( #220 ) );
#158 = EDGE_LOOP( '', ( #221, #222 ) );
#159 = AXIS2_PLACEMENT_3D( '', #223, #224, #225 );
#160 = SURFACE_SIDE_STYLE( '', ( #226 ) );
#161 = EDGE_LOOP( '', ( #227 ) );
#162 = EDGE_LOOP( '', ( #228, #229 ) );
#163 = AXIS2_PLACEMENT_3D( '', #230, #231, #232 );
#164 = SURFACE_SIDE_STYLE( '', ( #233 ) );
#165 = EDGE_LOOP( '', ( #234 ) );
#166 = EDGE_LOOP( '', ( #235 ) );
#167 = AXIS2_PLACEMENT_3D( '', #236, #237, #238 );
#168 = SURFACE_SIDE_STYLE( '', ( #239 ) );
#169 = EDGE_LOOP( '', ( #240, #241 ) );
#170 = EDGE_LOOP( '', ( #242 ) );
#171 = AXIS2_PLACEMENT_3D( '', #243, #244, #245 );
#172 = SURFACE_SIDE_STYLE( '', ( #246 ) );
#173 = EDGE_LOOP( '', ( #247, #248 ) );
#174 = AXIS2_PLACEMENT_3D( '', #249, #250, #251 );
#176 = SURFACE_STYLE_FILL_AREA( #252 );
#177 = ORIENTED_EDGE( '', *, *, #253, .F. );
#178 = ORIENTED_EDGE( '', *, *, #254, .T. );
#179 = ORIENTED_EDGE( '', *, *, #255, .T. );
#180 = CARTESIAN_POINT( '', ( 50.2045814642449, 0.000000000000000, 78.2045814642449 ) );
#181 = DIRECTION( '', ( -0.707106781186547, 0.000000000000000, -0.707106781186548 ) );
#182 = DIRECTION( '', ( 0.707106781186548, 0.000000000000000, -0.707106781186547 ) );
#183 = SURFACE_STYLE_FILL_AREA( #256 );
#184 = ORIENTED_EDGE( '', *, *, #257, .T. );
#185 = ORIENTED_EDGE( '', *, *, #258, .T. );
#186 = CARTESIAN_POINT( '', ( 0.000000000000000, 0.000000000000000, 78.8333333333333 ) );
#187 = DIRECTION( '', ( -0.000000000000000, 0.000000000000000, -1.00000000000000 ) );
#188 = DIRECTION( '', ( 1.00000000000000, 0.000000000000000, 0.000000000000000 ) );
#189 = SURFACE_STYLE_FILL_AREA( #259 );
#190 = ORIENTED_EDGE( '', *, *, #260, .T. );
#191 = ORIENTED_EDGE( '', *, *, #257, .F. );
#192 = CARTESIAN_POINT( '', ( -55.0000000000000, 0.000000000000000, -3.46944695195361E-15 ) );
#193 = DIRECTION( '', ( 0.000000000000000, 0.000000000000000, -1.00000000000000 ) );
#194 = DIRECTION( '', ( -1.00000000000000, 0.000000000000000, 0.000000000000000 ) );
#195 = SURFACE_STYLE_FILL_AREA( #261 );
#196 = ORIENTED_EDGE( '', *, *, #262, .F. );
#197 = ORIENTED_EDGE( '', *, *, #253, .T. );
#198 = CARTESIAN_POINT( '', ( 2.47487373415290, 0.000000000000000, 125.934289194337 ) );
#199 = DIRECTION( '', ( -0.707106781186547, 0.000000000000000, -0.707106781186548 ) );
#200 = DIRECTION( '', ( -0.707106781186548, 0.000000000000000, 0.707106781186547 ) );
#201 = SURFACE_STYLE_FILL_AREA( #263 );
#202 = ORIENTED_EDGE( '', *, *, #264, .T. );
#203 = ORIENTED_EDGE( '', *, *, #265, .F. );
#204 = CARTESIAN_POINT( '', ( -16.1456048370928, 0.000000000000000, 83.7435845835395 ) );
#205 = DIRECTION( '', ( 0.707106781186547, -0.000000000000000, 0.707106781186548 ) );
#206 = DIRECTION( '', ( 0.707106781186548, 0.000000000000000, -0.707106781186547 ) );
#207 = SURFACE_STYLE_FILL_AREA( #266 );
#208 = ORIENTED_EDGE( '', *, *, #265, .T. );
#209 = ORIENTED_EDGE( '', *, *, #267, .F. );
#210 = ORIENTED_EDGE( '', *, *, #268, .F. );
#211 = CARTESIAN_POINT( '', ( 50.9116882454314, 0.000000000000000, 78.9116882454314 ) );
#212 = DIRECTION( '', ( -0.707106781186547, 0.000000000000000, -0.707106781186548 ) );
#213 = DIRECTION( '', ( 0.707106781186548, 0.000000000000000, -0.707106781186548 ) );
#214 = SURFACE_STYLE_FILL_AREA( #269 );
#215 = ORIENTED_EDGE( '', *, *, #262, .T. );
#216 = ORIENTED_EDGE( '', *, *, #264, .F. );
#217 = CARTESIAN_POINT( '', ( 50.9116882454314, 0.000000000000000, 78.9116882454314 ) );
#218 = DIRECTION( '', ( -0.707106781186547, 0.000000000000000, -0.707106781186548 ) );
#219 = DIRECTION( '', ( 0.707106781186548, 0.000000000000000, -0.707106781186547 ) );
#220 = SURFACE_STYLE_FILL_AREA( #270 );
#221 = ORIENTED_EDGE( '', *, *, #271, .T. );
#222 = ORIENTED_EDGE( '', *, *, #254, .F. );
#223 = CARTESIAN_POINT( '', ( 0.000000000000000, 0.000000000000000, 28.0000000000000 ) );
#224 = DIRECTION( '', ( 0.000000000000000, 0.000000000000000, 1.00000000000000 ) );
#225 = DIRECTION( '', ( 1.00000000000000, 0.000000000000000, 0.000000000000000 ) );
#226 = SURFACE_STYLE_FILL_AREA( #272 );
#227 = ORIENTED_EDGE( '', *, *, #273, .T. );
#228 = ORIENTED_EDGE( '', *, *, #255, .F. );
#229 = ORIENTED_EDGE( '', *, *, #271, .F. );
#230 = CARTESIAN_POINT( '', ( 0.000000000000000, 0.000000000000000, 28.0000000000000 ) );
#231 = DIRECTION( '', ( 0.000000000000000, -0.000000000000000, 1.00000000000000 ) );
#232 = DIRECTION( '', ( -1.00000000000000, 0.000000000000000, 0.000000000000000 ) );
#233 = SURFACE_STYLE_FILL_AREA( #274 );
#234 = ORIENTED_EDGE( '', *, *, #258, .F. );
#235 = ORIENTED_EDGE( '', *, *, #273, .F. );
#236 = CARTESIAN_POINT( '', ( 0.000000000000000, 0.000000000000000, -43.0000000000000 ) );
#237 = DIRECTION( '', ( 0.000000000000000, 0.000000000000000, 1.00000000000000 ) );
#238 = DIRECTION( '', ( 1.00000000000000, 0.000000000000000, -0.000000000000000 ) );
#239 = SURFACE_STYLE_FILL_AREA( #275 );
#240 = ORIENTED_EDGE( '', *, *, #267, .T. );
#241 = ORIENTED_EDGE( '', *, *, #276, .T. );
#242 = ORIENTED_EDGE( '', *, *, #260, .F. );
#243 = CARTESIAN_POINT( '', ( 0.000000000000000, 0.000000000000000, 78.8333333333333 ) );
#244 = DIRECTION( '', ( -0.000000000000000, 0.000000000000000, -1.00000000000000 ) );
#245 = DIRECTION( '', ( 1.00000000000000, 0.000000000000000, 0.000000000000000 ) );
#246 = SURFACE_STYLE_FILL_AREA( #277 );
#247 = ORIENTED_EDGE( '', *, *, #276, .F. );
#248 = ORIENTED_EDGE( '', *, *, #268, .T. );
#249 = CARTESIAN_POINT( '', ( -2.08166817117217E-14, 0.000000000000000, 28.0000000000000 ) );
#250 = DIRECTION( '', ( 0.000000000000000, 0.000000000000000, 1.00000000000000 ) );
#251 = DIRECTION( '', ( 1.00000000000000, 0.000000000000000, 0.000000000000000 ) );
#252 = FILL_AREA_STYLE( '', ( #278 ) );
#253 = EDGE_CURVE( '', #279, #279, #280, .T. );
#254 = EDGE_CURVE( '', #281, #282, #283, .T. );
#255 = EDGE_CURVE( '', #282, #281, #284, .F. );
#256 = FILL_AREA_STYLE( '', ( #285 ) );
#257 = EDGE_CURVE( '', #286, #286, #287, .T. );
#258 = EDGE_CURVE( '', #288, #288, #289, .F. );
#259 = FILL_AREA_STYLE( '', ( #290 ) );
#260 = EDGE_CURVE( '', #291, #291, #292, .T. );
#261 = FILL_AREA_STYLE( '', ( #293 ) );
#262 = EDGE_CURVE( '', #294, #294, #295, .F. );
#263 = FILL_AREA_STYLE( '', ( #296 ) );
#264 = EDGE_CURVE( '', #297, #297, #298, .T. );
#265 = EDGE_CURVE( '', #299, #299, #300, .T. );
#266 = FILL_AREA_STYLE( '', ( #301 ) );
#267 = EDGE_CURVE( '', #302, #303, #304, .T. );
#268 = EDGE_CURVE( '', #303, #302, #305, .T. );
#269 = FILL_AREA_STYLE( '', ( #306 ) );
#270 = FILL_AREA_STYLE( '', ( #307 ) );
#271 = EDGE_CURVE( '', #281, #282, #308, .T. );
#272 = FILL_AREA_STYLE( '', ( #309 ) );
#273 = EDGE_CURVE( '', #310, #310, #311, .T. );
#274 = FILL_AREA_STYLE( '', ( #312 ) );
#275 = FILL_AREA_STYLE( '', ( #313 ) );
#276 = EDGE_CURVE( '', #303, #302, #314, .T. );
#277 = FILL_AREA_STYLE( '', ( #315 ) );
#278 = FILL_AREA_STYLE_COLOUR( '', #316 );
#279 = VERTEX_POINT( '', #317 );
#280 = CIRCLE( '', #318, 67.5000000000000 );
#281 = VERTEX_POINT( '', #319 );
#282 = VERTEX_POINT( '', #320 );
#283 = CIRCLE( '', #321, 67.5000000000000 );
#284 = ELLIPSE( '', #322, 73.0614735197000, 67.5000000000000 );
#285 = FILL_AREA_STYLE_COLOUR( '', #323 );
#286 = VERTEX_POINT( '', #324 );
#287 = CIRCLE( '', #325, 55.0000000000000 );
#288 = VERTEX_POINT( '', #326 );
#289 = CIRCLE( '', #327, 55.0000000000000 );
#290 = FILL_AREA_STYLE_COLOUR( '', #328 );
#291 = VERTEX_POINT( '', #329 );
#292 = CIRCLE( '', #330, 50.8333333333000 );
#293 = FILL_AREA_STYLE_COLOUR( '', #331 );
#294 = VERTEX_POINT( '', #332 );
#295 = CIRCLE( '', #333, 55.0000000000000 );
#296 = FILL_AREA_STYLE_COLOUR( '', #334 );
#297 = VERTEX_POINT( '', #335 );
#298 = CIRCLE( '', #336, 55.0000000000000 );
#299 = VERTEX_POINT( '', #337 );
#300 = CIRCLE( '', #338, 50.8333333333000 );
#301 = FILL_AREA_STYLE_COLOUR( '', #339 );
#302 = VERTEX_POINT( '', #340 );
#303 = VERTEX_POINT( '', #341 );
#304 = ELLIPSE( '', #342, 55.0216035149000, 50.8333333333000 );
#305 = CIRCLE( '', #343, 50.8333333333000 );
#306 = FILL_AREA_STYLE_COLOUR( '', #344 );
#307 = FILL_AREA_STYLE_COLOUR( '', #345 );
#308 = CIRCLE( '', #346, 67.5000000000000 );
#309 = FILL_AREA_STYLE_COLOUR( '', #347 );
#310 = VERTEX_POINT( '', #348 );
#311 = CIRCLE( '', #349, 67.5000000000000 );
#312 = FILL_AREA_STYLE_COLOUR( '', #350 );
#313 = FILL_AREA_STYLE_COLOUR( '', #351 );
#314 = CIRCLE( '', #352, 50.8333333333000 );
#315 = FILL_AREA_STYLE_COLOUR( '', #353 );
#316 = COLOUR_RGB( '', 0.689999997600000, 0.689999997600000, 0.689999997600000 );
#317 = CARTESIAN_POINT( '', ( 97.9342891943368, 0.000000000000000, 30.4748737341529 ) );
#318 = AXIS2_PLACEMENT_3D( '', #354, #355, #356 );
#319 = CARTESIAN_POINT( '', ( -5.92271641864701E-15, 67.5000000000000, 28.0000000000000 ) );
#320 = CARTESIAN_POINT( '', ( 2.54044371315050E-16, -67.5000000000000, 28.0000000000000 ) );
#321 = AXIS2_PLACEMENT_3D( '', #357, #358, #359 );
#322 = AXIS2_PLACEMENT_3D( '', #360, #361, #362 );
#323 = COLOUR_RGB( '', 0.689999997600000, 0.689999997600000, 0.689999997600000 );
#324 = CARTESIAN_POINT( '', ( 55.0000000000000, 0.000000000000000, 0.000000000000000 ) );
#325 = AXIS2_PLACEMENT_3D( '', #363, #364, #365 );
#326 = CARTESIAN_POINT( '', ( 55.0000000000000, 0.000000000000000, -43.0000000000000 ) );
#327 = AXIS2_PLACEMENT_3D( '', #366, #367, #368 );
#328 = COLOUR_RGB( '', 0.689999997600000, 0.689999997600000, 0.689999997600000 );
#329 = CARTESIAN_POINT( '', ( 50.8333333333333, 0.000000000000000, 0.000000000000000 ) );
#330 = AXIS2_PLACEMENT_3D( '', #369, #370, #371 );
#331 = COLOUR_RGB( '', 0.689999997600000, 0.689999997600000, 0.689999997600000 );
#332 = CARTESIAN_POINT( '', ( 11.3137084989847, 0.000000000000000, 117.095454429505 ) );
#333 = AXIS2_PLACEMENT_3D( '', #372, #373, #374 );
#334 = COLOUR_RGB( '', 0.689999997600000, 0.689999997600000, 0.689999997600000 );
#335 = CARTESIAN_POINT( '', ( 58.6898628384834, 0.000000000000000, 8.90811690796321 ) );
#336 = AXIS2_PLACEMENT_3D( '', #375, #376, #377 );
#337 = CARTESIAN_POINT( '', ( 55.7435845835395, 0.000000000000000, 11.8543951629072 ) );
#338 = AXIS2_PLACEMENT_3D( '', #378, #379, #380 );
#339 = COLOUR_RGB( '', 0.689999997600000, 0.689999997600000, 0.689999997600000 );
#340 = CARTESIAN_POINT( '', ( -4.18799294267020E-15, -50.8333333333333, 28.0000000000000 ) );
#341 = CARTESIAN_POINT( '', ( 6.87725240309254E-16, 50.8333333333334, 28.0000000000000 ) );
#342 = AXIS2_PLACEMENT_3D( '', #381, #382, #383 );
#343 = AXIS2_PLACEMENT_3D( '', #384, #385, #386 );
#344 = COLOUR_RGB( '', 0.689999997600000, 0.689999997600000, 0.689999997600000 );
#345 = COLOUR_RGB( '', 0.689999997600000, 0.689999997600000, 0.689999997600000 );
#346 = AXIS2_PLACEMENT_3D( '', #387, #388, #389 );
#347 = COLOUR_RGB( '', 0.689999997600000, 0.689999997600000, 0.689999997600000 );
#348 = CARTESIAN_POINT( '', ( 67.5000000000000, 0.000000000000000, -43.0000000000000 ) );
#349 = AXIS2_PLACEMENT_3D( '', #390, #391, #392 );
#350 = COLOUR_RGB( '', 0.689999997600000, 0.689999997600000, 0.689999997600000 );
#351 = COLOUR_RGB( '', 0.689999997600000, 0.689999997600000, 0.689999997600000 );
#352 = AXIS2_PLACEMENT_3D( '', #393, #394, #395 );
#353 = COLOUR_RGB( '', 0.689999997600000, 0.689999997600000, 0.689999997600000 );
#354 = CARTESIAN_POINT( '', ( 50.2045814642449, 0.000000000000000, 78.2045814642449 ) );
#355 = DIRECTION( '', ( 0.707106781186547, -0.000000000000000, 0.707106781186548 ) );
#356 = DIRECTION( '', ( 0.707106781186548, 0.000000000000000, -0.707106781186547 ) );
#357 = CARTESIAN_POINT( '', ( 0.000000000000000, 0.000000000000000, 28.0000000000000 ) );
#358 = DIRECTION( '', ( 0.707106781186547, -0.000000000000000, 0.707106781186548 ) );
#359 = DIRECTION( '', ( 0.707106781186548, 0.000000000000000, -0.707106781186547 ) );
#360 = CARTESIAN_POINT( '', ( -6.93889390390723E-15, 0.000000000000000, 28.0000000000000 ) );
#361 = DIRECTION( '', ( -0.382683432365090, 0.000000000000000, -0.923879532511287 ) );
#362 = DIRECTION( '', ( 0.923879532511287, 0.000000000000000, -0.382683432365090 ) );
#363 = CARTESIAN_POINT( '', ( 0.000000000000000, 0.000000000000000, 0.000000000000000 ) );
#364 = DIRECTION( '', ( 0.000000000000000, -0.000000000000000, 1.00000000000000 ) );
#365 = DIRECTION( '', ( 1.00000000000000, 0.000000000000000, 0.000000000000000 ) );
#366 = CARTESIAN_POINT( '', ( 0.000000000000000, 0.000000000000000, -43.0000000000000 ) );
#367 = DIRECTION( '', ( 0.000000000000000, 0.000000000000000, 1.00000000000000 ) );
#368 = DIRECTION( '', ( 1.00000000000000, 0.000000000000000, -0.000000000000000 ) );
#369 = CARTESIAN_POINT( '', ( 0.000000000000000, 0.000000000000000, 0.000000000000000 ) );
#370 = DIRECTION( '', ( 0.000000000000000, -0.000000000000000, 1.00000000000000 ) );
#371 = DIRECTION( '', ( 1.00000000000000, 0.000000000000000, 0.000000000000000 ) );
#372 = CARTESIAN_POINT( '', ( 50.2045814642449, 0.000000000000000, 78.2045814642449 ) );
#373 = DIRECTION( '', ( -0.707106781186547, 0.000000000000000, -0.707106781186548 ) );
#374 = DIRECTION( '', ( -0.707106781186548, 0.000000000000000, 0.707106781186547 ) );
#375 = CARTESIAN_POINT( '', ( 19.7989898732233, 0.000000000000000, 47.7989898732233 ) );
#376 = DIRECTION( '', ( 0.707106781186547, -0.000000000000000, 0.707106781186548 ) );
#377 = DIRECTION( '', ( 0.707106781186548, 0.000000000000000, -0.707106781186547 ) );
#378 = CARTESIAN_POINT( '', ( 19.7989898732233, 0.000000000000000, 47.7989898732233 ) );
#379 = DIRECTION( '', ( 0.707106781186547, -0.000000000000000, 0.707106781186548 ) );
#380 = DIRECTION( '', ( 0.707106781186548, 0.000000000000000, -0.707106781186547 ) );
#381 = CARTESIAN_POINT( '', ( -6.93889390390723E-15, 0.000000000000000, 28.0000000000000 ) );
#382 = DIRECTION( '', ( 0.382683432365090, 0.000000000000000, 0.923879532511287 ) );
#383 = DIRECTION( '', ( -0.923879532511287, 0.000000000000000, 0.382683432365090 ) );
#384 = CARTESIAN_POINT( '', ( -1.38777878078145E-14, 0.000000000000000, 28.0000000000000 ) );
#385 = DIRECTION( '', ( 0.707106781186548, -0.000000000000000, 0.707106781186548 ) );
#386 = DIRECTION( '', ( 0.707106781186548, 0.000000000000000, -0.707106781186547 ) );
#387 = CARTESIAN_POINT( '', ( 0.000000000000000, 0.000000000000000, 28.0000000000000 ) );
#388 = DIRECTION( '', ( 0.000000000000000, 0.000000000000000, 1.00000000000000 ) );
#389 = DIRECTION( '', ( 1.00000000000000, 0.000000000000000, 0.000000000000000 ) );
#390 = CARTESIAN_POINT( '', ( 0.000000000000000, 0.000000000000000, -43.0000000000000 ) );
#391 = DIRECTION( '', ( 0.000000000000000, 0.000000000000000, 1.00000000000000 ) );
#392 = DIRECTION( '', ( 1.00000000000000, 0.000000000000000, 0.000000000000000 ) );
#393 = CARTESIAN_POINT( '', ( 0.000000000000000, 0.000000000000000, 28.0000000000000 ) );
#394 = DIRECTION( '', ( 0.000000000000000, -0.000000000000000, 1.00000000000000 ) );
#395 = DIRECTION( '', ( 1.00000000000000, 0.000000000000000, 0.000000000000000 ) );
ENDSEC;
END-ISO-10303-21;
