ISO-10303-21;
HEADER;
FILE_DESCRIPTION( ( 'STEP AP214' ), '1' );
FILE_NAME( 'p:/temp/worker_2/temp/exporttempdir_3888_224_nP19T/format_0/AGRU_11056002007_Tee_PPR grey_20 - MOP 20 bar (architecture400).stp', '2022-03-10T06:55:56', ( 'License CC BY-ND 4.0' ), ( 'CADENAS' ), ' ', 'PARTsolutions', ' ' );
FILE_SCHEMA( ( 'AUTOMOTIVE_DESIGN { 1 0 10303 214 1 1 1 1 }' ) );
ENDSEC;
DATA;
#1 = MECHANICAL_DESIGN_GEOMETRIC_PRESENTATION_REPRESENTATION( ' ', ( #10, #11, #12, #13, #14, #15, #16, #17, #18, #19, #20, #21, #22 ), #6 );
#2 = PRODUCT_DEFINITION_CONTEXT( '', #23, 'design' );
#3 = APPLICATION_PROTOCOL_DEFINITION( 'international standard', 'automotive_design', 2001, #23 );
#4 = PRODUCT_CATEGORY_RELATIONSHIP( 'NONE', 'NONE', #24, #25 );
#5 = SHAPE_DEFINITION_REPRESENTATION( #26, #27 );
#6 =  ( GEOMETRIC_REPRESENTATION_CONTEXT( 3 )GLOBAL_UNCERTAINTY_ASSIGNED_CONTEXT( ( #30 ) )GLOBAL_UNIT_ASSIGNED_CONTEXT( ( #32, #33, #34 ) )REPRESENTATION_CONTEXT( 'NONE', 'WORKSPACE' ) );
#10 = STYLED_ITEM( '', ( #36 ), #37 );
#11 = STYLED_ITEM( '', ( #38 ), #39 );
#12 = STYLED_ITEM( '', ( #40 ), #41 );
#13 = STYLED_ITEM( '', ( #42 ), #43 );
#14 = STYLED_ITEM( '', ( #44 ), #45 );
#15 = STYLED_ITEM( '', ( #46 ), #47 );
#16 = STYLED_ITEM( '', ( #48 ), #49 );
#17 = STYLED_ITEM( '', ( #50 ), #51 );
#18 = STYLED_ITEM( '', ( #52 ), #53 );
#19 = STYLED_ITEM( '', ( #54 ), #55 );
#20 = STYLED_ITEM( '', ( #56 ), #57 );
#21 = STYLED_ITEM( '', ( #58 ), #59 );
#22 = STYLED_ITEM( '', ( #60 ), #61 );
#23 = APPLICATION_CONTEXT( 'core data for automotive mechanical design processes' );
#24 = PRODUCT_CATEGORY( 'part', 'NONE' );
#25 = PRODUCT_RELATED_PRODUCT_CATEGORY( 'detail', ' ', ( #62 ) );
#26 = PRODUCT_DEFINITION_SHAPE( 'NONE', 'NONE', #63 );
#27 = ADVANCED_BREP_SHAPE_REPRESENTATION( '_AGRU_11056002007_Tee_PPR grey_20 - MOP 20 bar (architecture400)', ( #64, #65 ), #6 );
#30 = UNCERTAINTY_MEASURE_WITH_UNIT( LENGTH_MEASURE( 0.00100000000000000 ), #32, '', '' );
#32 =  ( CONVERSION_BASED_UNIT( 'MILLIMETRE', #68 )LENGTH_UNIT(  )NAMED_UNIT( #71 ) );
#33 =  ( NAMED_UNIT( #73 )PLANE_ANGLE_UNIT(  )SI_UNIT( $, .RADIAN. ) );
#34 =  ( NAMED_UNIT( #73 )SI_UNIT( $, .STERADIAN. )SOLID_ANGLE_UNIT(  ) );
#36 = PRESENTATION_STYLE_ASSIGNMENT( ( #79 ) );
#37 = ADVANCED_FACE( '', ( #80, #81 ), #82, .T. );
#38 = PRESENTATION_STYLE_ASSIGNMENT( ( #83 ) );
#39 = ADVANCED_FACE( '', ( #84, #85 ), #86, .F. );
#40 = PRESENTATION_STYLE_ASSIGNMENT( ( #87 ) );
#41 = ADVANCED_FACE( '', ( #88, #89 ), #90, .T. );
#42 = PRESENTATION_STYLE_ASSIGNMENT( ( #91 ) );
#43 = ADVANCED_FACE( '', ( #92, #93, #94 ), #95, .T. );
#44 = PRESENTATION_STYLE_ASSIGNMENT( ( #96 ) );
#45 = ADVANCED_FACE( '', ( #97, #98 ), #99, .T. );
#46 = PRESENTATION_STYLE_ASSIGNMENT( ( #100 ) );
#47 = ADVANCED_FACE( '', ( #101, #102 ), #103, .F. );
#48 = PRESENTATION_STYLE_ASSIGNMENT( ( #104 ) );
#49 = ADVANCED_FACE( '', ( #105, #106 ), #107, .T. );
#50 = PRESENTATION_STYLE_ASSIGNMENT( ( #108 ) );
#51 = ADVANCED_FACE( '', ( #109, #110 ), #111, .F. );
#52 = PRESENTATION_STYLE_ASSIGNMENT( ( #112 ) );
#53 = ADVANCED_FACE( '', ( #113, #114 ), #115, .T. );
#54 = PRESENTATION_STYLE_ASSIGNMENT( ( #116 ) );
#55 = ADVANCED_FACE( '', ( #117, #118 ), #119, .T. );
#56 = PRESENTATION_STYLE_ASSIGNMENT( ( #120 ) );
#57 = ADVANCED_FACE( '', ( #121, #122, #123 ), #124, .F. );
#58 = PRESENTATION_STYLE_ASSIGNMENT( ( #125 ) );
#59 = ADVANCED_FACE( '', ( #126, #127 ), #128, .F. );
#60 = PRESENTATION_STYLE_ASSIGNMENT( ( #129 ) );
#61 = ADVANCED_FACE( '', ( #130, #131 ), #132, .F. );
#62 = PRODUCT( '_AGRU_11056002007_Tee_PPR grey_20 - MOP 20 bar (architecture400)', '_AGRU_11056002007_Tee_PPR grey_20 - MOP 20 bar (architecture400)', 'PART-_AGRU_11056002007_Tee_PPR grey_20 - MOP 20 bar (architecture400)-DESC', ( #133 ) );
#63 = PRODUCT_DEFINITION( 'NONE', 'NONE', #134, #2 );
#64 = MANIFOLD_SOLID_BREP( '_AGRU_11056002007_Tee_PPR grey_20 - MOP 20 bar (architecture400)', #135 );
#65 = AXIS2_PLACEMENT_3D( '', #136, #137, #138 );
#68 = LENGTH_MEASURE_WITH_UNIT( LENGTH_MEASURE( 1.00000000000000 ), #139 );
#71 = DIMENSIONAL_EXPONENTS( 1.00000000000000, 0.000000000000000, 0.000000000000000, 0.000000000000000, 0.000000000000000, 0.000000000000000, 0.000000000000000 );
#73 = DIMENSIONAL_EXPONENTS( 0.000000000000000, 0.000000000000000, 0.000000000000000, 0.000000000000000, 0.000000000000000, 0.000000000000000, 0.000000000000000 );
#79 = SURFACE_STYLE_USAGE( .BOTH., #140 );
#80 = FACE_OUTER_BOUND( '', #141, .T. );
#81 = FACE_OUTER_BOUND( '', #142, .T. );
#82 = CYLINDRICAL_SURFACE( '', #143, 14.5500000000000 );
#83 = SURFACE_STYLE_USAGE( .BOTH., #144 );
#84 = FACE_OUTER_BOUND( '', #145, .T. );
#85 = FACE_OUTER_BOUND( '', #146, .T. );
#86 = CYLINDRICAL_SURFACE( '', #147, 8.48333333330000 );
#87 = SURFACE_STYLE_USAGE( .BOTH., #148 );
#88 = FACE_OUTER_BOUND( '', #149, .T. );
#89 = FACE_BOUND( '', #150, .T. );
#90 = PLANE( '', #151 );
#91 = SURFACE_STYLE_USAGE( .BOTH., #152 );
#92 = FACE_OUTER_BOUND( '', #153, .T. );
#93 = FACE_OUTER_BOUND( '', #154, .T. );
#94 = FACE_BOUND( '', #155, .T. );
#95 = CYLINDRICAL_SURFACE( '', #156, 14.5500000000000 );
#96 = SURFACE_STYLE_USAGE( .BOTH., #157 );
#97 = FACE_BOUND( '', #158, .T. );
#98 = FACE_OUTER_BOUND( '', #159, .T. );
#99 = PLANE( '', #160 );
#100 = SURFACE_STYLE_USAGE( .BOTH., #161 );
#101 = FACE_OUTER_BOUND( '', #162, .T. );
#102 = FACE_OUTER_BOUND( '', #163, .T. );
#103 = CYLINDRICAL_SURFACE( '', #164, 10.0000000000000 );
#104 = SURFACE_STYLE_USAGE( .BOTH., #165 );
#105 = FACE_BOUND( '', #166, .T. );
#106 = FACE_OUTER_BOUND( '', #167, .T. );
#107 = PLANE( '', #168 );
#108 = SURFACE_STYLE_USAGE( .BOTH., #169 );
#109 = FACE_BOUND( '', #170, .T. );
#110 = FACE_OUTER_BOUND( '', #171, .T. );
#111 = PLANE( '', #172 );
#112 = SURFACE_STYLE_USAGE( .BOTH., #173 );
#113 = FACE_BOUND( '', #174, .T. );
#114 = FACE_OUTER_BOUND( '', #175, .T. );
#115 = PLANE( '', #176 );
#116 = SURFACE_STYLE_USAGE( .BOTH., #177 );
#117 = FACE_BOUND( '', #178, .T. );
#118 = FACE_OUTER_BOUND( '', #179, .T. );
#119 = PLANE( '', #180 );
#120 = SURFACE_STYLE_USAGE( .BOTH., #181 );
#121 = FACE_OUTER_BOUND( '', #182, .T. );
#122 = FACE_BOUND( '', #183, .T. );
#123 = FACE_OUTER_BOUND( '', #184, .T. );
#124 = CYLINDRICAL_SURFACE( '', #185, 8.48333333330000 );
#125 = SURFACE_STYLE_USAGE( .BOTH., #186 );
#126 = FACE_OUTER_BOUND( '', #187, .T. );
#127 = FACE_OUTER_BOUND( '', #188, .T. );
#128 = CYLINDRICAL_SURFACE( '', #189, 10.0000000000000 );
#129 = SURFACE_STYLE_USAGE( .BOTH., #190 );
#130 = FACE_OUTER_BOUND( '', #191, .T. );
#131 = FACE_OUTER_BOUND( '', #192, .T. );
#132 = CYLINDRICAL_SURFACE( '', #193, 10.0000000000000 );
#133 = PRODUCT_CONTEXT( '', #23, 'mechanical' );
#134 = PRODUCT_DEFINITION_FORMATION_WITH_SPECIFIED_SOURCE( ' ', 'NONE', #62, .NOT_KNOWN. );
#135 = CLOSED_SHELL( '', ( #57, #43, #45, #51, #37, #55, #59, #53, #41, #61, #47, #49, #39 ) );
#136 = CARTESIAN_POINT( '', ( 0.000000000000000, 0.000000000000000, 0.000000000000000 ) );
#137 = DIRECTION( '', ( 0.000000000000000, 0.000000000000000, 1.00000000000000 ) );
#138 = DIRECTION( '', ( 1.00000000000000, 0.000000000000000, 0.000000000000000 ) );
#139 =  ( LENGTH_UNIT(  )NAMED_UNIT( #71 )SI_UNIT( .MILLI., .METRE. ) );
#140 = SURFACE_SIDE_STYLE( '', ( #195 ) );
#141 = EDGE_LOOP( '', ( #196 ) );
#142 = EDGE_LOOP( '', ( #197, #198 ) );
#143 = AXIS2_PLACEMENT_3D( '', #199, #200, #201 );
#144 = SURFACE_SIDE_STYLE( '', ( #202 ) );
#145 = EDGE_LOOP( '', ( #203, #204 ) );
#146 = EDGE_LOOP( '', ( #205 ) );
#147 = AXIS2_PLACEMENT_3D( '', #206, #207, #208 );
#148 = SURFACE_SIDE_STYLE( '', ( #209 ) );
#149 = EDGE_LOOP( '', ( #210 ) );
#150 = EDGE_LOOP( '', ( #211 ) );
#151 = AXIS2_PLACEMENT_3D( '', #212, #213, #214 );
#152 = SURFACE_SIDE_STYLE( '', ( #215 ) );
#153 = EDGE_LOOP( '', ( #216 ) );
#154 = EDGE_LOOP( '', ( #217 ) );
#155 = EDGE_LOOP( '', ( #218, #219 ) );
#156 = AXIS2_PLACEMENT_3D( '', #220, #221, #222 );
#157 = SURFACE_SIDE_STYLE( '', ( #223 ) );
#158 = EDGE_LOOP( '', ( #224 ) );
#159 = EDGE_LOOP( '', ( #225 ) );
#160 = AXIS2_PLACEMENT_3D( '', #226, #227, #228 );
#161 = SURFACE_SIDE_STYLE( '', ( #229 ) );
#162 = EDGE_LOOP( '', ( #230 ) );
#163 = EDGE_LOOP( '', ( #231 ) );
#164 = AXIS2_PLACEMENT_3D( '', #232, #233, #234 );
#165 = SURFACE_SIDE_STYLE( '', ( #235 ) );
#166 = EDGE_LOOP( '', ( #236 ) );
#167 = EDGE_LOOP( '', ( #237 ) );
#168 = AXIS2_PLACEMENT_3D( '', #238, #239, #240 );
#169 = SURFACE_SIDE_STYLE( '', ( #241 ) );
#170 = EDGE_LOOP( '', ( #242 ) );
#171 = EDGE_LOOP( '', ( #243 ) );
#172 = AXIS2_PLACEMENT_3D( '', #244, #245, #246 );
#173 = SURFACE_SIDE_STYLE( '', ( #247 ) );
#174 = EDGE_LOOP( '', ( #248 ) );
#175 = EDGE_LOOP( '', ( #249 ) );
#176 = AXIS2_PLACEMENT_3D( '', #250, #251, #252 );
#177 = SURFACE_SIDE_STYLE( '', ( #253 ) );
#178 = EDGE_LOOP( '', ( #254 ) );
#179 = EDGE_LOOP( '', ( #255 ) );
#180 = AXIS2_PLACEMENT_3D( '', #256, #257, #258 );
#181 = SURFACE_SIDE_STYLE( '', ( #259 ) );
#182 = EDGE_LOOP( '', ( #260 ) );
#183 = EDGE_LOOP( '', ( #261, #262 ) );
#184 = EDGE_LOOP( '', ( #263 ) );
#185 = AXIS2_PLACEMENT_3D( '', #264, #265, #266 );
#186 = SURFACE_SIDE_STYLE( '', ( #267 ) );
#187 = EDGE_LOOP( '', ( #268 ) );
#188 = EDGE_LOOP( '', ( #269 ) );
#189 = AXIS2_PLACEMENT_3D( '', #270, #271, #272 );
#190 = SURFACE_SIDE_STYLE( '', ( #273 ) );
#191 = EDGE_LOOP( '', ( #274 ) );
#192 = EDGE_LOOP( '', ( #275 ) );
#193 = AXIS2_PLACEMENT_3D( '', #276, #277, #278 );
#195 = SURFACE_STYLE_FILL_AREA( #279 );
#196 = ORIENTED_EDGE( '', *, *, #280, .F. );
#197 = ORIENTED_EDGE( '', *, *, #281, .T. );
#198 = ORIENTED_EDGE( '', *, *, #282, .T. );
#199 = CARTESIAN_POINT( '', ( -14.0000000000000, 0.000000000000000, 30.0000000000000 ) );
#200 = DIRECTION( '', ( 0.000000000000000, -0.000000000000000, 1.00000000000000 ) );
#201 = DIRECTION( '', ( -1.00000000000000, 0.000000000000000, 0.000000000000000 ) );
#202 = SURFACE_STYLE_FILL_AREA( #283 );
#203 = ORIENTED_EDGE( '', *, *, #284, .F. );
#204 = ORIENTED_EDGE( '', *, *, #285, .F. );
#205 = ORIENTED_EDGE( '', *, *, #286, .F. );
#206 = CARTESIAN_POINT( '', ( -14.0000000000000, 0.000000000000000, 0.000000000000000 ) );
#207 = DIRECTION( '', ( 0.000000000000000, -0.000000000000000, 1.00000000000000 ) );
#208 = DIRECTION( '', ( -1.00000000000000, 0.000000000000000, 0.000000000000000 ) );
#209 = SURFACE_STYLE_FILL_AREA( #287 );
#210 = ORIENTED_EDGE( '', *, *, #288, .T. );
#211 = ORIENTED_EDGE( '', *, *, #289, .F. );
#212 = CARTESIAN_POINT( '', ( 0.000000000000000, 0.000000000000000, 8.48333333333333 ) );
#213 = DIRECTION( '', ( 1.00000000000000, 0.000000000000000, -0.000000000000000 ) );
#214 = DIRECTION( '', ( -0.000000000000000, 0.000000000000000, -1.00000000000000 ) );
#215 = SURFACE_STYLE_FILL_AREA( #290 );
#216 = ORIENTED_EDGE( '', *, *, #291, .T. );
#217 = ORIENTED_EDGE( '', *, *, #292, .F. );
#218 = ORIENTED_EDGE( '', *, *, #282, .F. );
#219 = ORIENTED_EDGE( '', *, *, #281, .F. );
#220 = CARTESIAN_POINT( '', ( 16.0000000000000, 0.000000000000000, 0.000000000000000 ) );
#221 = DIRECTION( '', ( 1.00000000000000, -0.000000000000000, -0.000000000000000 ) );
#222 = DIRECTION( '', ( 0.000000000000000, 0.000000000000000, 1.00000000000000 ) );
#223 = SURFACE_STYLE_FILL_AREA( #293 );
#224 = ORIENTED_EDGE( '', *, *, #294, .F. );
#225 = ORIENTED_EDGE( '', *, *, #292, .T. );
#226 = CARTESIAN_POINT( '', ( 16.0000000000000, 0.000000000000000, 0.000000000000000 ) );
#227 = DIRECTION( '', ( 1.00000000000000, 0.000000000000000, 0.000000000000000 ) );
#228 = DIRECTION( '', ( 0.000000000000000, 0.000000000000000, -1.00000000000000 ) );
#229 = SURFACE_STYLE_FILL_AREA( #295 );
#230 = ORIENTED_EDGE( '', *, *, #296, .T. );
#231 = ORIENTED_EDGE( '', *, *, #297, .F. );
#232 = CARTESIAN_POINT( '', ( -14.0000000000000, 0.000000000000000, 0.000000000000000 ) );
#233 = DIRECTION( '', ( 0.000000000000000, -0.000000000000000, 1.00000000000000 ) );
#234 = DIRECTION( '', ( -1.00000000000000, 0.000000000000000, 0.000000000000000 ) );
#235 = SURFACE_STYLE_FILL_AREA( #298 );
#236 = ORIENTED_EDGE( '', *, *, #286, .T. );
#237 = ORIENTED_EDGE( '', *, *, #296, .F. );
#238 = CARTESIAN_POINT( '', ( -4.00000000000000, 0.000000000000000, 14.0000000000000 ) );
#239 = DIRECTION( '', ( 0.000000000000000, 0.000000000000000, 1.00000000000000 ) );
#240 = DIRECTION( '', ( 1.00000000000000, 0.000000000000000, -0.000000000000000 ) );
#241 = SURFACE_STYLE_FILL_AREA( #299 );
#242 = ORIENTED_EDGE( '', *, *, #300, .T. );
#243 = ORIENTED_EDGE( '', *, *, #291, .F. );
#244 = CARTESIAN_POINT( '', ( -44.0000000000000, 0.000000000000000, 0.000000000000000 ) );
#245 = DIRECTION( '', ( 1.00000000000000, 0.000000000000000, 0.000000000000000 ) );
#246 = DIRECTION( '', ( 0.000000000000000, 0.000000000000000, -1.00000000000000 ) );
#247 = SURFACE_STYLE_FILL_AREA( #301 );
#248 = ORIENTED_EDGE( '', *, *, #302, .T. );
#249 = ORIENTED_EDGE( '', *, *, #303, .F. );
#250 = CARTESIAN_POINT( '', ( -28.0000000000000, 0.000000000000000, 10.0000000000000 ) );
#251 = DIRECTION( '', ( -1.00000000000000, 0.000000000000000, 0.000000000000000 ) );
#252 = DIRECTION( '', ( 0.000000000000000, 0.000000000000000, 1.00000000000000 ) );
#253 = SURFACE_STYLE_FILL_AREA( #304 );
#254 = ORIENTED_EDGE( '', *, *, #297, .T. );
#255 = ORIENTED_EDGE( '', *, *, #280, .T. );
#256 = CARTESIAN_POINT( '', ( -14.0000000000000, 0.000000000000000, 30.0000000000000 ) );
#257 = DIRECTION( '', ( 0.000000000000000, 0.000000000000000, 1.00000000000000 ) );
#258 = DIRECTION( '', ( 1.00000000000000, 0.000000000000000, -0.000000000000000 ) );
#259 = SURFACE_STYLE_FILL_AREA( #305 );
#260 = ORIENTED_EDGE( '', *, *, #289, .T. );
#261 = ORIENTED_EDGE( '', *, *, #284, .T. );
#262 = ORIENTED_EDGE( '', *, *, #285, .T. );
#263 = ORIENTED_EDGE( '', *, *, #302, .F. );
#264 = CARTESIAN_POINT( '', ( 16.0000000000000, 0.000000000000000, 0.000000000000000 ) );
#265 = DIRECTION( '', ( -1.00000000000000, -0.000000000000000, 0.000000000000000 ) );
#266 = DIRECTION( '', ( -0.000000000000000, 0.000000000000000, -1.00000000000000 ) );
#267 = SURFACE_STYLE_FILL_AREA( #306 );
#268 = ORIENTED_EDGE( '', *, *, #303, .T. );
#269 = ORIENTED_EDGE( '', *, *, #300, .F. );
#270 = CARTESIAN_POINT( '', ( 16.0000000000000, 0.000000000000000, 0.000000000000000 ) );
#271 = DIRECTION( '', ( -1.00000000000000, -0.000000000000000, 0.000000000000000 ) );
#272 = DIRECTION( '', ( -0.000000000000000, 0.000000000000000, -1.00000000000000 ) );
#273 = SURFACE_STYLE_FILL_AREA( #307 );
#274 = ORIENTED_EDGE( '', *, *, #294, .T. );
#275 = ORIENTED_EDGE( '', *, *, #288, .F. );
#276 = CARTESIAN_POINT( '', ( 16.0000000000000, 0.000000000000000, 0.000000000000000 ) );
#277 = DIRECTION( '', ( -1.00000000000000, -0.000000000000000, 0.000000000000000 ) );
#278 = DIRECTION( '', ( -0.000000000000000, 0.000000000000000, -1.00000000000000 ) );
#279 = FILL_AREA_STYLE( '', ( #308 ) );
#280 = EDGE_CURVE( '', #309, #309, #310, .T. );
#281 = EDGE_CURVE( '', #311, #312, #313, .T. );
#282 = EDGE_CURVE( '', #312, #311, #314, .F. );
#283 = FILL_AREA_STYLE( '', ( #315 ) );
#284 = EDGE_CURVE( '', #316, #317, #318, .F. );
#285 = EDGE_CURVE( '', #317, #316, #319, .T. );
#286 = EDGE_CURVE( '', #320, #320, #321, .T. );
#287 = FILL_AREA_STYLE( '', ( #322 ) );
#288 = EDGE_CURVE( '', #323, #323, #324, .T. );
#289 = EDGE_CURVE( '', #325, #325, #326, .T. );
#290 = FILL_AREA_STYLE( '', ( #327 ) );
#291 = EDGE_CURVE( '', #328, #328, #329, .T. );
#292 = EDGE_CURVE( '', #330, #330, #331, .T. );
#293 = FILL_AREA_STYLE( '', ( #332 ) );
#294 = EDGE_CURVE( '', #333, #333, #334, .T. );
#295 = FILL_AREA_STYLE( '', ( #335 ) );
#296 = EDGE_CURVE( '', #336, #336, #337, .T. );
#297 = EDGE_CURVE( '', #338, #338, #339, .T. );
#298 = FILL_AREA_STYLE( '', ( #340 ) );
#299 = FILL_AREA_STYLE( '', ( #341 ) );
#300 = EDGE_CURVE( '', #342, #342, #343, .T. );
#301 = FILL_AREA_STYLE( '', ( #344 ) );
#302 = EDGE_CURVE( '', #345, #345, #346, .T. );
#303 = EDGE_CURVE( '', #347, #347, #348, .T. );
#304 = FILL_AREA_STYLE( '', ( #349 ) );
#305 = FILL_AREA_STYLE( '', ( #350 ) );
#306 = FILL_AREA_STYLE( '', ( #351 ) );
#307 = FILL_AREA_STYLE( '', ( #352 ) );
#308 = FILL_AREA_STYLE_COLOUR( '', #353 );
#309 = VERTEX_POINT( '', #354 );
#310 = CIRCLE( '', #355, 14.5500000000000 );
#311 = VERTEX_POINT( '', #356 );
#312 = VERTEX_POINT( '', #357 );
#313 = ELLIPSE( '', #358, 20.5768073325000, 14.5500000000000 );
#314 = ELLIPSE( '', #359, 20.5768073325000, 14.5500000000000 );
#315 = FILL_AREA_STYLE_COLOUR( '', #360 );
#316 = VERTEX_POINT( '', #361 );
#317 = VERTEX_POINT( '', #362 );
#318 = ELLIPSE( '', #363, 11.9972450541000, 8.48333333330000 );
#319 = ELLIPSE( '', #364, 11.9972450541000, 8.48333333330000 );
#320 = VERTEX_POINT( '', #365 );
#321 = CIRCLE( '', #366, 8.48333333330000 );
#322 = FILL_AREA_STYLE_COLOUR( '', #367 );
#323 = VERTEX_POINT( '', #368 );
#324 = CIRCLE( '', #369, 10.0000000000000 );
#325 = VERTEX_POINT( '', #370 );
#326 = CIRCLE( '', #371, 8.48333333330000 );
#327 = FILL_AREA_STYLE_COLOUR( '', #372 );
#328 = VERTEX_POINT( '', #373 );
#329 = CIRCLE( '', #374, 14.5500000000000 );
#330 = VERTEX_POINT( '', #375 );
#331 = CIRCLE( '', #376, 14.5500000000000 );
#332 = FILL_AREA_STYLE_COLOUR( '', #377 );
#333 = VERTEX_POINT( '', #378 );
#334 = CIRCLE( '', #379, 10.0000000000000 );
#335 = FILL_AREA_STYLE_COLOUR( '', #380 );
#336 = VERTEX_POINT( '', #381 );
#337 = CIRCLE( '', #382, 10.0000000000000 );
#338 = VERTEX_POINT( '', #383 );
#339 = CIRCLE( '', #384, 10.0000000000000 );
#340 = FILL_AREA_STYLE_COLOUR( '', #385 );
#341 = FILL_AREA_STYLE_COLOUR( '', #386 );
#342 = VERTEX_POINT( '', #387 );
#343 = CIRCLE( '', #388, 10.0000000000000 );
#344 = FILL_AREA_STYLE_COLOUR( '', #389 );
#345 = VERTEX_POINT( '', #390 );
#346 = CIRCLE( '', #391, 8.48333333330000 );
#347 = VERTEX_POINT( '', #392 );
#348 = CIRCLE( '', #393, 10.0000000000000 );
#349 = FILL_AREA_STYLE_COLOUR( '', #394 );
#350 = FILL_AREA_STYLE_COLOUR( '', #395 );
#351 = FILL_AREA_STYLE_COLOUR( '', #396 );
#352 = FILL_AREA_STYLE_COLOUR( '', #397 );
#353 = COLOUR_RGB( '', 0.713725507300000, 0.709803938900000, 0.650980413000000 );
#354 = CARTESIAN_POINT( '', ( 0.550000000000000, 0.000000000000000, 30.0000000000000 ) );
#355 = AXIS2_PLACEMENT_3D( '', #398, #399, #400 );
#356 = CARTESIAN_POINT( '', ( -14.0000000000000, -14.5500000000000, 0.000000000000000 ) );
#357 = CARTESIAN_POINT( '', ( -14.0000000000000, 14.5500000000000, 0.000000000000000 ) );
#358 = AXIS2_PLACEMENT_3D( '', #401, #402, #403 );
#359 = AXIS2_PLACEMENT_3D( '', #404, #405, #406 );
#360 = COLOUR_RGB( '', 0.713725507300000, 0.709803938900000, 0.650980413000000 );
#361 = CARTESIAN_POINT( '', ( -14.0000000000000, -8.48333333333333, 0.000000000000000 ) );
#362 = CARTESIAN_POINT( '', ( -14.0000000000000, 8.48333333333333, 0.000000000000000 ) );
#363 = AXIS2_PLACEMENT_3D( '', #407, #408, #409 );
#364 = AXIS2_PLACEMENT_3D( '', #410, #411, #412 );
#365 = CARTESIAN_POINT( '', ( -22.4833333333333, 0.000000000000000, 14.0000000000000 ) );
#366 = AXIS2_PLACEMENT_3D( '', #413, #414, #415 );
#367 = COLOUR_RGB( '', 0.713725507300000, 0.709803938900000, 0.650980413000000 );
#368 = CARTESIAN_POINT( '', ( 0.000000000000000, 0.000000000000000, -10.0000000000000 ) );
#369 = AXIS2_PLACEMENT_3D( '', #416, #417, #418 );
#370 = CARTESIAN_POINT( '', ( 0.000000000000000, 0.000000000000000, -8.48333333333333 ) );
#371 = AXIS2_PLACEMENT_3D( '', #419, #420, #421 );
#372 = COLOUR_RGB( '', 0.713725507300000, 0.709803938900000, 0.650980413000000 );
#373 = CARTESIAN_POINT( '', ( -44.0000000000000, 14.5500000000000, 0.000000000000000 ) );
#374 = AXIS2_PLACEMENT_3D( '', #422, #423, #424 );
#375 = CARTESIAN_POINT( '', ( 16.0000000000000, 14.5500000000000, 0.000000000000000 ) );
#376 = AXIS2_PLACEMENT_3D( '', #425, #426, #427 );
#377 = COLOUR_RGB( '', 0.713725507300000, 0.709803938900000, 0.650980413000000 );
#378 = CARTESIAN_POINT( '', ( 16.0000000000000, 0.000000000000000, -10.0000000000000 ) );
#379 = AXIS2_PLACEMENT_3D( '', #428, #429, #430 );
#380 = COLOUR_RGB( '', 0.713725507300000, 0.709803938900000, 0.650980413000000 );
#381 = CARTESIAN_POINT( '', ( -24.0000000000000, 0.000000000000000, 14.0000000000000 ) );
#382 = AXIS2_PLACEMENT_3D( '', #431, #432, #433 );
#383 = CARTESIAN_POINT( '', ( -24.0000000000000, 0.000000000000000, 30.0000000000000 ) );
#384 = AXIS2_PLACEMENT_3D( '', #434, #435, #436 );
#385 = COLOUR_RGB( '', 0.713725507300000, 0.709803938900000, 0.650980413000000 );
#386 = COLOUR_RGB( '', 0.713725507300000, 0.709803938900000, 0.650980413000000 );
#387 = CARTESIAN_POINT( '', ( -44.0000000000000, 0.000000000000000, -10.0000000000000 ) );
#388 = AXIS2_PLACEMENT_3D( '', #437, #438, #439 );
#389 = COLOUR_RGB( '', 0.713725507300000, 0.709803938900000, 0.650980413000000 );
#390 = CARTESIAN_POINT( '', ( -28.0000000000000, 0.000000000000000, -8.48333333333333 ) );
#391 = AXIS2_PLACEMENT_3D( '', #440, #441, #442 );
#392 = CARTESIAN_POINT( '', ( -28.0000000000000, 0.000000000000000, -10.0000000000000 ) );
#393 = AXIS2_PLACEMENT_3D( '', #443, #444, #445 );
#394 = COLOUR_RGB( '', 0.713725507300000, 0.709803938900000, 0.650980413000000 );
#395 = COLOUR_RGB( '', 0.713725507300000, 0.709803938900000, 0.650980413000000 );
#396 = COLOUR_RGB( '', 0.713725507300000, 0.709803938900000, 0.650980413000000 );
#397 = COLOUR_RGB( '', 0.713725507300000, 0.709803938900000, 0.650980413000000 );
#398 = CARTESIAN_POINT( '', ( -14.0000000000000, 0.000000000000000, 30.0000000000000 ) );
#399 = DIRECTION( '', ( 0.000000000000000, 0.000000000000000, 1.00000000000000 ) );
#400 = DIRECTION( '', ( 1.00000000000000, 0.000000000000000, 0.000000000000000 ) );
#401 = CARTESIAN_POINT( '', ( -14.0000000000000, 0.000000000000000, 0.000000000000000 ) );
#402 = DIRECTION( '', ( -0.707106781186548, 0.000000000000000, 0.707106781186548 ) );
#403 = DIRECTION( '', ( -0.707106781186548, -0.000000000000000, -0.707106781186548 ) );
#404 = CARTESIAN_POINT( '', ( -14.0000000000000, 0.000000000000000, 0.000000000000000 ) );
#405 = DIRECTION( '', ( -0.707106781186548, 0.000000000000000, -0.707106781186548 ) );
#406 = DIRECTION( '', ( -0.707106781186548, 0.000000000000000, 0.707106781186548 ) );
#407 = CARTESIAN_POINT( '', ( -14.0000000000000, 0.000000000000000, 0.000000000000000 ) );
#408 = DIRECTION( '', ( 0.707106781186548, 0.000000000000000, -0.707106781186548 ) );
#409 = DIRECTION( '', ( 0.707106781186547, 0.000000000000000, 0.707106781186547 ) );
#410 = CARTESIAN_POINT( '', ( -14.0000000000000, 0.000000000000000, 0.000000000000000 ) );
#411 = DIRECTION( '', ( 0.707106781186548, 0.000000000000000, 0.707106781186548 ) );
#412 = DIRECTION( '', ( 0.707106781186547, -0.000000000000000, -0.707106781186547 ) );
#413 = CARTESIAN_POINT( '', ( -14.0000000000000, 0.000000000000000, 14.0000000000000 ) );
#414 = DIRECTION( '', ( -0.000000000000000, 0.000000000000000, -1.00000000000000 ) );
#415 = DIRECTION( '', ( -1.00000000000000, 0.000000000000000, 0.000000000000000 ) );
#416 = CARTESIAN_POINT( '', ( 0.000000000000000, 0.000000000000000, 0.000000000000000 ) );
#417 = DIRECTION( '', ( 1.00000000000000, 0.000000000000000, -0.000000000000000 ) );
#418 = DIRECTION( '', ( -0.000000000000000, 0.000000000000000, -1.00000000000000 ) );
#419 = CARTESIAN_POINT( '', ( 0.000000000000000, 0.000000000000000, 0.000000000000000 ) );
#420 = DIRECTION( '', ( 1.00000000000000, 0.000000000000000, -0.000000000000000 ) );
#421 = DIRECTION( '', ( -0.000000000000000, 0.000000000000000, -1.00000000000000 ) );
#422 = CARTESIAN_POINT( '', ( -44.0000000000000, 0.000000000000000, 0.000000000000000 ) );
#423 = DIRECTION( '', ( 1.00000000000000, 0.000000000000000, 0.000000000000000 ) );
#424 = DIRECTION( '', ( 0.000000000000000, 1.00000000000000, 0.000000000000000 ) );
#425 = CARTESIAN_POINT( '', ( 16.0000000000000, 0.000000000000000, 0.000000000000000 ) );
#426 = DIRECTION( '', ( 1.00000000000000, 0.000000000000000, 0.000000000000000 ) );
#427 = DIRECTION( '', ( 0.000000000000000, 1.00000000000000, 0.000000000000000 ) );
#428 = CARTESIAN_POINT( '', ( 16.0000000000000, 0.000000000000000, 0.000000000000000 ) );
#429 = DIRECTION( '', ( 1.00000000000000, 0.000000000000000, -0.000000000000000 ) );
#430 = DIRECTION( '', ( -0.000000000000000, 0.000000000000000, -1.00000000000000 ) );
#431 = CARTESIAN_POINT( '', ( -14.0000000000000, 0.000000000000000, 14.0000000000000 ) );
#432 = DIRECTION( '', ( -0.000000000000000, 0.000000000000000, -1.00000000000000 ) );
#433 = DIRECTION( '', ( -1.00000000000000, 0.000000000000000, 0.000000000000000 ) );
#434 = CARTESIAN_POINT( '', ( -14.0000000000000, 0.000000000000000, 30.0000000000000 ) );
#435 = DIRECTION( '', ( -0.000000000000000, 0.000000000000000, -1.00000000000000 ) );
#436 = DIRECTION( '', ( -1.00000000000000, 0.000000000000000, 0.000000000000000 ) );
#437 = CARTESIAN_POINT( '', ( -44.0000000000000, 0.000000000000000, 0.000000000000000 ) );
#438 = DIRECTION( '', ( 1.00000000000000, 0.000000000000000, -0.000000000000000 ) );
#439 = DIRECTION( '', ( -0.000000000000000, 0.000000000000000, -1.00000000000000 ) );
#440 = CARTESIAN_POINT( '', ( -28.0000000000000, 0.000000000000000, 0.000000000000000 ) );
#441 = DIRECTION( '', ( 1.00000000000000, 0.000000000000000, -0.000000000000000 ) );
#442 = DIRECTION( '', ( -0.000000000000000, 0.000000000000000, -1.00000000000000 ) );
#443 = CARTESIAN_POINT( '', ( -28.0000000000000, 0.000000000000000, 0.000000000000000 ) );
#444 = DIRECTION( '', ( 1.00000000000000, 0.000000000000000, -0.000000000000000 ) );
#445 = DIRECTION( '', ( -0.000000000000000, 0.000000000000000, -1.00000000000000 ) );
ENDSEC;
END-ISO-10303-21;
