ISO-10303-21;
HEADER;
FILE_DESCRIPTION( ( 'STEP AP214' ), '1' );
FILE_NAME( 'p:/temp/worker_22/temp/exporttempdir_3772_413_dde1I/format_0/AGRU_11050005007_Elbow 45\X2\00B0\X0\_PPR grey_50 - MOP 20 bar (architecture400).stp', '2022-03-09T12:13:19', ( 'License CC BY-ND 4.0' ), ( 'CADENAS' ), ' ', 'PARTsolutions', ' ' );
FILE_SCHEMA( ( 'AUTOMOTIVE_DESIGN { 1 0 10303 214 1 1 1 1 }' ) );
ENDSEC;
DATA;
#1 = MECHANICAL_DESIGN_GEOMETRIC_PRESENTATION_REPRESENTATION( ' ', ( #10, #11, #12, #13, #14, #15, #16, #17, #18, #19, #20, #21 ), #6 );
#2 = PRODUCT_DEFINITION_CONTEXT( '', #22, 'design' );
#3 = APPLICATION_PROTOCOL_DEFINITION( 'international standard', 'automotive_design', 2001, #22 );
#4 = PRODUCT_CATEGORY_RELATIONSHIP( 'NONE', 'NONE', #23, #24 );
#5 = SHAPE_DEFINITION_REPRESENTATION( #25, #26 );
#6 =  ( GEOMETRIC_REPRESENTATION_CONTEXT( 3 )GLOBAL_UNCERTAINTY_ASSIGNED_CONTEXT( ( #29 ) )GLOBAL_UNIT_ASSIGNED_CONTEXT( ( #31, #32, #33 ) )REPRESENTATION_CONTEXT( 'NONE', 'WORKSPACE' ) );
#10 = STYLED_ITEM( '', ( #35 ), #36 );
#11 = STYLED_ITEM( '', ( #37 ), #38 );
#12 = STYLED_ITEM( '', ( #39 ), #40 );
#13 = STYLED_ITEM( '', ( #41 ), #42 );
#14 = STYLED_ITEM( '', ( #43 ), #44 );
#15 = STYLED_ITEM( '', ( #45 ), #46 );
#16 = STYLED_ITEM( '', ( #47 ), #48 );
#17 = STYLED_ITEM( '', ( #49 ), #50 );
#18 = STYLED_ITEM( '', ( #51 ), #52 );
#19 = STYLED_ITEM( '', ( #53 ), #54 );
#20 = STYLED_ITEM( '', ( #55 ), #56 );
#21 = STYLED_ITEM( '', ( #57 ), #58 );
#22 = APPLICATION_CONTEXT( 'core data for automotive mechanical design processes' );
#23 = PRODUCT_CATEGORY( 'part', 'NONE' );
#24 = PRODUCT_RELATED_PRODUCT_CATEGORY( 'detail', ' ', ( #59 ) );
#25 = PRODUCT_DEFINITION_SHAPE( 'NONE', 'NONE', #60 );
#26 = ADVANCED_BREP_SHAPE_REPRESENTATION( '_AGRU_11050005007_Elbow 45\X2\00B0\X0\_PPR grey_50 - MOP 20 bar (architecture400)', ( #61, #62 ), #6 );
#29 = UNCERTAINTY_MEASURE_WITH_UNIT( LENGTH_MEASURE( 0.00100000000000000 ), #31, '', '' );
#31 =  ( CONVERSION_BASED_UNIT( 'MILLIMETRE', #65 )LENGTH_UNIT(  )NAMED_UNIT( #68 ) );
#32 =  ( NAMED_UNIT( #70 )PLANE_ANGLE_UNIT(  )SI_UNIT( $, .RADIAN. ) );
#33 =  ( NAMED_UNIT( #70 )SI_UNIT( $, .STERADIAN. )SOLID_ANGLE_UNIT(  ) );
#35 = PRESENTATION_STYLE_ASSIGNMENT( ( #76 ) );
#36 = ADVANCED_FACE( '', ( #77 ), #78, .T. );
#37 = PRESENTATION_STYLE_ASSIGNMENT( ( #79 ) );
#38 = ADVANCED_FACE( '', ( #80, #81 ), #82, .T. );
#39 = PRESENTATION_STYLE_ASSIGNMENT( ( #83 ) );
#40 = ADVANCED_FACE( '', ( #84, #85 ), #86, .F. );
#41 = PRESENTATION_STYLE_ASSIGNMENT( ( #87 ) );
#42 = ADVANCED_FACE( '', ( #88 ), #89, .F. );
#43 = PRESENTATION_STYLE_ASSIGNMENT( ( #90 ) );
#44 = ADVANCED_FACE( '', ( #91, #92 ), #93, .F. );
#45 = PRESENTATION_STYLE_ASSIGNMENT( ( #94 ) );
#46 = ADVANCED_FACE( '', ( #95, #96 ), #97, .T. );
#47 = PRESENTATION_STYLE_ASSIGNMENT( ( #98 ) );
#48 = ADVANCED_FACE( '', ( #99, #100 ), #101, .F. );
#49 = PRESENTATION_STYLE_ASSIGNMENT( ( #102 ) );
#50 = ADVANCED_FACE( '', ( #103, #104 ), #105, .F. );
#51 = PRESENTATION_STYLE_ASSIGNMENT( ( #106 ) );
#52 = ADVANCED_FACE( '', ( #107, #108 ), #109, .T. );
#53 = PRESENTATION_STYLE_ASSIGNMENT( ( #110 ) );
#54 = ADVANCED_FACE( '', ( #111, #112 ), #113, .F. );
#55 = PRESENTATION_STYLE_ASSIGNMENT( ( #114 ) );
#56 = ADVANCED_FACE( '', ( #115, #116 ), #117, .T. );
#57 = PRESENTATION_STYLE_ASSIGNMENT( ( #118 ) );
#58 = ADVANCED_FACE( '', ( #119, #120 ), #121, .F. );
#59 = PRODUCT( '_AGRU_11050005007_Elbow 45\X2\00B0\X0\_PPR grey_50 - MOP 20 bar (architecture400)', '_AGRU_11050005007_Elbow 45\X2\00B0\X0\_PPR grey_50 - MOP 20 bar (architecture400)', 'PART-_AGRU_11050005007_Elbow 45\X2\00B0\X0\_PPR grey_50 - MOP 20 bar (architecture400)-DESC', ( #122 ) );
#60 = PRODUCT_DEFINITION( 'NONE', 'NONE', #123, #2 );
#61 = MANIFOLD_SOLID_BREP( '_AGRU_11050005007_Elbow 45\X2\00B0\X0\_PPR grey_50 - MOP 20 bar (architecture400)', #124 );
#62 = AXIS2_PLACEMENT_3D( '', #125, #126, #127 );
#65 = LENGTH_MEASURE_WITH_UNIT( LENGTH_MEASURE( 1.00000000000000 ), #128 );
#68 = DIMENSIONAL_EXPONENTS( 1.00000000000000, 0.000000000000000, 0.000000000000000, 0.000000000000000, 0.000000000000000, 0.000000000000000, 0.000000000000000 );
#70 = DIMENSIONAL_EXPONENTS( 0.000000000000000, 0.000000000000000, 0.000000000000000, 0.000000000000000, 0.000000000000000, 0.000000000000000, 0.000000000000000 );
#76 = SURFACE_STYLE_USAGE( .BOTH., #129 );
#77 = FACE_OUTER_BOUND( '', #130, .T. );
#78 = SPHERICAL_SURFACE( '', #131, 32.5000000000000 );
#79 = SURFACE_STYLE_USAGE( .BOTH., #132 );
#80 = FACE_OUTER_BOUND( '', #133, .T. );
#81 = FACE_OUTER_BOUND( '', #134, .T. );
#82 = CYLINDRICAL_SURFACE( '', #135, 32.5000000000000 );
#83 = SURFACE_STYLE_USAGE( .BOTH., #136 );
#84 = FACE_OUTER_BOUND( '', #137, .T. );
#85 = FACE_OUTER_BOUND( '', #138, .T. );
#86 = CYLINDRICAL_SURFACE( '', #139, 22.5000000000000 );
#87 = SURFACE_STYLE_USAGE( .BOTH., #140 );
#88 = FACE_OUTER_BOUND( '', #141, .T. );
#89 = SPHERICAL_SURFACE( '', #142, 22.5000000000000 );
#90 = SURFACE_STYLE_USAGE( .BOTH., #143 );
#91 = FACE_OUTER_BOUND( '', #144, .T. );
#92 = FACE_OUTER_BOUND( '', #145, .T. );
#93 = CYLINDRICAL_SURFACE( '', #146, 22.5000000000000 );
#94 = SURFACE_STYLE_USAGE( .BOTH., #147 );
#95 = FACE_BOUND( '', #148, .T. );
#96 = FACE_OUTER_BOUND( '', #149, .T. );
#97 = PLANE( '', #150 );
#98 = SURFACE_STYLE_USAGE( .BOTH., #151 );
#99 = FACE_BOUND( '', #152, .T. );
#100 = FACE_OUTER_BOUND( '', #153, .T. );
#101 = PLANE( '', #154 );
#102 = SURFACE_STYLE_USAGE( .BOTH., #155 );
#103 = FACE_OUTER_BOUND( '', #156, .T. );
#104 = FACE_OUTER_BOUND( '', #157, .T. );
#105 = CYLINDRICAL_SURFACE( '', #158, 25.0000000000000 );
#106 = SURFACE_STYLE_USAGE( .BOTH., #159 );
#107 = FACE_OUTER_BOUND( '', #160, .T. );
#108 = FACE_OUTER_BOUND( '', #161, .T. );
#109 = CYLINDRICAL_SURFACE( '', #162, 32.5000000000000 );
#110 = SURFACE_STYLE_USAGE( .BOTH., #163 );
#111 = FACE_BOUND( '', #164, .T. );
#112 = FACE_OUTER_BOUND( '', #165, .T. );
#113 = PLANE( '', #166 );
#114 = SURFACE_STYLE_USAGE( .BOTH., #167 );
#115 = FACE_OUTER_BOUND( '', #168, .T. );
#116 = FACE_BOUND( '', #169, .T. );
#117 = PLANE( '', #170 );
#118 = SURFACE_STYLE_USAGE( .BOTH., #171 );
#119 = FACE_OUTER_BOUND( '', #172, .T. );
#120 = FACE_OUTER_BOUND( '', #173, .T. );
#121 = CYLINDRICAL_SURFACE( '', #174, 25.0000000000000 );
#122 = PRODUCT_CONTEXT( '', #22, 'mechanical' );
#123 = PRODUCT_DEFINITION_FORMATION_WITH_SPECIFIED_SOURCE( ' ', 'NONE', #59, .NOT_KNOWN. );
#124 = CLOSED_SHELL( '', ( #48, #52, #36, #38, #44, #46, #50, #54, #58, #56, #40, #42 ) );
#125 = CARTESIAN_POINT( '', ( 0.000000000000000, 0.000000000000000, 0.000000000000000 ) );
#126 = DIRECTION( '', ( 0.000000000000000, 0.000000000000000, 1.00000000000000 ) );
#127 = DIRECTION( '', ( 1.00000000000000, 0.000000000000000, 0.000000000000000 ) );
#128 =  ( LENGTH_UNIT(  )NAMED_UNIT( #68 )SI_UNIT( .MILLI., .METRE. ) );
#129 = SURFACE_SIDE_STYLE( '', ( #176 ) );
#130 = EDGE_LOOP( '', ( #177, #178 ) );
#131 = AXIS2_PLACEMENT_3D( '', #179, #180, #181 );
#132 = SURFACE_SIDE_STYLE( '', ( #182 ) );
#133 = EDGE_LOOP( '', ( #183 ) );
#134 = EDGE_LOOP( '', ( #184, #185 ) );
#135 = AXIS2_PLACEMENT_3D( '', #186, #187, #188 );
#136 = SURFACE_SIDE_STYLE( '', ( #189 ) );
#137 = EDGE_LOOP( '', ( #190 ) );
#138 = EDGE_LOOP( '', ( #191, #192 ) );
#139 = AXIS2_PLACEMENT_3D( '', #193, #194, #195 );
#140 = SURFACE_SIDE_STYLE( '', ( #196 ) );
#141 = EDGE_LOOP( '', ( #197, #198 ) );
#142 = AXIS2_PLACEMENT_3D( '', #199, #200, #201 );
#143 = SURFACE_SIDE_STYLE( '', ( #202 ) );
#144 = EDGE_LOOP( '', ( #203, #204 ) );
#145 = EDGE_LOOP( '', ( #205 ) );
#146 = AXIS2_PLACEMENT_3D( '', #206, #207, #208 );
#147 = SURFACE_SIDE_STYLE( '', ( #209 ) );
#148 = EDGE_LOOP( '', ( #210 ) );
#149 = EDGE_LOOP( '', ( #211 ) );
#150 = AXIS2_PLACEMENT_3D( '', #212, #213, #214 );
#151 = SURFACE_SIDE_STYLE( '', ( #215 ) );
#152 = EDGE_LOOP( '', ( #216 ) );
#153 = EDGE_LOOP( '', ( #217 ) );
#154 = AXIS2_PLACEMENT_3D( '', #218, #219, #220 );
#155 = SURFACE_SIDE_STYLE( '', ( #221 ) );
#156 = EDGE_LOOP( '', ( #222 ) );
#157 = EDGE_LOOP( '', ( #223 ) );
#158 = AXIS2_PLACEMENT_3D( '', #224, #225, #226 );
#159 = SURFACE_SIDE_STYLE( '', ( #227 ) );
#160 = EDGE_LOOP( '', ( #228 ) );
#161 = EDGE_LOOP( '', ( #229, #230 ) );
#162 = AXIS2_PLACEMENT_3D( '', #231, #232, #233 );
#163 = SURFACE_SIDE_STYLE( '', ( #234 ) );
#164 = EDGE_LOOP( '', ( #235 ) );
#165 = EDGE_LOOP( '', ( #236 ) );
#166 = AXIS2_PLACEMENT_3D( '', #237, #238, #239 );
#167 = SURFACE_SIDE_STYLE( '', ( #240 ) );
#168 = EDGE_LOOP( '', ( #241 ) );
#169 = EDGE_LOOP( '', ( #242 ) );
#170 = AXIS2_PLACEMENT_3D( '', #243, #244, #245 );
#171 = SURFACE_SIDE_STYLE( '', ( #246 ) );
#172 = EDGE_LOOP( '', ( #247 ) );
#173 = EDGE_LOOP( '', ( #248 ) );
#174 = AXIS2_PLACEMENT_3D( '', #249, #250, #251 );
#176 = SURFACE_STYLE_FILL_AREA( #252 );
#177 = ORIENTED_EDGE( '', *, *, #253, .T. );
#178 = ORIENTED_EDGE( '', *, *, #254, .F. );
#179 = CARTESIAN_POINT( '', ( 0.000000000000000, 0.000000000000000, 15.0000000000000 ) );
#180 = DIRECTION( '', ( 0.000000000000000, 0.000000000000000, 1.00000000000000 ) );
#181 = DIRECTION( '', ( 1.00000000000000, 0.000000000000000, 0.000000000000000 ) );
#182 = SURFACE_STYLE_FILL_AREA( #255 );
#183 = ORIENTED_EDGE( '', *, *, #256, .F. );
#184 = ORIENTED_EDGE( '', *, *, #254, .T. );
#185 = ORIENTED_EDGE( '', *, *, #257, .T. );
#186 = CARTESIAN_POINT( '', ( 27.5771644662754, 0.000000000000000, 42.5771644662753 ) );
#187 = DIRECTION( '', ( -0.707106781186548, 0.000000000000000, -0.707106781186547 ) );
#188 = DIRECTION( '', ( 0.707106781186547, 0.000000000000000, -0.707106781186548 ) );
#189 = SURFACE_STYLE_FILL_AREA( #258 );
#190 = ORIENTED_EDGE( '', *, *, #259, .T. );
#191 = ORIENTED_EDGE( '', *, *, #260, .F. );
#192 = ORIENTED_EDGE( '', *, *, #261, .F. );
#193 = CARTESIAN_POINT( '', ( 28.2842712474619, 0.000000000000000, 43.2842712474619 ) );
#194 = DIRECTION( '', ( -0.707106781186548, 0.000000000000000, -0.707106781186548 ) );
#195 = DIRECTION( '', ( 0.707106781186548, 0.000000000000000, -0.707106781186548 ) );
#196 = SURFACE_STYLE_FILL_AREA( #262 );
#197 = ORIENTED_EDGE( '', *, *, #263, .F. );
#198 = ORIENTED_EDGE( '', *, *, #261, .T. );
#199 = CARTESIAN_POINT( '', ( -6.93889390390723E-15, 0.000000000000000, 15.0000000000000 ) );
#200 = DIRECTION( '', ( 0.000000000000000, 0.000000000000000, 1.00000000000000 ) );
#201 = DIRECTION( '', ( 1.00000000000000, 0.000000000000000, 0.000000000000000 ) );
#202 = SURFACE_STYLE_FILL_AREA( #264 );
#203 = ORIENTED_EDGE( '', *, *, #260, .T. );
#204 = ORIENTED_EDGE( '', *, *, #263, .T. );
#205 = ORIENTED_EDGE( '', *, *, #265, .F. );
#206 = CARTESIAN_POINT( '', ( 0.000000000000000, 0.000000000000000, 37.5000000000000 ) );
#207 = DIRECTION( '', ( -0.000000000000000, 0.000000000000000, -1.00000000000000 ) );
#208 = DIRECTION( '', ( 1.00000000000000, 0.000000000000000, 0.000000000000000 ) );
#209 = SURFACE_STYLE_FILL_AREA( #266 );
#210 = ORIENTED_EDGE( '', *, *, #265, .T. );
#211 = ORIENTED_EDGE( '', *, *, #267, .F. );
#212 = CARTESIAN_POINT( '', ( -25.0000000000000, 0.000000000000000, 0.000000000000000 ) );
#213 = DIRECTION( '', ( 0.000000000000000, 0.000000000000000, -1.00000000000000 ) );
#214 = DIRECTION( '', ( -1.00000000000000, 0.000000000000000, 0.000000000000000 ) );
#215 = SURFACE_STYLE_FILL_AREA( #268 );
#216 = ORIENTED_EDGE( '', *, *, #269, .F. );
#217 = ORIENTED_EDGE( '', *, *, #270, .F. );
#218 = CARTESIAN_POINT( '', ( 0.000000000000000, 0.000000000000000, -24.0000000000000 ) );
#219 = DIRECTION( '', ( 0.000000000000000, 0.000000000000000, 1.00000000000000 ) );
#220 = DIRECTION( '', ( 1.00000000000000, 0.000000000000000, -0.000000000000000 ) );
#221 = SURFACE_STYLE_FILL_AREA( #271 );
#222 = ORIENTED_EDGE( '', *, *, #267, .T. );
#223 = ORIENTED_EDGE( '', *, *, #269, .T. );
#224 = CARTESIAN_POINT( '', ( 0.000000000000000, 0.000000000000000, 37.5000000000000 ) );
#225 = DIRECTION( '', ( -0.000000000000000, 0.000000000000000, -1.00000000000000 ) );
#226 = DIRECTION( '', ( 1.00000000000000, 0.000000000000000, 0.000000000000000 ) );
#227 = SURFACE_STYLE_FILL_AREA( #272 );
#228 = ORIENTED_EDGE( '', *, *, #270, .T. );
#229 = ORIENTED_EDGE( '', *, *, #257, .F. );
#230 = ORIENTED_EDGE( '', *, *, #253, .F. );
#231 = CARTESIAN_POINT( '', ( 0.000000000000000, 0.000000000000000, 15.0000000000000 ) );
#232 = DIRECTION( '', ( 0.000000000000000, -0.000000000000000, 1.00000000000000 ) );
#233 = DIRECTION( '', ( -1.00000000000000, 0.000000000000000, 0.000000000000000 ) );
#234 = SURFACE_STYLE_FILL_AREA( #273 );
#235 = ORIENTED_EDGE( '', *, *, #274, .F. );
#236 = ORIENTED_EDGE( '', *, *, #256, .T. );
#237 = CARTESIAN_POINT( '', ( 4.59619407771256, 0.000000000000000, 65.5581348548381 ) );
#238 = DIRECTION( '', ( -0.707106781186548, 0.000000000000000, -0.707106781186547 ) );
#239 = DIRECTION( '', ( -0.707106781186547, 0.000000000000000, 0.707106781186548 ) );
#240 = SURFACE_STYLE_FILL_AREA( #275 );
#241 = ORIENTED_EDGE( '', *, *, #276, .T. );
#242 = ORIENTED_EDGE( '', *, *, #259, .F. );
#243 = CARTESIAN_POINT( '', ( -5.30330085889910, 0.000000000000000, 41.5165042944955 ) );
#244 = DIRECTION( '', ( 0.707106781186548, -0.000000000000000, 0.707106781186548 ) );
#245 = DIRECTION( '', ( 0.707106781186547, 0.000000000000000, -0.707106781186547 ) );
#246 = SURFACE_STYLE_FILL_AREA( #277 );
#247 = ORIENTED_EDGE( '', *, *, #274, .T. );
#248 = ORIENTED_EDGE( '', *, *, #276, .F. );
#249 = CARTESIAN_POINT( '', ( 28.2842712474619, 0.000000000000000, 43.2842712474619 ) );
#250 = DIRECTION( '', ( -0.707106781186548, 0.000000000000000, -0.707106781186548 ) );
#251 = DIRECTION( '', ( 0.707106781186548, 0.000000000000000, -0.707106781186548 ) );
#252 = FILL_AREA_STYLE( '', ( #278 ) );
#253 = EDGE_CURVE( '', #279, #280, #281, .T. );
#254 = EDGE_CURVE( '', #279, #280, #282, .T. );
#255 = FILL_AREA_STYLE( '', ( #283 ) );
#256 = EDGE_CURVE( '', #284, #284, #285, .T. );
#257 = EDGE_CURVE( '', #280, #279, #286, .F. );
#258 = FILL_AREA_STYLE( '', ( #287 ) );
#259 = EDGE_CURVE( '', #288, #288, #289, .T. );
#260 = EDGE_CURVE( '', #290, #291, #292, .T. );
#261 = EDGE_CURVE( '', #291, #290, #293, .T. );
#262 = FILL_AREA_STYLE( '', ( #294 ) );
#263 = EDGE_CURVE( '', #291, #290, #295, .T. );
#264 = FILL_AREA_STYLE( '', ( #296 ) );
#265 = EDGE_CURVE( '', #297, #297, #298, .T. );
#266 = FILL_AREA_STYLE( '', ( #299 ) );
#267 = EDGE_CURVE( '', #300, #300, #301, .T. );
#268 = FILL_AREA_STYLE( '', ( #302 ) );
#269 = EDGE_CURVE( '', #303, #303, #304, .F. );
#270 = EDGE_CURVE( '', #305, #305, #306, .T. );
#271 = FILL_AREA_STYLE( '', ( #307 ) );
#272 = FILL_AREA_STYLE( '', ( #308 ) );
#273 = FILL_AREA_STYLE( '', ( #309 ) );
#274 = EDGE_CURVE( '', #310, #310, #311, .F. );
#275 = FILL_AREA_STYLE( '', ( #312 ) );
#276 = EDGE_CURVE( '', #313, #313, #314, .T. );
#277 = FILL_AREA_STYLE( '', ( #315 ) );
#278 = FILL_AREA_STYLE_COLOUR( '', #316 );
#279 = VERTEX_POINT( '', #317 );
#280 = VERTEX_POINT( '', #318 );
#281 = CIRCLE( '', #319, 32.5000000000000 );
#282 = CIRCLE( '', #320, 32.5000000000000 );
#283 = FILL_AREA_STYLE_COLOUR( '', #321 );
#284 = VERTEX_POINT( '', #322 );
#285 = CIRCLE( '', #323, 32.5000000000000 );
#286 = ELLIPSE( '', #324, 35.1777465095000, 32.5000000000000 );
#287 = FILL_AREA_STYLE_COLOUR( '', #325 );
#288 = VERTEX_POINT( '', #326 );
#289 = CIRCLE( '', #327, 22.5000000000000 );
#290 = VERTEX_POINT( '', #328 );
#291 = VERTEX_POINT( '', #329 );
#292 = ELLIPSE( '', #330, 24.3538245066000, 22.5000000000000 );
#293 = CIRCLE( '', #331, 22.5000000000000 );
#294 = FILL_AREA_STYLE_COLOUR( '', #332 );
#295 = CIRCLE( '', #333, 22.5000000000000 );
#296 = FILL_AREA_STYLE_COLOUR( '', #334 );
#297 = VERTEX_POINT( '', #335 );
#298 = CIRCLE( '', #336, 22.5000000000000 );
#299 = FILL_AREA_STYLE_COLOUR( '', #337 );
#300 = VERTEX_POINT( '', #338 );
#301 = CIRCLE( '', #339, 25.0000000000000 );
#302 = FILL_AREA_STYLE_COLOUR( '', #340 );
#303 = VERTEX_POINT( '', #341 );
#304 = CIRCLE( '', #342, 25.0000000000000 );
#305 = VERTEX_POINT( '', #343 );
#306 = CIRCLE( '', #344, 32.5000000000000 );
#307 = FILL_AREA_STYLE_COLOUR( '', #345 );
#308 = FILL_AREA_STYLE_COLOUR( '', #346 );
#309 = FILL_AREA_STYLE_COLOUR( '', #347 );
#310 = VERTEX_POINT( '', #348 );
#311 = CIRCLE( '', #349, 25.0000000000000 );
#312 = FILL_AREA_STYLE_COLOUR( '', #350 );
#313 = VERTEX_POINT( '', #351 );
#314 = CIRCLE( '', #352, 25.0000000000000 );
#315 = FILL_AREA_STYLE_COLOUR( '', #353 );
#316 = COLOUR_RGB( '', 0.713725507300000, 0.709803938900000, 0.650980413000000 );
#317 = CARTESIAN_POINT( '', ( -2.09399647133510E-15, 32.5000000000000, 15.0000000000000 ) );
#318 = CARTESIAN_POINT( '', ( -3.12558433179899E-15, -32.5000000000000, 15.0000000000000 ) );
#319 = AXIS2_PLACEMENT_3D( '', #354, #355, #356 );
#320 = AXIS2_PLACEMENT_3D( '', #357, #358, #359 );
#321 = COLOUR_RGB( '', 0.713725507300000, 0.709803938900000, 0.650980413000000 );
#322 = CARTESIAN_POINT( '', ( 50.5581348548382, 0.000000000000000, 19.5961940777125 ) );
#323 = AXIS2_PLACEMENT_3D( '', #360, #361, #362 );
#324 = AXIS2_PLACEMENT_3D( '', #363, #364, #365 );
#325 = COLOUR_RGB( '', 0.713725507300000, 0.709803938900000, 0.650980413000000 );
#326 = CARTESIAN_POINT( '', ( 26.5165042944955, 0.000000000000000, 9.69669914110088 ) );
#327 = AXIS2_PLACEMENT_3D( '', #366, #367, #368 );
#328 = CARTESIAN_POINT( '', ( -2.96135820932351E-15, -22.5000000000000, 15.0000000000000 ) );
#329 = CARTESIAN_POINT( '', ( -1.60770129031928E-15, 22.5000000000000, 15.0000000000000 ) );
#330 = AXIS2_PLACEMENT_3D( '', #369, #370, #371 );
#331 = AXIS2_PLACEMENT_3D( '', #372, #373, #374 );
#332 = COLOUR_RGB( '', 0.713725507300000, 0.709803938900000, 0.650980413000000 );
#333 = AXIS2_PLACEMENT_3D( '', #375, #376, #377 );
#334 = COLOUR_RGB( '', 0.713725507300000, 0.709803938900000, 0.650980413000000 );
#335 = CARTESIAN_POINT( '', ( 22.5000000000000, 0.000000000000000, 0.000000000000000 ) );
#336 = AXIS2_PLACEMENT_3D( '', #378, #379, #380 );
#337 = COLOUR_RGB( '', 0.713725507300000, 0.709803938900000, 0.650980413000000 );
#338 = CARTESIAN_POINT( '', ( 25.0000000000000, 0.000000000000000, 0.000000000000000 ) );
#339 = AXIS2_PLACEMENT_3D( '', #381, #382, #383 );
#340 = COLOUR_RGB( '', 0.713725507300000, 0.709803938900000, 0.650980413000000 );
#341 = CARTESIAN_POINT( '', ( 25.0000000000000, 0.000000000000000, -24.0000000000000 ) );
#342 = AXIS2_PLACEMENT_3D( '', #384, #385, #386 );
#343 = CARTESIAN_POINT( '', ( 32.5000000000000, 0.000000000000000, -24.0000000000000 ) );
#344 = AXIS2_PLACEMENT_3D( '', #387, #388, #389 );
#345 = COLOUR_RGB( '', 0.713725507300000, 0.709803938900000, 0.650980413000000 );
#346 = COLOUR_RGB( '', 0.713725507300000, 0.709803938900000, 0.650980413000000 );
#347 = COLOUR_RGB( '', 0.713725507300000, 0.709803938900000, 0.650980413000000 );
#348 = CARTESIAN_POINT( '', ( 9.89949493661167, 0.000000000000000, 60.2548339959390 ) );
#349 = AXIS2_PLACEMENT_3D( '', #390, #391, #392 );
#350 = COLOUR_RGB( '', 0.713725507300000, 0.709803938900000, 0.650980413000000 );
#351 = CARTESIAN_POINT( '', ( 28.2842712474619, 0.000000000000000, 7.92893218813452 ) );
#352 = AXIS2_PLACEMENT_3D( '', #393, #394, #395 );
#353 = COLOUR_RGB( '', 0.713725507300000, 0.709803938900000, 0.650980413000000 );
#354 = CARTESIAN_POINT( '', ( 0.000000000000000, 0.000000000000000, 15.0000000000000 ) );
#355 = DIRECTION( '', ( 0.000000000000000, 0.000000000000000, 1.00000000000000 ) );
#356 = DIRECTION( '', ( 1.00000000000000, 0.000000000000000, 0.000000000000000 ) );
#357 = CARTESIAN_POINT( '', ( 0.000000000000000, 0.000000000000000, 15.0000000000000 ) );
#358 = DIRECTION( '', ( 0.707106781186548, -0.000000000000000, 0.707106781186547 ) );
#359 = DIRECTION( '', ( 0.707106781186547, 0.000000000000000, -0.707106781186548 ) );
#360 = CARTESIAN_POINT( '', ( 27.5771644662754, 0.000000000000000, 42.5771644662753 ) );
#361 = DIRECTION( '', ( 0.707106781186548, -0.000000000000000, 0.707106781186547 ) );
#362 = DIRECTION( '', ( 0.707106781186547, 0.000000000000000, -0.707106781186548 ) );
#363 = CARTESIAN_POINT( '', ( -3.46944695195361E-15, 0.000000000000000, 15.0000000000000 ) );
#364 = DIRECTION( '', ( -0.382683432365090, 0.000000000000000, -0.923879532511287 ) );
#365 = DIRECTION( '', ( 0.923879532511287, 0.000000000000000, -0.382683432365090 ) );
#366 = CARTESIAN_POINT( '', ( 10.6066017177982, 0.000000000000000, 25.6066017177982 ) );
#367 = DIRECTION( '', ( 0.707106781186548, -0.000000000000000, 0.707106781186548 ) );
#368 = DIRECTION( '', ( 0.707106781186547, 0.000000000000000, -0.707106781186547 ) );
#369 = CARTESIAN_POINT( '', ( -3.46944695195361E-15, 0.000000000000000, 15.0000000000000 ) );
#370 = DIRECTION( '', ( 0.382683432365090, 0.000000000000000, 0.923879532511287 ) );
#371 = DIRECTION( '', ( -0.923879532511287, 0.000000000000000, 0.382683432365090 ) );
#372 = CARTESIAN_POINT( '', ( -3.46944695195361E-15, 0.000000000000000, 15.0000000000000 ) );
#373 = DIRECTION( '', ( 0.707106781186548, -0.000000000000000, 0.707106781186548 ) );
#374 = DIRECTION( '', ( 0.707106781186548, 0.000000000000000, -0.707106781186548 ) );
#375 = CARTESIAN_POINT( '', ( 0.000000000000000, 0.000000000000000, 15.0000000000000 ) );
#376 = DIRECTION( '', ( 0.000000000000000, -0.000000000000000, 1.00000000000000 ) );
#377 = DIRECTION( '', ( 1.00000000000000, 0.000000000000000, 0.000000000000000 ) );
#378 = CARTESIAN_POINT( '', ( 0.000000000000000, 0.000000000000000, 0.000000000000000 ) );
#379 = DIRECTION( '', ( 0.000000000000000, -0.000000000000000, 1.00000000000000 ) );
#380 = DIRECTION( '', ( 1.00000000000000, 0.000000000000000, 0.000000000000000 ) );
#381 = CARTESIAN_POINT( '', ( 0.000000000000000, 0.000000000000000, 0.000000000000000 ) );
#382 = DIRECTION( '', ( 0.000000000000000, -0.000000000000000, 1.00000000000000 ) );
#383 = DIRECTION( '', ( 1.00000000000000, 0.000000000000000, 0.000000000000000 ) );
#384 = CARTESIAN_POINT( '', ( 0.000000000000000, 0.000000000000000, -24.0000000000000 ) );
#385 = DIRECTION( '', ( 0.000000000000000, 0.000000000000000, 1.00000000000000 ) );
#386 = DIRECTION( '', ( 1.00000000000000, 0.000000000000000, -0.000000000000000 ) );
#387 = CARTESIAN_POINT( '', ( 0.000000000000000, 0.000000000000000, -24.0000000000000 ) );
#388 = DIRECTION( '', ( 0.000000000000000, 0.000000000000000, 1.00000000000000 ) );
#389 = DIRECTION( '', ( 1.00000000000000, 0.000000000000000, 0.000000000000000 ) );
#390 = CARTESIAN_POINT( '', ( 27.5771644662754, 0.000000000000000, 42.5771644662753 ) );
#391 = DIRECTION( '', ( -0.707106781186548, 0.000000000000000, -0.707106781186547 ) );
#392 = DIRECTION( '', ( -0.707106781186547, 0.000000000000000, 0.707106781186548 ) );
#393 = CARTESIAN_POINT( '', ( 10.6066017177982, 0.000000000000000, 25.6066017177982 ) );
#394 = DIRECTION( '', ( 0.707106781186548, -0.000000000000000, 0.707106781186548 ) );
#395 = DIRECTION( '', ( 0.707106781186547, 0.000000000000000, -0.707106781186547 ) );
ENDSEC;
END-ISO-10303-21;
