ISO-10303-21;
HEADER;
FILE_DESCRIPTION( ( '' ), '1' );
FILE_NAME( '//se01002/users/anro/AGRU_70706016011_PE_100_RC_schwarz_Rohr_6m_160X14_6__SDR11__ISO_S-5_05.stp', '2017-12-12T07:57:00', ( '' ), ( '' ), ' ', ' ', ' ' );
FILE_SCHEMA( ( 'automotive_design' ) );
ENDSEC;
DATA;
#1 = MECHANICAL_DESIGN_GEOMETRIC_PRESENTATION_REPRESENTATION( ' ', ( #10, #11, #12, #13, #14, #15, #16, #17, #18, #19, #20, #21, #22, #23, #24, #25, #26, #27, #28, #29, #30, #31, #32, #33, #34, #35, #36 ), #6 );
#2 = PRODUCT_DEFINITION_CONTEXT( '', #37, 'design' );
#3 = APPLICATION_PROTOCOL_DEFINITION( 'INTERNATIONAL STANDARD', 'automotive_design', 1994, #37 );
#4 = PRODUCT_CATEGORY_RELATIONSHIP( 'NONE', 'NONE', #38, #39 );
#5 = SHAPE_DEFINITION_REPRESENTATION( #40, #41 );
#6 =  ( GEOMETRIC_REPRESENTATION_CONTEXT( 3 )GLOBAL_UNCERTAINTY_ASSIGNED_CONTEXT( ( #44 ) )GLOBAL_UNIT_ASSIGNED_CONTEXT( ( #46, #47, #48 ) )REPRESENTATION_CONTEXT( 'NONE', 'WORKSPACE' ) );
#10 = STYLED_ITEM( '', ( #50 ), #51 );
#11 = STYLED_ITEM( '', ( #52 ), #53 );
#12 = STYLED_ITEM( '', ( #54 ), #55 );
#13 = STYLED_ITEM( '', ( #56 ), #57 );
#14 = STYLED_ITEM( '', ( #58 ), #59 );
#15 = STYLED_ITEM( '', ( #60 ), #61 );
#16 = STYLED_ITEM( '', ( #62 ), #63 );
#17 = STYLED_ITEM( '', ( #64 ), #65 );
#18 = STYLED_ITEM( '', ( #66 ), #67 );
#19 = STYLED_ITEM( '', ( #68 ), #69 );
#20 = STYLED_ITEM( '', ( #70 ), #71 );
#21 = STYLED_ITEM( '', ( #72 ), #73 );
#22 = STYLED_ITEM( '', ( #74 ), #75 );
#23 = STYLED_ITEM( '', ( #76 ), #77 );
#24 = STYLED_ITEM( '', ( #78 ), #79 );
#25 = STYLED_ITEM( '', ( #80 ), #81 );
#26 = STYLED_ITEM( '', ( #82 ), #83 );
#27 = STYLED_ITEM( '', ( #84 ), #85 );
#28 = STYLED_ITEM( '', ( #86 ), #87 );
#29 = STYLED_ITEM( '', ( #88 ), #89 );
#30 = STYLED_ITEM( '', ( #90 ), #91 );
#31 = STYLED_ITEM( '', ( #92 ), #93 );
#32 = STYLED_ITEM( '', ( #94 ), #95 );
#33 = STYLED_ITEM( '', ( #96 ), #97 );
#34 = STYLED_ITEM( '', ( #98 ), #99 );
#35 = STYLED_ITEM( '', ( #100 ), #101 );
#36 = STYLED_ITEM( '', ( #102 ), #103 );
#37 = APPLICATION_CONTEXT( ' ' );
#38 = PRODUCT_CATEGORY( 'part', 'NONE' );
#39 = PRODUCT_RELATED_PRODUCT_CATEGORY( 'detail', ' ', ( #104 ) );
#40 = PRODUCT_DEFINITION_SHAPE( 'NONE', 'NONE', #105 );
#41 = ADVANCED_BREP_SHAPE_REPRESENTATION( '1', ( #95, #106 ), #6 );
#44 = UNCERTAINTY_MEASURE_WITH_UNIT( LENGTH_MEASURE( 1.00000000000000E-006 ), #46, '', '' );
#46 =  ( CONVERSION_BASED_UNIT( 'MILLIMETRE', #109 )LENGTH_UNIT(  )NAMED_UNIT( #112 ) );
#47 =  ( NAMED_UNIT( #114 )PLANE_ANGLE_UNIT(  )SI_UNIT( $, .RADIAN. ) );
#48 =  ( NAMED_UNIT( #114 )SOLID_ANGLE_UNIT(  )SI_UNIT( $, .STERADIAN. ) );
#50 = PRESENTATION_STYLE_ASSIGNMENT( ( #120 ) );
#51 = EDGE_CURVE( '', #63, #87, #121, .T. );
#52 = PRESENTATION_STYLE_ASSIGNMENT( ( #122 ) );
#53 = ADVANCED_FACE( '', ( #123, #124 ), #125, .F. );
#54 = PRESENTATION_STYLE_ASSIGNMENT( ( #126 ) );
#55 = EDGE_CURVE( '', #63, #65, #127, .T. );
#56 = PRESENTATION_STYLE_ASSIGNMENT( ( #128 ) );
#57 = VERTEX_POINT( '', #129 );
#58 = PRESENTATION_STYLE_ASSIGNMENT( ( #130 ) );
#59 = EDGE_CURVE( '', #73, #65, #131, .T. );
#60 = PRESENTATION_STYLE_ASSIGNMENT( ( #132 ) );
#61 = VERTEX_POINT( '', #133 );
#62 = PRESENTATION_STYLE_ASSIGNMENT( ( #134 ) );
#63 = VERTEX_POINT( '', #135 );
#64 = PRESENTATION_STYLE_ASSIGNMENT( ( #136 ) );
#65 = VERTEX_POINT( '', #137 );
#66 = PRESENTATION_STYLE_ASSIGNMENT( ( #138 ) );
#67 = EDGE_CURVE( '', #61, #57, #139, .T. );
#68 = PRESENTATION_STYLE_ASSIGNMENT( ( #140 ) );
#69 = EDGE_CURVE( '', #65, #73, #141, .T. );
#70 = PRESENTATION_STYLE_ASSIGNMENT( ( #142 ) );
#71 = EDGE_CURVE( '', #89, #61, #143, .T. );
#72 = PRESENTATION_STYLE_ASSIGNMENT( ( #144 ) );
#73 = VERTEX_POINT( '', #145 );
#74 = PRESENTATION_STYLE_ASSIGNMENT( ( #146 ) );
#75 = VERTEX_POINT( '', #147 );
#76 = PRESENTATION_STYLE_ASSIGNMENT( ( #148 ) );
#77 = ADVANCED_FACE( '', ( #149 ), #150, .F. );
#78 = PRESENTATION_STYLE_ASSIGNMENT( ( #151 ) );
#79 = ADVANCED_FACE( '', ( #152 ), #153, .T. );
#80 = PRESENTATION_STYLE_ASSIGNMENT( ( #154 ) );
#81 = EDGE_CURVE( '', #57, #75, #155, .T. );
#82 = PRESENTATION_STYLE_ASSIGNMENT( ( #156 ) );
#83 = ADVANCED_FACE( '', ( #157 ), #158, .T. );
#84 = PRESENTATION_STYLE_ASSIGNMENT( ( #159 ) );
#85 = EDGE_CURVE( '', #89, #75, #160, .T. );
#86 = PRESENTATION_STYLE_ASSIGNMENT( ( #161 ) );
#87 = VERTEX_POINT( '', #162 );
#88 = PRESENTATION_STYLE_ASSIGNMENT( ( #163 ) );
#89 = VERTEX_POINT( '', #164 );
#90 = PRESENTATION_STYLE_ASSIGNMENT( ( #165 ) );
#91 = EDGE_CURVE( '', #75, #89, #166, .T. );
#92 = PRESENTATION_STYLE_ASSIGNMENT( ( #167 ) );
#93 = EDGE_CURVE( '', #87, #63, #168, .T. );
#94 = PRESENTATION_STYLE_ASSIGNMENT( ( #169 ) );
#95 = MANIFOLD_SOLID_BREP( '1', #170 );
#96 = PRESENTATION_STYLE_ASSIGNMENT( ( #171 ) );
#97 = EDGE_CURVE( '', #73, #87, #172, .T. );
#98 = PRESENTATION_STYLE_ASSIGNMENT( ( #173 ) );
#99 = ADVANCED_FACE( '', ( #174, #175 ), #176, .T. );
#100 = PRESENTATION_STYLE_ASSIGNMENT( ( #177 ) );
#101 = EDGE_CURVE( '', #57, #61, #178, .T. );
#102 = PRESENTATION_STYLE_ASSIGNMENT( ( #179 ) );
#103 = ADVANCED_FACE( '', ( #180 ), #181, .F. );
#104 = PRODUCT( '1', '1', 'PART-1-DESC', ( #182 ) );
#105 = PRODUCT_DEFINITION( 'NONE', 'NONE', #183, #2 );
#106 = AXIS2_PLACEMENT_3D( '', #184, #185, #186 );
#109 = LENGTH_MEASURE_WITH_UNIT( LENGTH_MEASURE( 1.00000000000000 ), #187 );
#112 = DIMENSIONAL_EXPONENTS( 1.00000000000000, 0.000000000000000, 0.000000000000000, 0.000000000000000, 0.000000000000000, 0.000000000000000, 0.000000000000000 );
#114 = DIMENSIONAL_EXPONENTS( 0.000000000000000, 0.000000000000000, 0.000000000000000, 0.000000000000000, 0.000000000000000, 0.000000000000000, 0.000000000000000 );
#120 = CURVE_STYLE( '', #188, POSITIVE_LENGTH_MEASURE( 1.00000000000000E-006 ), #189 );
#121 = CIRCLE( '', #190, 80.0000000000000 );
#122 = SURFACE_STYLE_USAGE( .BOTH., #191 );
#123 = FACE_OUTER_BOUND( '', #192, .T. );
#124 = FACE_BOUND( '', #193, .T. );
#125 = PLANE( '', #194 );
#126 = CURVE_STYLE( '', #195, POSITIVE_LENGTH_MEASURE( 1.00000000000000E-006 ), #196 );
#127 = LINE( '', #197, #198 );
#128 = POINT_STYLE( ' ', #199, POSITIVE_LENGTH_MEASURE( 1.00000000000000E-006 ), #200 );
#129 = CARTESIAN_POINT( '', ( 5000.00000000000, 8.00892555399835E-015, 65.4000000000000 ) );
#130 = CURVE_STYLE( '', #201, POSITIVE_LENGTH_MEASURE( 1.00000000000000E-006 ), #202 );
#131 = CIRCLE( '', #203, 80.0000000000000 );
#132 = POINT_STYLE( ' ', #204, POSITIVE_LENGTH_MEASURE( 1.00000000000000E-006 ), #205 );
#133 = CARTESIAN_POINT( '', ( 5000.00000000000, 0.000000000000000, -65.4000000000000 ) );
#134 = POINT_STYLE( ' ', #206, POSITIVE_LENGTH_MEASURE( 1.00000000000000E-006 ), #207 );
#135 = CARTESIAN_POINT( '', ( 0.000000000000000, 0.000000000000000, -80.0000000000000 ) );
#136 = POINT_STYLE( ' ', #208, POSITIVE_LENGTH_MEASURE( 1.00000000000000E-006 ), #209 );
#137 = CARTESIAN_POINT( '', ( 5000.00000000000, 0.000000000000000, -80.0000000000000 ) );
#138 = CURVE_STYLE( '', #210, POSITIVE_LENGTH_MEASURE( 1.00000000000000E-006 ), #211 );
#139 = CIRCLE( '', #212, 65.4000000000000 );
#140 = CURVE_STYLE( '', #213, POSITIVE_LENGTH_MEASURE( 1.00000000000000E-006 ), #214 );
#141 = CIRCLE( '', #215, 80.0000000000000 );
#142 = CURVE_STYLE( '', #216, POSITIVE_LENGTH_MEASURE( 1.00000000000000E-006 ), #217 );
#143 = LINE( '', #218, #219 );
#144 = POINT_STYLE( ' ', #220, POSITIVE_LENGTH_MEASURE( 1.00000000000000E-006 ), #221 );
#145 = CARTESIAN_POINT( '', ( 5000.00000000000, 9.79685083057902E-015, 80.0000000000000 ) );
#146 = POINT_STYLE( ' ', #222, POSITIVE_LENGTH_MEASURE( 1.00000000000000E-006 ), #223 );
#147 = CARTESIAN_POINT( '', ( 0.000000000000000, 8.00892555399835E-015, 65.4000000000000 ) );
#148 = SURFACE_STYLE_USAGE( .BOTH., #224 );
#149 = FACE_OUTER_BOUND( '', #225, .T. );
#150 = CYLINDRICAL_SURFACE( '', #226, 65.4000000000000 );
#151 = SURFACE_STYLE_USAGE( .BOTH., #227 );
#152 = FACE_OUTER_BOUND( '', #228, .T. );
#153 = CYLINDRICAL_SURFACE( '', #229, 80.0000000000000 );
#154 = CURVE_STYLE( '', #230, POSITIVE_LENGTH_MEASURE( 1.00000000000000E-006 ), #231 );
#155 = LINE( '', #232, #233 );
#156 = SURFACE_STYLE_USAGE( .BOTH., #234 );
#157 = FACE_OUTER_BOUND( '', #235, .T. );
#158 = CYLINDRICAL_SURFACE( '', #236, 80.0000000000000 );
#159 = CURVE_STYLE( '', #237, POSITIVE_LENGTH_MEASURE( 1.00000000000000E-006 ), #238 );
#160 = CIRCLE( '', #239, 65.4000000000000 );
#161 = POINT_STYLE( ' ', #240, POSITIVE_LENGTH_MEASURE( 1.00000000000000E-006 ), #241 );
#162 = CARTESIAN_POINT( '', ( 0.000000000000000, 9.79685083057902E-015, 80.0000000000000 ) );
#163 = POINT_STYLE( ' ', #242, POSITIVE_LENGTH_MEASURE( 1.00000000000000E-006 ), #243 );
#164 = CARTESIAN_POINT( '', ( 0.000000000000000, 0.000000000000000, -65.4000000000000 ) );
#165 = CURVE_STYLE( '', #244, POSITIVE_LENGTH_MEASURE( 1.00000000000000E-006 ), #245 );
#166 = CIRCLE( '', #246, 65.4000000000000 );
#167 = CURVE_STYLE( '', #247, POSITIVE_LENGTH_MEASURE( 1.00000000000000E-006 ), #248 );
#168 = CIRCLE( '', #249, 80.0000000000000 );
#169 = SURFACE_STYLE_USAGE( .BOTH., #250 );
#170 = CLOSED_SHELL( '', ( #83, #77, #103, #79, #99, #53 ) );
#171 = CURVE_STYLE( '', #251, POSITIVE_LENGTH_MEASURE( 1.00000000000000E-006 ), #252 );
#172 = LINE( '', #253, #254 );
#173 = SURFACE_STYLE_USAGE( .BOTH., #255 );
#174 = FACE_OUTER_BOUND( '', #256, .T. );
#175 = FACE_BOUND( '', #257, .T. );
#176 = PLANE( '', #258 );
#177 = CURVE_STYLE( '', #259, POSITIVE_LENGTH_MEASURE( 1.00000000000000E-006 ), #260 );
#178 = CIRCLE( '', #261, 65.4000000000000 );
#179 = SURFACE_STYLE_USAGE( .BOTH., #262 );
#180 = FACE_OUTER_BOUND( '', #263, .T. );
#181 = CYLINDRICAL_SURFACE( '', #264, 65.4000000000000 );
#182 = PRODUCT_CONTEXT( '', #37, 'mechanical' );
#183 = PRODUCT_DEFINITION_FORMATION_WITH_SPECIFIED_SOURCE( ' ', 'NONE', #104, .NOT_KNOWN. );
#184 = CARTESIAN_POINT( '', ( 0.000000000000000, 0.000000000000000, 0.000000000000000 ) );
#185 = DIRECTION( '', ( 0.000000000000000, 0.000000000000000, 1.00000000000000 ) );
#186 = DIRECTION( '', ( 1.00000000000000, 0.000000000000000, 0.000000000000000 ) );
#187 =  ( NAMED_UNIT( #112 )LENGTH_UNIT(  )SI_UNIT( .MILLI., .METRE. ) );
#188 = DRAUGHTING_PRE_DEFINED_CURVE_FONT( 'continuous' );
#189 = COLOUR_RGB( '', 0.689999997615810, 0.689999997615810, 0.689999997615810 );
#190 = AXIS2_PLACEMENT_3D( '', #266, #267, #268 );
#191 = SURFACE_SIDE_STYLE( '', ( #269 ) );
#192 = EDGE_LOOP( '', ( #270, #271 ) );
#193 = EDGE_LOOP( '', ( #272, #273 ) );
#194 = AXIS2_PLACEMENT_3D( '', #274, #275, #276 );
#195 = DRAUGHTING_PRE_DEFINED_CURVE_FONT( 'continuous' );
#196 = COLOUR_RGB( '', 0.689999997615810, 0.689999997615810, 0.689999997615810 );
#197 = CARTESIAN_POINT( '', ( 0.000000000000000, -9.79685083057902E-015, -80.0000000000000 ) );
#198 = VECTOR( '', #277, 1.00000000000000 );
#199 = PRE_DEFINED_MARKER( '' );
#200 = COLOUR_RGB( '', 0.689999997615810, 0.689999997615810, 0.689999997615810 );
#201 = DRAUGHTING_PRE_DEFINED_CURVE_FONT( 'continuous' );
#202 = COLOUR_RGB( '', 0.689999997615810, 0.689999997615810, 0.689999997615810 );
#203 = AXIS2_PLACEMENT_3D( '', #278, #279, #280 );
#204 = PRE_DEFINED_MARKER( '' );
#205 = COLOUR_RGB( '', 0.689999997615810, 0.689999997615810, 0.689999997615810 );
#206 = PRE_DEFINED_MARKER( '' );
#207 = COLOUR_RGB( '', 0.689999997615810, 0.689999997615810, 0.689999997615810 );
#208 = PRE_DEFINED_MARKER( '' );
#209 = COLOUR_RGB( '', 0.689999997615810, 0.689999997615810, 0.689999997615810 );
#210 = DRAUGHTING_PRE_DEFINED_CURVE_FONT( 'continuous' );
#211 = COLOUR_RGB( '', 0.689999997615810, 0.689999997615810, 0.689999997615810 );
#212 = AXIS2_PLACEMENT_3D( '', #281, #282, #283 );
#213 = DRAUGHTING_PRE_DEFINED_CURVE_FONT( 'continuous' );
#214 = COLOUR_RGB( '', 0.689999997615810, 0.689999997615810, 0.689999997615810 );
#215 = AXIS2_PLACEMENT_3D( '', #284, #285, #286 );
#216 = DRAUGHTING_PRE_DEFINED_CURVE_FONT( 'continuous' );
#217 = COLOUR_RGB( '', 0.689999997615810, 0.689999997615810, 0.689999997615810 );
#218 = CARTESIAN_POINT( '', ( 0.000000000000000, -8.00892555399835E-015, -65.4000000000000 ) );
#219 = VECTOR( '', #287, 1.00000000000000 );
#220 = PRE_DEFINED_MARKER( '' );
#221 = COLOUR_RGB( '', 0.689999997615810, 0.689999997615810, 0.689999997615810 );
#222 = PRE_DEFINED_MARKER( '' );
#223 = COLOUR_RGB( '', 0.689999997615810, 0.689999997615810, 0.689999997615810 );
#224 = SURFACE_SIDE_STYLE( '', ( #288 ) );
#225 = EDGE_LOOP( '', ( #289, #290, #291, #292 ) );
#226 = AXIS2_PLACEMENT_3D( '', #293, #294, #295 );
#227 = SURFACE_SIDE_STYLE( '', ( #296 ) );
#228 = EDGE_LOOP( '', ( #297, #298, #299, #300 ) );
#229 = AXIS2_PLACEMENT_3D( '', #301, #302, #303 );
#230 = DRAUGHTING_PRE_DEFINED_CURVE_FONT( 'continuous' );
#231 = COLOUR_RGB( '', 0.689999997615810, 0.689999997615810, 0.689999997615810 );
#232 = CARTESIAN_POINT( '', ( 0.000000000000000, 8.00892555399835E-015, 65.4000000000000 ) );
#233 = VECTOR( '', #304, 1.00000000000000 );
#234 = SURFACE_SIDE_STYLE( '', ( #305 ) );
#235 = EDGE_LOOP( '', ( #306, #307, #308, #309 ) );
#236 = AXIS2_PLACEMENT_3D( '', #310, #311, #312 );
#237 = DRAUGHTING_PRE_DEFINED_CURVE_FONT( 'continuous' );
#238 = COLOUR_RGB( '', 0.689999997615810, 0.689999997615810, 0.689999997615810 );
#239 = AXIS2_PLACEMENT_3D( '', #313, #314, #315 );
#240 = PRE_DEFINED_MARKER( '' );
#241 = COLOUR_RGB( '', 0.689999997615810, 0.689999997615810, 0.689999997615810 );
#242 = PRE_DEFINED_MARKER( '' );
#243 = COLOUR_RGB( '', 0.689999997615810, 0.689999997615810, 0.689999997615810 );
#244 = DRAUGHTING_PRE_DEFINED_CURVE_FONT( 'continuous' );
#245 = COLOUR_RGB( '', 0.689999997615810, 0.689999997615810, 0.689999997615810 );
#246 = AXIS2_PLACEMENT_3D( '', #316, #317, #318 );
#247 = DRAUGHTING_PRE_DEFINED_CURVE_FONT( 'continuous' );
#248 = COLOUR_RGB( '', 0.689999997615810, 0.689999997615810, 0.689999997615810 );
#249 = AXIS2_PLACEMENT_3D( '', #319, #320, #321 );
#250 = SURFACE_SIDE_STYLE( '', ( #322 ) );
#251 = DRAUGHTING_PRE_DEFINED_CURVE_FONT( 'continuous' );
#252 = COLOUR_RGB( '', 0.689999997615810, 0.689999997615810, 0.689999997615810 );
#253 = CARTESIAN_POINT( '', ( 0.000000000000000, 9.79685083057902E-015, 80.0000000000000 ) );
#254 = VECTOR( '', #323, 1.00000000000000 );
#255 = SURFACE_SIDE_STYLE( '', ( #324 ) );
#256 = EDGE_LOOP( '', ( #325, #326 ) );
#257 = EDGE_LOOP( '', ( #327, #328 ) );
#258 = AXIS2_PLACEMENT_3D( '', #329, #330, #331 );
#259 = DRAUGHTING_PRE_DEFINED_CURVE_FONT( 'continuous' );
#260 = COLOUR_RGB( '', 0.689999997615810, 0.689999997615810, 0.689999997615810 );
#261 = AXIS2_PLACEMENT_3D( '', #332, #333, #334 );
#262 = SURFACE_SIDE_STYLE( '', ( #335 ) );
#263 = EDGE_LOOP( '', ( #336, #337, #338, #339 ) );
#264 = AXIS2_PLACEMENT_3D( '', #340, #341, #342 );
#266 = CARTESIAN_POINT( '', ( 0.000000000000000, 0.000000000000000, 0.000000000000000 ) );
#267 = DIRECTION( '', ( 1.00000000000000, -0.000000000000000, 0.000000000000000 ) );
#268 = DIRECTION( '', ( 0.000000000000000, 0.000000000000000, -1.00000000000000 ) );
#269 = SURFACE_STYLE_FILL_AREA( #343 );
#270 = ORIENTED_EDGE( '', *, *, #51, .F. );
#271 = ORIENTED_EDGE( '', *, *, #93, .F. );
#272 = ORIENTED_EDGE( '', *, *, #85, .T. );
#273 = ORIENTED_EDGE( '', *, *, #91, .T. );
#274 = CARTESIAN_POINT( '', ( 0.000000000000000, 0.000000000000000, 0.000000000000000 ) );
#275 = DIRECTION( '', ( 1.00000000000000, 0.000000000000000, 0.000000000000000 ) );
#276 = DIRECTION( '', ( 0.000000000000000, 0.000000000000000, -1.00000000000000 ) );
#277 = DIRECTION( '', ( 1.00000000000000, 0.000000000000000, 0.000000000000000 ) );
#278 = CARTESIAN_POINT( '', ( 5000.00000000000, 0.000000000000000, 0.000000000000000 ) );
#279 = DIRECTION( '', ( -1.00000000000000, 0.000000000000000, 0.000000000000000 ) );
#280 = DIRECTION( '', ( 0.000000000000000, 0.000000000000000, -1.00000000000000 ) );
#281 = CARTESIAN_POINT( '', ( 5000.00000000000, 0.000000000000000, 0.000000000000000 ) );
#282 = DIRECTION( '', ( 1.00000000000000, 0.000000000000000, 0.000000000000000 ) );
#283 = DIRECTION( '', ( 0.000000000000000, 0.000000000000000, -1.00000000000000 ) );
#284 = CARTESIAN_POINT( '', ( 5000.00000000000, 0.000000000000000, 0.000000000000000 ) );
#285 = DIRECTION( '', ( -1.00000000000000, 0.000000000000000, 0.000000000000000 ) );
#286 = DIRECTION( '', ( 0.000000000000000, 0.000000000000000, -1.00000000000000 ) );
#287 = DIRECTION( '', ( 1.00000000000000, 0.000000000000000, 0.000000000000000 ) );
#288 = SURFACE_STYLE_FILL_AREA( #344 );
#289 = ORIENTED_EDGE( '', *, *, #71, .F. );
#290 = ORIENTED_EDGE( '', *, *, #91, .F. );
#291 = ORIENTED_EDGE( '', *, *, #81, .F. );
#292 = ORIENTED_EDGE( '', *, *, #101, .T. );
#293 = CARTESIAN_POINT( '', ( 0.000000000000000, 0.000000000000000, 0.000000000000000 ) );
#294 = DIRECTION( '', ( -1.00000000000000, -0.000000000000000, -0.000000000000000 ) );
#295 = DIRECTION( '', ( 0.000000000000000, 0.000000000000000, -1.00000000000000 ) );
#296 = SURFACE_STYLE_FILL_AREA( #345 );
#297 = ORIENTED_EDGE( '', *, *, #55, .T. );
#298 = ORIENTED_EDGE( '', *, *, #69, .T. );
#299 = ORIENTED_EDGE( '', *, *, #97, .T. );
#300 = ORIENTED_EDGE( '', *, *, #93, .T. );
#301 = CARTESIAN_POINT( '', ( 0.000000000000000, 0.000000000000000, 0.000000000000000 ) );
#302 = DIRECTION( '', ( -1.00000000000000, -0.000000000000000, -0.000000000000000 ) );
#303 = DIRECTION( '', ( 0.000000000000000, 0.000000000000000, -1.00000000000000 ) );
#304 = DIRECTION( '', ( -1.00000000000000, 0.000000000000000, 0.000000000000000 ) );
#305 = SURFACE_STYLE_FILL_AREA( #346 );
#306 = ORIENTED_EDGE( '', *, *, #55, .F. );
#307 = ORIENTED_EDGE( '', *, *, #51, .T. );
#308 = ORIENTED_EDGE( '', *, *, #97, .F. );
#309 = ORIENTED_EDGE( '', *, *, #59, .T. );
#310 = CARTESIAN_POINT( '', ( 0.000000000000000, 0.000000000000000, 0.000000000000000 ) );
#311 = DIRECTION( '', ( -1.00000000000000, -0.000000000000000, -0.000000000000000 ) );
#312 = DIRECTION( '', ( 0.000000000000000, 0.000000000000000, -1.00000000000000 ) );
#313 = CARTESIAN_POINT( '', ( 0.000000000000000, 0.000000000000000, 0.000000000000000 ) );
#314 = DIRECTION( '', ( 1.00000000000000, -0.000000000000000, 0.000000000000000 ) );
#315 = DIRECTION( '', ( 0.000000000000000, 0.000000000000000, -1.00000000000000 ) );
#316 = CARTESIAN_POINT( '', ( 0.000000000000000, 0.000000000000000, 0.000000000000000 ) );
#317 = DIRECTION( '', ( 1.00000000000000, -0.000000000000000, 0.000000000000000 ) );
#318 = DIRECTION( '', ( 0.000000000000000, 0.000000000000000, -1.00000000000000 ) );
#319 = CARTESIAN_POINT( '', ( 0.000000000000000, 0.000000000000000, 0.000000000000000 ) );
#320 = DIRECTION( '', ( 1.00000000000000, -0.000000000000000, 0.000000000000000 ) );
#321 = DIRECTION( '', ( 0.000000000000000, 0.000000000000000, -1.00000000000000 ) );
#322 = SURFACE_STYLE_FILL_AREA( #347 );
#323 = DIRECTION( '', ( -1.00000000000000, -0.000000000000000, -0.000000000000000 ) );
#324 = SURFACE_STYLE_FILL_AREA( #348 );
#325 = ORIENTED_EDGE( '', *, *, #69, .F. );
#326 = ORIENTED_EDGE( '', *, *, #59, .F. );
#327 = ORIENTED_EDGE( '', *, *, #67, .F. );
#328 = ORIENTED_EDGE( '', *, *, #101, .F. );
#329 = CARTESIAN_POINT( '', ( 5000.00000000000, 0.000000000000000, 0.000000000000000 ) );
#330 = DIRECTION( '', ( 1.00000000000000, 0.000000000000000, 0.000000000000000 ) );
#331 = DIRECTION( '', ( 0.000000000000000, 0.000000000000000, -1.00000000000000 ) );
#332 = CARTESIAN_POINT( '', ( 5000.00000000000, 0.000000000000000, 0.000000000000000 ) );
#333 = DIRECTION( '', ( 1.00000000000000, 0.000000000000000, 0.000000000000000 ) );
#334 = DIRECTION( '', ( 0.000000000000000, 0.000000000000000, -1.00000000000000 ) );
#335 = SURFACE_STYLE_FILL_AREA( #349 );
#336 = ORIENTED_EDGE( '', *, *, #71, .T. );
#337 = ORIENTED_EDGE( '', *, *, #67, .T. );
#338 = ORIENTED_EDGE( '', *, *, #81, .T. );
#339 = ORIENTED_EDGE( '', *, *, #85, .F. );
#340 = CARTESIAN_POINT( '', ( 0.000000000000000, 0.000000000000000, 0.000000000000000 ) );
#341 = DIRECTION( '', ( -1.00000000000000, -0.000000000000000, -0.000000000000000 ) );
#342 = DIRECTION( '', ( 0.000000000000000, 0.000000000000000, -1.00000000000000 ) );
#343 = FILL_AREA_STYLE( '', ( #350 ) );
#344 = FILL_AREA_STYLE( '', ( #351 ) );
#345 = FILL_AREA_STYLE( '', ( #352 ) );
#346 = FILL_AREA_STYLE( '', ( #353 ) );
#347 = FILL_AREA_STYLE( '', ( #354 ) );
#348 = FILL_AREA_STYLE( '', ( #355 ) );
#349 = FILL_AREA_STYLE( '', ( #356 ) );
#350 = FILL_AREA_STYLE_COLOUR( '', #357 );
#351 = FILL_AREA_STYLE_COLOUR( '', #358 );
#352 = FILL_AREA_STYLE_COLOUR( '', #359 );
#353 = FILL_AREA_STYLE_COLOUR( '', #360 );
#354 = FILL_AREA_STYLE_COLOUR( '', #361 );
#355 = FILL_AREA_STYLE_COLOUR( '', #362 );
#356 = FILL_AREA_STYLE_COLOUR( '', #363 );
#357 = COLOUR_RGB( '', 0.689999997615810, 0.689999997615810, 0.689999997615810 );
#358 = COLOUR_RGB( '', 0.689999997615810, 0.689999997615810, 0.689999997615810 );
#359 = COLOUR_RGB( '', 0.689999997615810, 0.689999997615810, 0.689999997615810 );
#360 = COLOUR_RGB( '', 0.689999997615810, 0.689999997615810, 0.689999997615810 );
#361 = COLOUR_RGB( '', 0.689999997615810, 0.689999997615810, 0.689999997615810 );
#362 = COLOUR_RGB( '', 0.689999997615810, 0.689999997615810, 0.689999997615810 );
#363 = COLOUR_RGB( '', 0.689999997615810, 0.689999997615810, 0.689999997615810 );
ENDSEC;
END-ISO-10303-21;
