ISO-10303-21;
HEADER;
FILE_DESCRIPTION( ( '' ), '1' );
FILE_NAME( '//se01002/users/anro/AGRU_12705071041_PPH_grau_Rohr__5m_710X17_4__SDR41__ISO_S-20_10.stp', '2018-02-07T08:05:50', ( '' ), ( '' ), ' ', ' ', ' ' );
FILE_SCHEMA( ( 'automotive_design' ) );
ENDSEC;
DATA;
#1 = MECHANICAL_DESIGN_GEOMETRIC_PRESENTATION_REPRESENTATION( ' ', ( #10, #11, #12, #13, #14, #15, #16, #17, #18, #19, #20, #21, #22, #23, #24, #25, #26, #27, #28, #29, #30, #31, #32, #33, #34, #35, #36 ), #6 );
#2 = PRODUCT_DEFINITION_CONTEXT( '', #37, 'design' );
#3 = APPLICATION_PROTOCOL_DEFINITION( 'INTERNATIONAL STANDARD', 'automotive_design', 1994, #37 );
#4 = PRODUCT_CATEGORY_RELATIONSHIP( 'NONE', 'NONE', #38, #39 );
#5 = SHAPE_DEFINITION_REPRESENTATION( #40, #41 );
#6 =  ( GEOMETRIC_REPRESENTATION_CONTEXT( 3 )GLOBAL_UNCERTAINTY_ASSIGNED_CONTEXT( ( #44 ) )GLOBAL_UNIT_ASSIGNED_CONTEXT( ( #46, #47, #48 ) )REPRESENTATION_CONTEXT( 'NONE', 'WORKSPACE' ) );
#10 = STYLED_ITEM( '', ( #50 ), #51 );
#11 = STYLED_ITEM( '', ( #52 ), #53 );
#12 = STYLED_ITEM( '', ( #54 ), #55 );
#13 = STYLED_ITEM( '', ( #56 ), #57 );
#14 = STYLED_ITEM( '', ( #58 ), #59 );
#15 = STYLED_ITEM( '', ( #60 ), #61 );
#16 = STYLED_ITEM( '', ( #62 ), #63 );
#17 = STYLED_ITEM( '', ( #64 ), #65 );
#18 = STYLED_ITEM( '', ( #66 ), #67 );
#19 = STYLED_ITEM( '', ( #68 ), #69 );
#20 = STYLED_ITEM( '', ( #70 ), #71 );
#21 = STYLED_ITEM( '', ( #72 ), #73 );
#22 = STYLED_ITEM( '', ( #74 ), #75 );
#23 = STYLED_ITEM( '', ( #76 ), #77 );
#24 = STYLED_ITEM( '', ( #78 ), #79 );
#25 = STYLED_ITEM( '', ( #80 ), #81 );
#26 = STYLED_ITEM( '', ( #82 ), #83 );
#27 = STYLED_ITEM( '', ( #84 ), #85 );
#28 = STYLED_ITEM( '', ( #86 ), #87 );
#29 = STYLED_ITEM( '', ( #88 ), #89 );
#30 = STYLED_ITEM( '', ( #90 ), #91 );
#31 = STYLED_ITEM( '', ( #92 ), #93 );
#32 = STYLED_ITEM( '', ( #94 ), #95 );
#33 = STYLED_ITEM( '', ( #96 ), #97 );
#34 = STYLED_ITEM( '', ( #98 ), #99 );
#35 = STYLED_ITEM( '', ( #100 ), #101 );
#36 = STYLED_ITEM( '', ( #102 ), #103 );
#37 = APPLICATION_CONTEXT( ' ' );
#38 = PRODUCT_CATEGORY( 'part', 'NONE' );
#39 = PRODUCT_RELATED_PRODUCT_CATEGORY( 'detail', ' ', ( #104 ) );
#40 = PRODUCT_DEFINITION_SHAPE( 'NONE', 'NONE', #105 );
#41 = ADVANCED_BREP_SHAPE_REPRESENTATION( '1', ( #85, #106 ), #6 );
#44 = UNCERTAINTY_MEASURE_WITH_UNIT( LENGTH_MEASURE( 1.00000000000000E-006 ), #46, '', '' );
#46 =  ( CONVERSION_BASED_UNIT( 'MILLIMETRE', #109 )LENGTH_UNIT(  )NAMED_UNIT( #112 ) );
#47 =  ( NAMED_UNIT( #114 )PLANE_ANGLE_UNIT(  )SI_UNIT( $, .RADIAN. ) );
#48 =  ( NAMED_UNIT( #114 )SOLID_ANGLE_UNIT(  )SI_UNIT( $, .STERADIAN. ) );
#50 = PRESENTATION_STYLE_ASSIGNMENT( ( #120 ) );
#51 = ADVANCED_FACE( '', ( #121, #122 ), #123, .T. );
#52 = PRESENTATION_STYLE_ASSIGNMENT( ( #124 ) );
#53 = EDGE_CURVE( '', #73, #103, #125, .T. );
#54 = PRESENTATION_STYLE_ASSIGNMENT( ( #126 ) );
#55 = VERTEX_POINT( '', #127 );
#56 = PRESENTATION_STYLE_ASSIGNMENT( ( #128 ) );
#57 = ADVANCED_FACE( '', ( #129, #130 ), #131, .F. );
#58 = PRESENTATION_STYLE_ASSIGNMENT( ( #132 ) );
#59 = ADVANCED_FACE( '', ( #133 ), #134, .F. );
#60 = PRESENTATION_STYLE_ASSIGNMENT( ( #135 ) );
#61 = VERTEX_POINT( '', #136 );
#62 = PRESENTATION_STYLE_ASSIGNMENT( ( #137 ) );
#63 = EDGE_CURVE( '', #79, #55, #138, .T. );
#64 = PRESENTATION_STYLE_ASSIGNMENT( ( #139 ) );
#65 = EDGE_CURVE( '', #75, #103, #140, .T. );
#66 = PRESENTATION_STYLE_ASSIGNMENT( ( #141 ) );
#67 = EDGE_CURVE( '', #55, #79, #142, .T. );
#68 = PRESENTATION_STYLE_ASSIGNMENT( ( #143 ) );
#69 = ADVANCED_FACE( '', ( #144 ), #145, .T. );
#70 = PRESENTATION_STYLE_ASSIGNMENT( ( #146 ) );
#71 = ADVANCED_FACE( '', ( #147 ), #148, .T. );
#72 = PRESENTATION_STYLE_ASSIGNMENT( ( #149 ) );
#73 = VERTEX_POINT( '', #150 );
#74 = PRESENTATION_STYLE_ASSIGNMENT( ( #151 ) );
#75 = VERTEX_POINT( '', #152 );
#76 = PRESENTATION_STYLE_ASSIGNMENT( ( #153 ) );
#77 = EDGE_CURVE( '', #75, #61, #154, .T. );
#78 = PRESENTATION_STYLE_ASSIGNMENT( ( #155 ) );
#79 = VERTEX_POINT( '', #156 );
#80 = PRESENTATION_STYLE_ASSIGNMENT( ( #157 ) );
#81 = EDGE_CURVE( '', #73, #61, #158, .T. );
#82 = PRESENTATION_STYLE_ASSIGNMENT( ( #159 ) );
#83 = EDGE_CURVE( '', #87, #89, #160, .T. );
#84 = PRESENTATION_STYLE_ASSIGNMENT( ( #161 ) );
#85 = MANIFOLD_SOLID_BREP( '1', #162 );
#86 = PRESENTATION_STYLE_ASSIGNMENT( ( #163 ) );
#87 = VERTEX_POINT( '', #164 );
#88 = PRESENTATION_STYLE_ASSIGNMENT( ( #165 ) );
#89 = VERTEX_POINT( '', #166 );
#90 = PRESENTATION_STYLE_ASSIGNMENT( ( #167 ) );
#91 = EDGE_CURVE( '', #61, #73, #168, .T. );
#92 = PRESENTATION_STYLE_ASSIGNMENT( ( #169 ) );
#93 = EDGE_CURVE( '', #87, #55, #170, .T. );
#94 = PRESENTATION_STYLE_ASSIGNMENT( ( #171 ) );
#95 = ADVANCED_FACE( '', ( #172 ), #173, .F. );
#96 = PRESENTATION_STYLE_ASSIGNMENT( ( #174 ) );
#97 = EDGE_CURVE( '', #79, #89, #175, .T. );
#98 = PRESENTATION_STYLE_ASSIGNMENT( ( #176 ) );
#99 = EDGE_CURVE( '', #103, #75, #177, .T. );
#100 = PRESENTATION_STYLE_ASSIGNMENT( ( #178 ) );
#101 = EDGE_CURVE( '', #89, #87, #179, .T. );
#102 = PRESENTATION_STYLE_ASSIGNMENT( ( #180 ) );
#103 = VERTEX_POINT( '', #181 );
#104 = PRODUCT( '1', '1', 'PART-1-DESC', ( #182 ) );
#105 = PRODUCT_DEFINITION( 'NONE', 'NONE', #183, #2 );
#106 = AXIS2_PLACEMENT_3D( '', #184, #185, #186 );
#109 = LENGTH_MEASURE_WITH_UNIT( LENGTH_MEASURE( 1.00000000000000 ), #187 );
#112 = DIMENSIONAL_EXPONENTS( 1.00000000000000, 0.000000000000000, 0.000000000000000, 0.000000000000000, 0.000000000000000, 0.000000000000000, 0.000000000000000 );
#114 = DIMENSIONAL_EXPONENTS( 0.000000000000000, 0.000000000000000, 0.000000000000000, 0.000000000000000, 0.000000000000000, 0.000000000000000, 0.000000000000000 );
#120 = SURFACE_STYLE_USAGE( .BOTH., #188 );
#121 = FACE_OUTER_BOUND( '', #189, .T. );
#122 = FACE_BOUND( '', #190, .T. );
#123 = PLANE( '', #191 );
#124 = CURVE_STYLE( '', #192, POSITIVE_LENGTH_MEASURE( 1.00000000000000E-006 ), #193 );
#125 = LINE( '', #194, #195 );
#126 = POINT_STYLE( ' ', #196, POSITIVE_LENGTH_MEASURE( 1.00000000000000E-006 ), #197 );
#127 = CARTESIAN_POINT( '', ( 0.000000000000000, 4.34735255606944E-014, 355.000000000000 ) );
#128 = SURFACE_STYLE_USAGE( .BOTH., #198 );
#129 = FACE_OUTER_BOUND( '', #199, .T. );
#130 = FACE_BOUND( '', #200, .T. );
#131 = PLANE( '', #201 );
#132 = SURFACE_STYLE_USAGE( .BOTH., #202 );
#133 = FACE_OUTER_BOUND( '', #203, .T. );
#134 = CYLINDRICAL_SURFACE( '', #204, 337.600000000000 );
#135 = POINT_STYLE( ' ', #205, POSITIVE_LENGTH_MEASURE( 1.00000000000000E-006 ), #206 );
#136 = CARTESIAN_POINT( '', ( 0.000000000000000, 4.13427105050435E-014, 337.600000000000 ) );
#137 = CURVE_STYLE( '', #207, POSITIVE_LENGTH_MEASURE( 1.00000000000000E-006 ), #208 );
#138 = CIRCLE( '', #209, 355.000000000000 );
#139 = CURVE_STYLE( '', #210, POSITIVE_LENGTH_MEASURE( 1.00000000000000E-006 ), #211 );
#140 = CIRCLE( '', #212, 337.600000000000 );
#141 = CURVE_STYLE( '', #213, POSITIVE_LENGTH_MEASURE( 1.00000000000000E-006 ), #214 );
#142 = CIRCLE( '', #215, 355.000000000000 );
#143 = SURFACE_STYLE_USAGE( .BOTH., #216 );
#144 = FACE_OUTER_BOUND( '', #217, .T. );
#145 = CYLINDRICAL_SURFACE( '', #218, 355.000000000000 );
#146 = SURFACE_STYLE_USAGE( .BOTH., #219 );
#147 = FACE_OUTER_BOUND( '', #220, .T. );
#148 = CYLINDRICAL_SURFACE( '', #221, 355.000000000000 );
#149 = POINT_STYLE( ' ', #222, POSITIVE_LENGTH_MEASURE( 1.00000000000000E-006 ), #223 );
#150 = CARTESIAN_POINT( '', ( 0.000000000000000, 0.000000000000000, -337.600000000000 ) );
#151 = POINT_STYLE( ' ', #224, POSITIVE_LENGTH_MEASURE( 1.00000000000000E-006 ), #225 );
#152 = CARTESIAN_POINT( '', ( 5000.00000000000, 4.13427105050435E-014, 337.600000000000 ) );
#153 = CURVE_STYLE( '', #226, POSITIVE_LENGTH_MEASURE( 1.00000000000000E-006 ), #227 );
#154 = LINE( '', #228, #229 );
#155 = POINT_STYLE( ' ', #230, POSITIVE_LENGTH_MEASURE( 1.00000000000000E-006 ), #231 );
#156 = CARTESIAN_POINT( '', ( 0.000000000000000, 0.000000000000000, -355.000000000000 ) );
#157 = CURVE_STYLE( '', #232, POSITIVE_LENGTH_MEASURE( 1.00000000000000E-006 ), #233 );
#158 = CIRCLE( '', #234, 337.600000000000 );
#159 = CURVE_STYLE( '', #235, POSITIVE_LENGTH_MEASURE( 1.00000000000000E-006 ), #236 );
#160 = CIRCLE( '', #237, 355.000000000000 );
#161 = SURFACE_STYLE_USAGE( .BOTH., #238 );
#162 = CLOSED_SHELL( '', ( #71, #95, #59, #69, #51, #57 ) );
#163 = POINT_STYLE( ' ', #239, POSITIVE_LENGTH_MEASURE( 1.00000000000000E-006 ), #240 );
#164 = CARTESIAN_POINT( '', ( 5000.00000000000, 4.34735255606944E-014, 355.000000000000 ) );
#165 = POINT_STYLE( ' ', #241, POSITIVE_LENGTH_MEASURE( 1.00000000000000E-006 ), #242 );
#166 = CARTESIAN_POINT( '', ( 5000.00000000000, 0.000000000000000, -355.000000000000 ) );
#167 = CURVE_STYLE( '', #243, POSITIVE_LENGTH_MEASURE( 1.00000000000000E-006 ), #244 );
#168 = CIRCLE( '', #245, 337.600000000000 );
#169 = CURVE_STYLE( '', #246, POSITIVE_LENGTH_MEASURE( 1.00000000000000E-006 ), #247 );
#170 = LINE( '', #248, #249 );
#171 = SURFACE_STYLE_USAGE( .BOTH., #250 );
#172 = FACE_OUTER_BOUND( '', #251, .T. );
#173 = CYLINDRICAL_SURFACE( '', #252, 337.600000000000 );
#174 = CURVE_STYLE( '', #253, POSITIVE_LENGTH_MEASURE( 1.00000000000000E-006 ), #254 );
#175 = LINE( '', #255, #256 );
#176 = CURVE_STYLE( '', #257, POSITIVE_LENGTH_MEASURE( 1.00000000000000E-006 ), #258 );
#177 = CIRCLE( '', #259, 337.600000000000 );
#178 = CURVE_STYLE( '', #260, POSITIVE_LENGTH_MEASURE( 1.00000000000000E-006 ), #261 );
#179 = CIRCLE( '', #262, 355.000000000000 );
#180 = POINT_STYLE( ' ', #263, POSITIVE_LENGTH_MEASURE( 1.00000000000000E-006 ), #264 );
#181 = CARTESIAN_POINT( '', ( 5000.00000000000, 0.000000000000000, -337.600000000000 ) );
#182 = PRODUCT_CONTEXT( '', #37, 'mechanical' );
#183 = PRODUCT_DEFINITION_FORMATION_WITH_SPECIFIED_SOURCE( ' ', 'NONE', #104, .NOT_KNOWN. );
#184 = CARTESIAN_POINT( '', ( 0.000000000000000, 0.000000000000000, 0.000000000000000 ) );
#185 = DIRECTION( '', ( 0.000000000000000, 0.000000000000000, 1.00000000000000 ) );
#186 = DIRECTION( '', ( 1.00000000000000, 0.000000000000000, 0.000000000000000 ) );
#187 =  ( NAMED_UNIT( #112 )LENGTH_UNIT(  )SI_UNIT( .MILLI., .METRE. ) );
#188 = SURFACE_SIDE_STYLE( '', ( #266 ) );
#189 = EDGE_LOOP( '', ( #267, #268 ) );
#190 = EDGE_LOOP( '', ( #269, #270 ) );
#191 = AXIS2_PLACEMENT_3D( '', #271, #272, #273 );
#192 = DRAUGHTING_PRE_DEFINED_CURVE_FONT( 'continuous' );
#193 = COLOUR_RGB( '', 0.689999997615810, 0.689999997615810, 0.689999997615810 );
#194 = CARTESIAN_POINT( '', ( 0.000000000000000, -4.13427105050435E-014, -337.600000000000 ) );
#195 = VECTOR( '', #274, 1.00000000000000 );
#196 = PRE_DEFINED_MARKER( '' );
#197 = COLOUR_RGB( '', 0.689999997615810, 0.689999997615810, 0.689999997615810 );
#198 = SURFACE_SIDE_STYLE( '', ( #275 ) );
#199 = EDGE_LOOP( '', ( #276, #277 ) );
#200 = EDGE_LOOP( '', ( #278, #279 ) );
#201 = AXIS2_PLACEMENT_3D( '', #280, #281, #282 );
#202 = SURFACE_SIDE_STYLE( '', ( #283 ) );
#203 = EDGE_LOOP( '', ( #284, #285, #286, #287 ) );
#204 = AXIS2_PLACEMENT_3D( '', #288, #289, #290 );
#205 = PRE_DEFINED_MARKER( '' );
#206 = COLOUR_RGB( '', 0.689999997615810, 0.689999997615810, 0.689999997615810 );
#207 = DRAUGHTING_PRE_DEFINED_CURVE_FONT( 'continuous' );
#208 = COLOUR_RGB( '', 0.689999997615810, 0.689999997615810, 0.689999997615810 );
#209 = AXIS2_PLACEMENT_3D( '', #291, #292, #293 );
#210 = DRAUGHTING_PRE_DEFINED_CURVE_FONT( 'continuous' );
#211 = COLOUR_RGB( '', 0.689999997615810, 0.689999997615810, 0.689999997615810 );
#212 = AXIS2_PLACEMENT_3D( '', #294, #295, #296 );
#213 = DRAUGHTING_PRE_DEFINED_CURVE_FONT( 'continuous' );
#214 = COLOUR_RGB( '', 0.689999997615810, 0.689999997615810, 0.689999997615810 );
#215 = AXIS2_PLACEMENT_3D( '', #297, #298, #299 );
#216 = SURFACE_SIDE_STYLE( '', ( #300 ) );
#217 = EDGE_LOOP( '', ( #301, #302, #303, #304 ) );
#218 = AXIS2_PLACEMENT_3D( '', #305, #306, #307 );
#219 = SURFACE_SIDE_STYLE( '', ( #308 ) );
#220 = EDGE_LOOP( '', ( #309, #310, #311, #312 ) );
#221 = AXIS2_PLACEMENT_3D( '', #313, #314, #315 );
#222 = PRE_DEFINED_MARKER( '' );
#223 = COLOUR_RGB( '', 0.689999997615810, 0.689999997615810, 0.689999997615810 );
#224 = PRE_DEFINED_MARKER( '' );
#225 = COLOUR_RGB( '', 0.689999997615810, 0.689999997615810, 0.689999997615810 );
#226 = DRAUGHTING_PRE_DEFINED_CURVE_FONT( 'continuous' );
#227 = COLOUR_RGB( '', 0.689999997615810, 0.689999997615810, 0.689999997615810 );
#228 = CARTESIAN_POINT( '', ( 0.000000000000000, 4.13427105050435E-014, 337.600000000000 ) );
#229 = VECTOR( '', #316, 1.00000000000000 );
#230 = PRE_DEFINED_MARKER( '' );
#231 = COLOUR_RGB( '', 0.689999997615810, 0.689999997615810, 0.689999997615810 );
#232 = DRAUGHTING_PRE_DEFINED_CURVE_FONT( 'continuous' );
#233 = COLOUR_RGB( '', 0.689999997615810, 0.689999997615810, 0.689999997615810 );
#234 = AXIS2_PLACEMENT_3D( '', #317, #318, #319 );
#235 = DRAUGHTING_PRE_DEFINED_CURVE_FONT( 'continuous' );
#236 = COLOUR_RGB( '', 0.689999997615810, 0.689999997615810, 0.689999997615810 );
#237 = AXIS2_PLACEMENT_3D( '', #320, #321, #322 );
#238 = SURFACE_SIDE_STYLE( '', ( #323 ) );
#239 = PRE_DEFINED_MARKER( '' );
#240 = COLOUR_RGB( '', 0.689999997615810, 0.689999997615810, 0.689999997615810 );
#241 = PRE_DEFINED_MARKER( '' );
#242 = COLOUR_RGB( '', 0.689999997615810, 0.689999997615810, 0.689999997615810 );
#243 = DRAUGHTING_PRE_DEFINED_CURVE_FONT( 'continuous' );
#244 = COLOUR_RGB( '', 0.689999997615810, 0.689999997615810, 0.689999997615810 );
#245 = AXIS2_PLACEMENT_3D( '', #324, #325, #326 );
#246 = DRAUGHTING_PRE_DEFINED_CURVE_FONT( 'continuous' );
#247 = COLOUR_RGB( '', 0.689999997615810, 0.689999997615810, 0.689999997615810 );
#248 = CARTESIAN_POINT( '', ( 0.000000000000000, 4.34735255606944E-014, 355.000000000000 ) );
#249 = VECTOR( '', #327, 1.00000000000000 );
#250 = SURFACE_SIDE_STYLE( '', ( #328 ) );
#251 = EDGE_LOOP( '', ( #329, #330, #331, #332 ) );
#252 = AXIS2_PLACEMENT_3D( '', #333, #334, #335 );
#253 = DRAUGHTING_PRE_DEFINED_CURVE_FONT( 'continuous' );
#254 = COLOUR_RGB( '', 0.689999997615810, 0.689999997615810, 0.689999997615810 );
#255 = CARTESIAN_POINT( '', ( 0.000000000000000, -4.34735255606944E-014, -355.000000000000 ) );
#256 = VECTOR( '', #336, 1.00000000000000 );
#257 = DRAUGHTING_PRE_DEFINED_CURVE_FONT( 'continuous' );
#258 = COLOUR_RGB( '', 0.689999997615810, 0.689999997615810, 0.689999997615810 );
#259 = AXIS2_PLACEMENT_3D( '', #337, #338, #339 );
#260 = DRAUGHTING_PRE_DEFINED_CURVE_FONT( 'continuous' );
#261 = COLOUR_RGB( '', 0.689999997615810, 0.689999997615810, 0.689999997615810 );
#262 = AXIS2_PLACEMENT_3D( '', #340, #341, #342 );
#263 = PRE_DEFINED_MARKER( '' );
#264 = COLOUR_RGB( '', 0.689999997615810, 0.689999997615810, 0.689999997615810 );
#266 = SURFACE_STYLE_FILL_AREA( #343 );
#267 = ORIENTED_EDGE( '', *, *, #101, .F. );
#268 = ORIENTED_EDGE( '', *, *, #83, .F. );
#269 = ORIENTED_EDGE( '', *, *, #99, .F. );
#270 = ORIENTED_EDGE( '', *, *, #65, .F. );
#271 = CARTESIAN_POINT( '', ( 5000.00000000000, 0.000000000000000, 0.000000000000000 ) );
#272 = DIRECTION( '', ( 1.00000000000000, 0.000000000000000, 0.000000000000000 ) );
#273 = DIRECTION( '', ( 0.000000000000000, 0.000000000000000, -1.00000000000000 ) );
#274 = DIRECTION( '', ( 1.00000000000000, 0.000000000000000, 0.000000000000000 ) );
#275 = SURFACE_STYLE_FILL_AREA( #344 );
#276 = ORIENTED_EDGE( '', *, *, #63, .F. );
#277 = ORIENTED_EDGE( '', *, *, #67, .F. );
#278 = ORIENTED_EDGE( '', *, *, #81, .T. );
#279 = ORIENTED_EDGE( '', *, *, #91, .T. );
#280 = CARTESIAN_POINT( '', ( 0.000000000000000, 0.000000000000000, 0.000000000000000 ) );
#281 = DIRECTION( '', ( 1.00000000000000, 0.000000000000000, 0.000000000000000 ) );
#282 = DIRECTION( '', ( 0.000000000000000, 0.000000000000000, -1.00000000000000 ) );
#283 = SURFACE_STYLE_FILL_AREA( #345 );
#284 = ORIENTED_EDGE( '', *, *, #53, .T. );
#285 = ORIENTED_EDGE( '', *, *, #99, .T. );
#286 = ORIENTED_EDGE( '', *, *, #77, .T. );
#287 = ORIENTED_EDGE( '', *, *, #81, .F. );
#288 = CARTESIAN_POINT( '', ( 0.000000000000000, 0.000000000000000, 0.000000000000000 ) );
#289 = DIRECTION( '', ( -1.00000000000000, -0.000000000000000, -0.000000000000000 ) );
#290 = DIRECTION( '', ( 0.000000000000000, 0.000000000000000, -1.00000000000000 ) );
#291 = CARTESIAN_POINT( '', ( 0.000000000000000, 0.000000000000000, 0.000000000000000 ) );
#292 = DIRECTION( '', ( 1.00000000000000, -0.000000000000000, 0.000000000000000 ) );
#293 = DIRECTION( '', ( 0.000000000000000, 0.000000000000000, -1.00000000000000 ) );
#294 = CARTESIAN_POINT( '', ( 5000.00000000000, 0.000000000000000, 0.000000000000000 ) );
#295 = DIRECTION( '', ( 1.00000000000000, 0.000000000000000, 0.000000000000000 ) );
#296 = DIRECTION( '', ( 0.000000000000000, 0.000000000000000, -1.00000000000000 ) );
#297 = CARTESIAN_POINT( '', ( 0.000000000000000, 0.000000000000000, 0.000000000000000 ) );
#298 = DIRECTION( '', ( 1.00000000000000, -0.000000000000000, 0.000000000000000 ) );
#299 = DIRECTION( '', ( 0.000000000000000, 0.000000000000000, -1.00000000000000 ) );
#300 = SURFACE_STYLE_FILL_AREA( #346 );
#301 = ORIENTED_EDGE( '', *, *, #97, .T. );
#302 = ORIENTED_EDGE( '', *, *, #101, .T. );
#303 = ORIENTED_EDGE( '', *, *, #93, .T. );
#304 = ORIENTED_EDGE( '', *, *, #67, .T. );
#305 = CARTESIAN_POINT( '', ( 0.000000000000000, 0.000000000000000, 0.000000000000000 ) );
#306 = DIRECTION( '', ( -1.00000000000000, -0.000000000000000, -0.000000000000000 ) );
#307 = DIRECTION( '', ( 0.000000000000000, 0.000000000000000, -1.00000000000000 ) );
#308 = SURFACE_STYLE_FILL_AREA( #347 );
#309 = ORIENTED_EDGE( '', *, *, #97, .F. );
#310 = ORIENTED_EDGE( '', *, *, #63, .T. );
#311 = ORIENTED_EDGE( '', *, *, #93, .F. );
#312 = ORIENTED_EDGE( '', *, *, #83, .T. );
#313 = CARTESIAN_POINT( '', ( 0.000000000000000, 0.000000000000000, 0.000000000000000 ) );
#314 = DIRECTION( '', ( -1.00000000000000, -0.000000000000000, -0.000000000000000 ) );
#315 = DIRECTION( '', ( 0.000000000000000, 0.000000000000000, -1.00000000000000 ) );
#316 = DIRECTION( '', ( -1.00000000000000, 0.000000000000000, 0.000000000000000 ) );
#317 = CARTESIAN_POINT( '', ( 0.000000000000000, 0.000000000000000, 0.000000000000000 ) );
#318 = DIRECTION( '', ( 1.00000000000000, -0.000000000000000, 0.000000000000000 ) );
#319 = DIRECTION( '', ( 0.000000000000000, 0.000000000000000, -1.00000000000000 ) );
#320 = CARTESIAN_POINT( '', ( 5000.00000000000, 0.000000000000000, 0.000000000000000 ) );
#321 = DIRECTION( '', ( -1.00000000000000, 0.000000000000000, 0.000000000000000 ) );
#322 = DIRECTION( '', ( 0.000000000000000, 0.000000000000000, -1.00000000000000 ) );
#323 = SURFACE_STYLE_FILL_AREA( #348 );
#324 = CARTESIAN_POINT( '', ( 0.000000000000000, 0.000000000000000, 0.000000000000000 ) );
#325 = DIRECTION( '', ( 1.00000000000000, -0.000000000000000, 0.000000000000000 ) );
#326 = DIRECTION( '', ( 0.000000000000000, 0.000000000000000, -1.00000000000000 ) );
#327 = DIRECTION( '', ( -1.00000000000000, -0.000000000000000, -0.000000000000000 ) );
#328 = SURFACE_STYLE_FILL_AREA( #349 );
#329 = ORIENTED_EDGE( '', *, *, #53, .F. );
#330 = ORIENTED_EDGE( '', *, *, #91, .F. );
#331 = ORIENTED_EDGE( '', *, *, #77, .F. );
#332 = ORIENTED_EDGE( '', *, *, #65, .T. );
#333 = CARTESIAN_POINT( '', ( 0.000000000000000, 0.000000000000000, 0.000000000000000 ) );
#334 = DIRECTION( '', ( -1.00000000000000, -0.000000000000000, -0.000000000000000 ) );
#335 = DIRECTION( '', ( 0.000000000000000, 0.000000000000000, -1.00000000000000 ) );
#336 = DIRECTION( '', ( 1.00000000000000, 0.000000000000000, 0.000000000000000 ) );
#337 = CARTESIAN_POINT( '', ( 5000.00000000000, 0.000000000000000, 0.000000000000000 ) );
#338 = DIRECTION( '', ( 1.00000000000000, 0.000000000000000, 0.000000000000000 ) );
#339 = DIRECTION( '', ( 0.000000000000000, 0.000000000000000, -1.00000000000000 ) );
#340 = CARTESIAN_POINT( '', ( 5000.00000000000, 0.000000000000000, 0.000000000000000 ) );
#341 = DIRECTION( '', ( -1.00000000000000, 0.000000000000000, 0.000000000000000 ) );
#342 = DIRECTION( '', ( 0.000000000000000, 0.000000000000000, -1.00000000000000 ) );
#343 = FILL_AREA_STYLE( '', ( #350 ) );
#344 = FILL_AREA_STYLE( '', ( #351 ) );
#345 = FILL_AREA_STYLE( '', ( #352 ) );
#346 = FILL_AREA_STYLE( '', ( #353 ) );
#347 = FILL_AREA_STYLE( '', ( #354 ) );
#348 = FILL_AREA_STYLE( '', ( #355 ) );
#349 = FILL_AREA_STYLE( '', ( #356 ) );
#350 = FILL_AREA_STYLE_COLOUR( '', #357 );
#351 = FILL_AREA_STYLE_COLOUR( '', #358 );
#352 = FILL_AREA_STYLE_COLOUR( '', #359 );
#353 = FILL_AREA_STYLE_COLOUR( '', #360 );
#354 = FILL_AREA_STYLE_COLOUR( '', #361 );
#355 = FILL_AREA_STYLE_COLOUR( '', #362 );
#356 = FILL_AREA_STYLE_COLOUR( '', #363 );
#357 = COLOUR_RGB( '', 0.689999997615810, 0.689999997615810, 0.689999997615810 );
#358 = COLOUR_RGB( '', 0.689999997615810, 0.689999997615810, 0.689999997615810 );
#359 = COLOUR_RGB( '', 0.689999997615810, 0.689999997615810, 0.689999997615810 );
#360 = COLOUR_RGB( '', 0.689999997615810, 0.689999997615810, 0.689999997615810 );
#361 = COLOUR_RGB( '', 0.689999997615810, 0.689999997615810, 0.689999997615810 );
#362 = COLOUR_RGB( '', 0.689999997615810, 0.689999997615810, 0.689999997615810 );
#363 = COLOUR_RGB( '', 0.689999997615810, 0.689999997615810, 0.689999997615810 );
ENDSEC;
END-ISO-10303-21;
