ISO-10303-21;
HEADER;
/* Generated by software containing ST-Developer
 * from STEP Tools, Inc. (www.steptools.com) 
 */

FILE_DESCRIPTION(
/* description */ (''),
/* implementation_level */ '2;1');

FILE_NAME(
/* name */ 'C:\\Users\\mdebiase\\Desktop\\baricentro\\RIV025020020.ipt.
stp',
/* time_stamp */ '2014-05-27T15:24:44+02:00',
/* author */ ('bfaro'),
/* organization */ (''),
/* preprocessor_version */ 'ST-DEVELOPER v15.2',
/* originating_system */ 'Autodesk Inventor 2014',
/* authorisation */ '');

FILE_SCHEMA (('AUTOMOTIVE_DESIGN { 1 0 10303 214 3 1 1 }'));
ENDSEC;

DATA;
#10=SHAPE_REPRESENTATION_RELATIONSHIP('SRR','None',#249,#11);
#11=ADVANCED_BREP_SHAPE_REPRESENTATION($,(#135),#240);
#12=STYLED_ITEM($,(#257),#135);
#13=PLANE($,#154);
#14=PLANE($,#155);
#15=PLANE($,#156);
#16=PLANE($,#157);
#17=PLANE($,#158);
#18=TOROIDAL_SURFACE($,#149,13.,0.499999999999883);
#19=FACE_BOUND($,#42,.T.);
#20=FACE_BOUND($,#44,.T.);
#21=FACE_BOUND($,#46,.T.);
#22=FACE_BOUND($,#48,.T.);
#23=FACE_BOUND($,#50,.T.);
#24=FACE_BOUND($,#52,.T.);
#25=FACE_BOUND($,#53,.T.);
#26=FACE_BOUND($,#54,.T.);
#27=FACE_BOUND($,#55,.T.);
#28=FACE_BOUND($,#56,.T.);
#29=FACE_BOUND($,#58,.T.);
#30=FACE_BOUND($,#60,.T.);
#31=FACE_BOUND($,#62,.T.);
#32=FACE_OUTER_BOUND($,#41,.T.);
#33=FACE_OUTER_BOUND($,#43,.T.);
#34=FACE_OUTER_BOUND($,#45,.T.);
#35=FACE_OUTER_BOUND($,#47,.T.);
#36=FACE_OUTER_BOUND($,#49,.T.);
#37=FACE_OUTER_BOUND($,#51,.T.);
#38=FACE_OUTER_BOUND($,#57,.T.);
#39=FACE_OUTER_BOUND($,#59,.T.);
#40=FACE_OUTER_BOUND($,#61,.T.);
#41=EDGE_LOOP($,(#96));
#42=EDGE_LOOP($,(#97));
#43=EDGE_LOOP($,(#98));
#44=EDGE_LOOP($,(#99));
#45=EDGE_LOOP($,(#100));
#46=EDGE_LOOP($,(#101));
#47=EDGE_LOOP($,(#102));
#48=EDGE_LOOP($,(#103));
#49=EDGE_LOOP($,(#104));
#50=EDGE_LOOP($,(#105));
#51=EDGE_LOOP($,(#106));
#52=EDGE_LOOP($,(#107));
#53=EDGE_LOOP($,(#108));
#54=EDGE_LOOP($,(#109));
#55=EDGE_LOOP($,(#110));
#56=EDGE_LOOP($,(#111));
#57=EDGE_LOOP($,(#112));
#58=EDGE_LOOP($,(#113));
#59=EDGE_LOOP($,(#114));
#60=EDGE_LOOP($,(#115));
#61=EDGE_LOOP($,(#116));
#62=EDGE_LOOP($,(#117));
#63=CIRCLE($,#138,9.5);
#64=CIRCLE($,#139,9.5);
#65=CIRCLE($,#141,10.);
#66=CIRCLE($,#142,10.);
#67=CIRCLE($,#144,10.);
#68=CIRCLE($,#145,10.);
#69=CIRCLE($,#147,12.5);
#70=CIRCLE($,#148,12.5);
#71=CIRCLE($,#150,13.);
#72=CIRCLE($,#152,13.25);
#73=CIRCLE($,#153,13.25);
#74=VERTEX_POINT($,#207);
#75=VERTEX_POINT($,#209);
#76=VERTEX_POINT($,#212);
#77=VERTEX_POINT($,#214);
#78=VERTEX_POINT($,#217);
#79=VERTEX_POINT($,#219);
#80=VERTEX_POINT($,#222);
#81=VERTEX_POINT($,#224);
#82=VERTEX_POINT($,#227);
#83=VERTEX_POINT($,#230);
#84=VERTEX_POINT($,#232);
#85=EDGE_CURVE($,#74,#74,#63,.T.);
#86=EDGE_CURVE($,#75,#75,#64,.T.);
#87=EDGE_CURVE($,#76,#76,#65,.T.);
#88=EDGE_CURVE($,#77,#77,#66,.T.);
#89=EDGE_CURVE($,#78,#78,#67,.T.);
#90=EDGE_CURVE($,#79,#79,#68,.T.);
#91=EDGE_CURVE($,#80,#80,#69,.T.);
#92=EDGE_CURVE($,#81,#81,#70,.T.);
#93=EDGE_CURVE($,#82,#82,#71,.T.);
#94=EDGE_CURVE($,#83,#83,#72,.T.);
#95=EDGE_CURVE($,#84,#84,#73,.T.);
#96=ORIENTED_EDGE($,*,*,#85,.F.);
#97=ORIENTED_EDGE($,*,*,#86,.F.);
#98=ORIENTED_EDGE($,*,*,#87,.F.);
#99=ORIENTED_EDGE($,*,*,#88,.F.);
#100=ORIENTED_EDGE($,*,*,#89,.F.);
#101=ORIENTED_EDGE($,*,*,#90,.T.);
#102=ORIENTED_EDGE($,*,*,#91,.T.);
#103=ORIENTED_EDGE($,*,*,#92,.F.);
#104=ORIENTED_EDGE($,*,*,#93,.F.);
#105=ORIENTED_EDGE($,*,*,#92,.T.);
#106=ORIENTED_EDGE($,*,*,#94,.T.);
#107=ORIENTED_EDGE($,*,*,#95,.F.);
#108=ORIENTED_EDGE($,*,*,#85,.T.);
#109=ORIENTED_EDGE($,*,*,#87,.T.);
#110=ORIENTED_EDGE($,*,*,#86,.T.);
#111=ORIENTED_EDGE($,*,*,#90,.F.);
#112=ORIENTED_EDGE($,*,*,#95,.T.);
#113=ORIENTED_EDGE($,*,*,#88,.T.);
#114=ORIENTED_EDGE($,*,*,#91,.F.);
#115=ORIENTED_EDGE($,*,*,#89,.T.);
#116=ORIENTED_EDGE($,*,*,#94,.F.);
#117=ORIENTED_EDGE($,*,*,#93,.T.);
#118=CYLINDRICAL_SURFACE($,#137,9.5);
#119=CYLINDRICAL_SURFACE($,#140,9.99999999999998);
#120=CYLINDRICAL_SURFACE($,#143,9.99999999999998);
#121=CYLINDRICAL_SURFACE($,#146,12.5);
#122=CYLINDRICAL_SURFACE($,#151,13.25);
#123=ADVANCED_FACE($,(#32,#19),#118,.F.);
#124=ADVANCED_FACE($,(#33,#20),#119,.F.);
#125=ADVANCED_FACE($,(#34,#21),#120,.F.);
#126=ADVANCED_FACE($,(#35,#22),#121,.T.);
#127=ADVANCED_FACE($,(#36,#23),#18,.F.);
#128=ADVANCED_FACE($,(#37,#24),#122,.T.);
#129=ADVANCED_FACE($,(#25,#26),#13,.T.);
#130=ADVANCED_FACE($,(#27,#28),#14,.T.);
#131=ADVANCED_FACE($,(#38,#29),#15,.T.);
#132=ADVANCED_FACE($,(#39,#30),#16,.T.);
#133=ADVANCED_FACE($,(#40,#31),#17,.T.);
#134=CLOSED_SHELL($,(#123,#124,#125,#126,#127,#128,#129,#130,#131,#132,
#133));
#135=MANIFOLD_SOLID_BREP('Solido1',#134);
#136=AXIS2_PLACEMENT_3D('placement',#205,#159,#160);
#137=AXIS2_PLACEMENT_3D($,#206,#161,#162);
#138=AXIS2_PLACEMENT_3D($,#208,#163,#164);
#139=AXIS2_PLACEMENT_3D($,#210,#165,#166);
#140=AXIS2_PLACEMENT_3D($,#211,#167,#168);
#141=AXIS2_PLACEMENT_3D($,#213,#169,#170);
#142=AXIS2_PLACEMENT_3D($,#215,#171,#172);
#143=AXIS2_PLACEMENT_3D($,#216,#173,#174);
#144=AXIS2_PLACEMENT_3D($,#218,#175,#176);
#145=AXIS2_PLACEMENT_3D($,#220,#177,#178);
#146=AXIS2_PLACEMENT_3D($,#221,#179,#180);
#147=AXIS2_PLACEMENT_3D($,#223,#181,#182);
#148=AXIS2_PLACEMENT_3D($,#225,#183,#184);
#149=AXIS2_PLACEMENT_3D($,#226,#185,#186);
#150=AXIS2_PLACEMENT_3D($,#228,#187,#188);
#151=AXIS2_PLACEMENT_3D($,#229,#189,#190);
#152=AXIS2_PLACEMENT_3D($,#231,#191,#192);
#153=AXIS2_PLACEMENT_3D($,#233,#193,#194);
#154=AXIS2_PLACEMENT_3D($,#234,#195,#196);
#155=AXIS2_PLACEMENT_3D($,#235,#197,#198);
#156=AXIS2_PLACEMENT_3D($,#236,#199,#200);
#157=AXIS2_PLACEMENT_3D($,#237,#201,#202);
#158=AXIS2_PLACEMENT_3D($,#238,#203,#204);
#159=DIRECTION('axis',(0.,0.,1.));
#160=DIRECTION('refdir',(1.,0.,0.));
#161=DIRECTION('center_axis',(-1.,0.,0.));
#162=DIRECTION('ref_axis',(0.,0.,1.));
#163=DIRECTION('center_axis',(1.,0.,0.));
#164=DIRECTION('ref_axis',(0.,0.,1.));
#165=DIRECTION('center_axis',(-1.,0.,0.));
#166=DIRECTION('ref_axis',(0.,0.,1.));
#167=DIRECTION('center_axis',(1.,0.,0.));
#168=DIRECTION('ref_axis',(0.,-1.,0.));
#169=DIRECTION('center_axis',(-1.,0.,0.));
#170=DIRECTION('ref_axis',(0.,-1.,0.));
#171=DIRECTION('center_axis',(1.,0.,0.));
#172=DIRECTION('ref_axis',(0.,-1.,0.));
#173=DIRECTION('center_axis',(1.,0.,0.));
#174=DIRECTION('ref_axis',(0.,-1.,0.));
#175=DIRECTION('center_axis',(-1.,0.,0.));
#176=DIRECTION('ref_axis',(0.,-1.,0.));
#177=DIRECTION('center_axis',(-1.,0.,0.));
#178=DIRECTION('ref_axis',(0.,-1.,0.));
#179=DIRECTION('center_axis',(-1.,0.,0.));
#180=DIRECTION('ref_axis',(0.,1.,0.));
#181=DIRECTION('center_axis',(-1.,0.,0.));
#182=DIRECTION('ref_axis',(0.,1.,0.));
#183=DIRECTION('center_axis',(-1.,0.,0.));
#184=DIRECTION('ref_axis',(0.,1.,0.));
#185=DIRECTION('center_axis',(-1.,1.01760371456801E-014,4.64385336002394E-016));
#186=DIRECTION('ref_axis',(4.93432455388964E-016,0.,1.));
#187=DIRECTION('center_axis',(-1.,0.,0.));
#188=DIRECTION('ref_axis',(0.,1.,0.));
#189=DIRECTION('center_axis',(-1.,0.,0.));
#190=DIRECTION('ref_axis',(0.,1.,0.));
#191=DIRECTION('center_axis',(-1.,0.,0.));
#192=DIRECTION('ref_axis',(0.,1.,0.));
#193=DIRECTION('center_axis',(-1.,0.,0.));
#194=DIRECTION('ref_axis',(0.,1.,0.));
#195=DIRECTION('center_axis',(-1.,0.,0.));
#196=DIRECTION('ref_axis',(0.,0.,1.));
#197=DIRECTION('center_axis',(1.,0.,0.));
#198=DIRECTION('ref_axis',(0.,0.,-1.));
#199=DIRECTION('center_axis',(-1.,0.,0.));
#200=DIRECTION('ref_axis',(0.,0.,1.));
#201=DIRECTION('center_axis',(1.,0.,0.));
#202=DIRECTION('ref_axis',(0.,0.,-1.));
#203=DIRECTION('center_axis',(1.,0.,0.));
#204=DIRECTION('ref_axis',(0.,0.,-1.));
#205=CARTESIAN_POINT('',(0.,0.,0.));
#206=CARTESIAN_POINT('Origin',(5.9304271120426,-1.78180918908311E-007,1.076251E-030));
#207=CARTESIAN_POINT('',(-3.0695728879574,-1.78180918908311E-007,-9.5));
#208=CARTESIAN_POINT('Origin',(-3.0695728879574,-1.78180918908311E-007,
1.076251E-030));
#209=CARTESIAN_POINT('',(5.9304271120426,-1.78180918908311E-007,-9.5));
#210=CARTESIAN_POINT('Origin',(5.9304271120426,-1.78180918908311E-007,1.076251E-030));
#211=CARTESIAN_POINT('Origin',(-11.0695728879574,-1.78180936671879E-007,
7.950645E-031));
#212=CARTESIAN_POINT('',(-3.0695728879574,9.99999982181899,1.224606E-015));
#213=CARTESIAN_POINT('Origin',(-3.0695728879574,-1.78180918908311E-007,
7.950645E-031));
#214=CARTESIAN_POINT('',(-19.0695728879574,9.99999982181899,1.224606E-015));
#215=CARTESIAN_POINT('Origin',(-19.0695728879574,-1.78180918908311E-007,
7.950645E-031));
#216=CARTESIAN_POINT('Origin',(13.9304271120428,-1.78180936671879E-007,
1.076251E-030));
#217=CARTESIAN_POINT('',(21.930427112043,9.99999982181899,1.224606E-015));
#218=CARTESIAN_POINT('Origin',(21.930427112043,-1.78180918908311E-007,1.076251E-030));
#219=CARTESIAN_POINT('',(5.9304271120426,9.99999982181899,1.224606E-015));
#220=CARTESIAN_POINT('Origin',(5.9304271120426,-1.78180918908311E-007,1.076251E-030));
#221=CARTESIAN_POINT('Origin',(12.680427112043,-1.78180918908311E-007,0.));
#222=CARTESIAN_POINT('',(21.930427112043,-12.5000001781809,1.530758E-015));
#223=CARTESIAN_POINT('Origin',(21.930427112043,-1.78180918908311E-007,0.));
#224=CARTESIAN_POINT('',(3.4304271120426,-1.78180918908311E-007,-12.5));
#225=CARTESIAN_POINT('Origin',(3.4304271120426,-1.78180918908311E-007,0.));
#226=CARTESIAN_POINT('Origin',(3.43042711204246,-1.78180741272627E-007,
7.88605292179057E-014));
#227=CARTESIAN_POINT('',(2.9304271120426,12.999999821819,0.));
#228=CARTESIAN_POINT('Origin',(2.9304271120426,-1.78180918908311E-007,0.));
#229=CARTESIAN_POINT('Origin',(-8.0695728879574,-1.78180918908311E-007,
0.));
#230=CARTESIAN_POINT('',(2.9304271120426,-13.2500001781809,1.622603E-015));
#231=CARTESIAN_POINT('Origin',(2.9304271120426,-1.78180918908311E-007,0.));
#232=CARTESIAN_POINT('',(-19.0695728879574,-13.2500001781809,1.622603E-015));
#233=CARTESIAN_POINT('Origin',(-19.0695728879574,-1.78180918908311E-007,
0.));
#234=CARTESIAN_POINT('Origin',(-3.0695728879574,-10.0000001781809,7.950645E-031));
#235=CARTESIAN_POINT('Origin',(5.9304271120426,-1.78180918908311E-007,-2.309264E-014));
#236=CARTESIAN_POINT('Origin',(-19.0695728879574,6.6249998218191,0.));
#237=CARTESIAN_POINT('Origin',(21.930427112043,6.2499998218191,0.));
#238=CARTESIAN_POINT('Origin',(2.9304271120426,13.124999821819,0.));
#239=UNCERTAINTY_MEASURE_WITH_UNIT(LENGTH_MEASURE(0.01),#241,
'DISTANCE_ACCURACY_VALUE',
'Maximum model space distance between geometric entities at asserted c
onnectivities');
#240=(
GEOMETRIC_REPRESENTATION_CONTEXT(3)
GLOBAL_UNCERTAINTY_ASSIGNED_CONTEXT((#239))
GLOBAL_UNIT_ASSIGNED_CONTEXT((#241,#244,#242))
REPRESENTATION_CONTEXT('','3D')
);
#241=(
LENGTH_UNIT()
NAMED_UNIT(*)
SI_UNIT(.MILLI.,.METRE.)
);
#242=(
NAMED_UNIT(*)
SI_UNIT($,.STERADIAN.)
SOLID_ANGLE_UNIT()
);
#243=DIMENSIONAL_EXPONENTS(0.,0.,0.,0.,0.,0.,0.);
#244=(
CONVERSION_BASED_UNIT('degree',#246)
NAMED_UNIT(#243)
PLANE_ANGLE_UNIT()
);
#245=(
NAMED_UNIT(*)
PLANE_ANGLE_UNIT()
SI_UNIT($,.RADIAN.)
);
#246=PLANE_ANGLE_MEASURE_WITH_UNIT(PLANE_ANGLE_MEASURE(0.01745329252),#245);
#247=SHAPE_DEFINITION_REPRESENTATION(#248,#249);
#248=PRODUCT_DEFINITION_SHAPE('',$,#251);
#249=SHAPE_REPRESENTATION('',(#136),#240);
#250=PRODUCT_DEFINITION_CONTEXT('3D Mechanical Parts',#254,'design');
#251=PRODUCT_DEFINITION('RIV025020020','RIV025020020',#252,#250);
#252=PRODUCT_DEFINITION_FORMATION('',$,#256);
#253=APPLICATION_PROTOCOL_DEFINITION('international standard',
'automotive_design',2009,#254);
#254=APPLICATION_CONTEXT(
'Core Data for Automotive Mechanical Design Process');
#255=PRODUCT_CONTEXT('3D Mechanical Parts',#254,'mechanical');
#256=PRODUCT('RIV025020020','RIV025020020',$,(#255));
#257=PRESENTATION_STYLE_ASSIGNMENT((#258));
#258=SURFACE_STYLE_USAGE(.BOTH.,#259);
#259=SURFACE_SIDE_STYLE($,(#260));
#260=SURFACE_STYLE_FILL_AREA(#261);
#261=FILL_AREA_STYLE($,(#262));
#262=FILL_AREA_STYLE_COLOUR($,#263);
#263=COLOUR_RGB('',0.509803921568627,0.509803921568627,0.588235294117647);
ENDSEC;
END-ISO-10303-21;
