ISO-10303-21;
HEADER;
FILE_DESCRIPTION( ( 'STEP AP214' ), '1' );
FILE_NAME( 'p:/temp/worker_18/temp/exporttempdir_4000_644_IJE2I/format_0/22050007507(architecture400).stp', '2021-11-17T11:34:51', ( 'License CC BY-ND 4.0' ), ( 'CADENAS' ), ' ', 'PARTsolutions', ' ' );
FILE_SCHEMA( ( 'AUTOMOTIVE_DESIGN { 1 0 10303 214 1 1 1 1 }' ) );
ENDSEC;
DATA;
#1 = MECHANICAL_DESIGN_GEOMETRIC_PRESENTATION_REPRESENTATION( ' ', ( #10, #11, #12, #13, #14, #15, #16, #17, #18, #19, #20, #21 ), #6 );
#2 = PRODUCT_DEFINITION_CONTEXT( '', #22, 'design' );
#3 = APPLICATION_PROTOCOL_DEFINITION( 'international standard', 'automotive_design', 2001, #22 );
#4 = PRODUCT_CATEGORY_RELATIONSHIP( 'NONE', 'NONE', #23, #24 );
#5 = SHAPE_DEFINITION_REPRESENTATION( #25, #26 );
#6 =  ( GEOMETRIC_REPRESENTATION_CONTEXT( 3 )GLOBAL_UNCERTAINTY_ASSIGNED_CONTEXT( ( #29 ) )GLOBAL_UNIT_ASSIGNED_CONTEXT( ( #31, #32, #33 ) )REPRESENTATION_CONTEXT( 'NONE', 'WORKSPACE' ) );
#10 = STYLED_ITEM( '', ( #35 ), #36 );
#11 = STYLED_ITEM( '', ( #37 ), #38 );
#12 = STYLED_ITEM( '', ( #39 ), #40 );
#13 = STYLED_ITEM( '', ( #41 ), #42 );
#14 = STYLED_ITEM( '', ( #43 ), #44 );
#15 = STYLED_ITEM( '', ( #45 ), #46 );
#16 = STYLED_ITEM( '', ( #47 ), #48 );
#17 = STYLED_ITEM( '', ( #49 ), #50 );
#18 = STYLED_ITEM( '', ( #51 ), #52 );
#19 = STYLED_ITEM( '', ( #53 ), #54 );
#20 = STYLED_ITEM( '', ( #55 ), #56 );
#21 = STYLED_ITEM( '', ( #57 ), #58 );
#22 = APPLICATION_CONTEXT( 'core data for automotive mechanical design processes' );
#23 = PRODUCT_CATEGORY( 'part', 'NONE' );
#24 = PRODUCT_RELATED_PRODUCT_CATEGORY( 'detail', ' ', ( #59 ) );
#25 = PRODUCT_DEFINITION_SHAPE( 'NONE', 'NONE', #60 );
#26 = ADVANCED_BREP_SHAPE_REPRESENTATION( '_22050007507(architecture400)', ( #61, #62 ), #6 );
#29 = UNCERTAINTY_MEASURE_WITH_UNIT( LENGTH_MEASURE( 0.00100000000000000 ), #31, '', '' );
#31 =  ( CONVERSION_BASED_UNIT( 'MILLIMETRE', #65 )LENGTH_UNIT(  )NAMED_UNIT( #68 ) );
#32 =  ( NAMED_UNIT( #70 )PLANE_ANGLE_UNIT(  )SI_UNIT( $, .RADIAN. ) );
#33 =  ( NAMED_UNIT( #70 )SI_UNIT( $, .STERADIAN. )SOLID_ANGLE_UNIT(  ) );
#35 = PRESENTATION_STYLE_ASSIGNMENT( ( #76 ) );
#36 = ADVANCED_FACE( '', ( #77, #78 ), #79, .F. );
#37 = PRESENTATION_STYLE_ASSIGNMENT( ( #80 ) );
#38 = ADVANCED_FACE( '', ( #81, #82 ), #83, .T. );
#39 = PRESENTATION_STYLE_ASSIGNMENT( ( #84 ) );
#40 = ADVANCED_FACE( '', ( #85, #86 ), #87, .T. );
#41 = PRESENTATION_STYLE_ASSIGNMENT( ( #88 ) );
#42 = ADVANCED_FACE( '', ( #89, #90 ), #91, .F. );
#43 = PRESENTATION_STYLE_ASSIGNMENT( ( #92 ) );
#44 = ADVANCED_FACE( '', ( #93, #94 ), #95, .F. );
#45 = PRESENTATION_STYLE_ASSIGNMENT( ( #96 ) );
#46 = ADVANCED_FACE( '', ( #97, #98 ), #99, .T. );
#47 = PRESENTATION_STYLE_ASSIGNMENT( ( #100 ) );
#48 = ADVANCED_FACE( '', ( #101, #102 ), #103, .F. );
#49 = PRESENTATION_STYLE_ASSIGNMENT( ( #104 ) );
#50 = ADVANCED_FACE( '', ( #105 ), #106, .T. );
#51 = PRESENTATION_STYLE_ASSIGNMENT( ( #107 ) );
#52 = ADVANCED_FACE( '', ( #108, #109 ), #110, .F. );
#53 = PRESENTATION_STYLE_ASSIGNMENT( ( #111 ) );
#54 = ADVANCED_FACE( '', ( #112, #113 ), #114, .F. );
#55 = PRESENTATION_STYLE_ASSIGNMENT( ( #115 ) );
#56 = ADVANCED_FACE( '', ( #116, #117 ), #118, .T. );
#57 = PRESENTATION_STYLE_ASSIGNMENT( ( #119 ) );
#58 = ADVANCED_FACE( '', ( #120 ), #121, .F. );
#59 = PRODUCT( '_22050007507(architecture400)', '_22050007507(architecture400)', 'PART-_22050007507(architecture400)-DESC', ( #122 ) );
#60 = PRODUCT_DEFINITION( 'NONE', 'NONE', #123, #2 );
#61 = MANIFOLD_SOLID_BREP( '_22050007507(architecture400)', #124 );
#62 = AXIS2_PLACEMENT_3D( '', #125, #126, #127 );
#65 = LENGTH_MEASURE_WITH_UNIT( LENGTH_MEASURE( 1.00000000000000 ), #128 );
#68 = DIMENSIONAL_EXPONENTS( 1.00000000000000, 0.000000000000000, 0.000000000000000, 0.000000000000000, 0.000000000000000, 0.000000000000000, 0.000000000000000 );
#70 = DIMENSIONAL_EXPONENTS( 0.000000000000000, 0.000000000000000, 0.000000000000000, 0.000000000000000, 0.000000000000000, 0.000000000000000, 0.000000000000000 );
#76 = SURFACE_STYLE_USAGE( .BOTH., #129 );
#77 = FACE_BOUND( '', #130, .T. );
#78 = FACE_OUTER_BOUND( '', #131, .T. );
#79 = PLANE( '', #132 );
#80 = SURFACE_STYLE_USAGE( .BOTH., #133 );
#81 = FACE_OUTER_BOUND( '', #134, .T. );
#82 = FACE_OUTER_BOUND( '', #135, .T. );
#83 = CYLINDRICAL_SURFACE( '', #136, 46.0000000000000 );
#84 = SURFACE_STYLE_USAGE( .BOTH., #137 );
#85 = FACE_OUTER_BOUND( '', #138, .T. );
#86 = FACE_OUTER_BOUND( '', #139, .T. );
#87 = CYLINDRICAL_SURFACE( '', #140, 46.0000000000000 );
#88 = SURFACE_STYLE_USAGE( .BOTH., #141 );
#89 = FACE_OUTER_BOUND( '', #142, .T. );
#90 = FACE_OUTER_BOUND( '', #143, .T. );
#91 = CYLINDRICAL_SURFACE( '', #144, 37.5000000000000 );
#92 = SURFACE_STYLE_USAGE( .BOTH., #145 );
#93 = FACE_OUTER_BOUND( '', #146, .T. );
#94 = FACE_OUTER_BOUND( '', #147, .T. );
#95 = CYLINDRICAL_SURFACE( '', #148, 34.6666666667000 );
#96 = SURFACE_STYLE_USAGE( .BOTH., #149 );
#97 = FACE_OUTER_BOUND( '', #150, .T. );
#98 = FACE_BOUND( '', #151, .T. );
#99 = PLANE( '', #152 );
#100 = SURFACE_STYLE_USAGE( .BOTH., #153 );
#101 = FACE_BOUND( '', #154, .T. );
#102 = FACE_OUTER_BOUND( '', #155, .T. );
#103 = PLANE( '', #156 );
#104 = SURFACE_STYLE_USAGE( .BOTH., #157 );
#105 = FACE_OUTER_BOUND( '', #158, .T. );
#106 = SPHERICAL_SURFACE( '', #159, 46.0000000000000 );
#107 = SURFACE_STYLE_USAGE( .BOTH., #160 );
#108 = FACE_OUTER_BOUND( '', #161, .T. );
#109 = FACE_OUTER_BOUND( '', #162, .T. );
#110 = CYLINDRICAL_SURFACE( '', #163, 37.5000000000000 );
#111 = SURFACE_STYLE_USAGE( .BOTH., #164 );
#112 = FACE_OUTER_BOUND( '', #165, .T. );
#113 = FACE_OUTER_BOUND( '', #166, .T. );
#114 = CYLINDRICAL_SURFACE( '', #167, 34.6666666667000 );
#115 = SURFACE_STYLE_USAGE( .BOTH., #168 );
#116 = FACE_BOUND( '', #169, .T. );
#117 = FACE_OUTER_BOUND( '', #170, .T. );
#118 = PLANE( '', #171 );
#119 = SURFACE_STYLE_USAGE( .BOTH., #172 );
#120 = FACE_OUTER_BOUND( '', #173, .T. );
#121 = SPHERICAL_SURFACE( '', #174, 34.6666666667000 );
#122 = PRODUCT_CONTEXT( '', #22, 'mechanical' );
#123 = PRODUCT_DEFINITION_FORMATION_WITH_SPECIFIED_SOURCE( ' ', 'NONE', #59, .NOT_KNOWN. );
#124 = CLOSED_SHELL( '', ( #48, #40, #50, #38, #44, #56, #52, #36, #42, #46, #54, #58 ) );
#125 = CARTESIAN_POINT( '', ( 0.000000000000000, 0.000000000000000, 0.000000000000000 ) );
#126 = DIRECTION( '', ( 0.000000000000000, 0.000000000000000, 1.00000000000000 ) );
#127 = DIRECTION( '', ( 1.00000000000000, 0.000000000000000, 0.000000000000000 ) );
#128 =  ( LENGTH_UNIT(  )NAMED_UNIT( #68 )SI_UNIT( .MILLI., .METRE. ) );
#129 = SURFACE_SIDE_STYLE( '', ( #176 ) );
#130 = EDGE_LOOP( '', ( #177 ) );
#131 = EDGE_LOOP( '', ( #178 ) );
#132 = AXIS2_PLACEMENT_3D( '', #179, #180, #181 );
#133 = SURFACE_SIDE_STYLE( '', ( #182 ) );
#134 = EDGE_LOOP( '', ( #183 ) );
#135 = EDGE_LOOP( '', ( #184, #185 ) );
#136 = AXIS2_PLACEMENT_3D( '', #186, #187, #188 );
#137 = SURFACE_SIDE_STYLE( '', ( #189 ) );
#138 = EDGE_LOOP( '', ( #190 ) );
#139 = EDGE_LOOP( '', ( #191, #192 ) );
#140 = AXIS2_PLACEMENT_3D( '', #193, #194, #195 );
#141 = SURFACE_SIDE_STYLE( '', ( #196 ) );
#142 = EDGE_LOOP( '', ( #197 ) );
#143 = EDGE_LOOP( '', ( #198 ) );
#144 = AXIS2_PLACEMENT_3D( '', #199, #200, #201 );
#145 = SURFACE_SIDE_STYLE( '', ( #202 ) );
#146 = EDGE_LOOP( '', ( #203, #204 ) );
#147 = EDGE_LOOP( '', ( #205 ) );
#148 = AXIS2_PLACEMENT_3D( '', #206, #207, #208 );
#149 = SURFACE_SIDE_STYLE( '', ( #209 ) );
#150 = EDGE_LOOP( '', ( #210 ) );
#151 = EDGE_LOOP( '', ( #211 ) );
#152 = AXIS2_PLACEMENT_3D( '', #212, #213, #214 );
#153 = SURFACE_SIDE_STYLE( '', ( #215 ) );
#154 = EDGE_LOOP( '', ( #216 ) );
#155 = EDGE_LOOP( '', ( #217 ) );
#156 = AXIS2_PLACEMENT_3D( '', #218, #219, #220 );
#157 = SURFACE_SIDE_STYLE( '', ( #221 ) );
#158 = EDGE_LOOP( '', ( #222, #223 ) );
#159 = AXIS2_PLACEMENT_3D( '', #224, #225, #226 );
#160 = SURFACE_SIDE_STYLE( '', ( #227 ) );
#161 = EDGE_LOOP( '', ( #228 ) );
#162 = EDGE_LOOP( '', ( #229 ) );
#163 = AXIS2_PLACEMENT_3D( '', #230, #231, #232 );
#164 = SURFACE_SIDE_STYLE( '', ( #233 ) );
#165 = EDGE_LOOP( '', ( #234 ) );
#166 = EDGE_LOOP( '', ( #235, #236 ) );
#167 = AXIS2_PLACEMENT_3D( '', #237, #238, #239 );
#168 = SURFACE_SIDE_STYLE( '', ( #240 ) );
#169 = EDGE_LOOP( '', ( #241 ) );
#170 = EDGE_LOOP( '', ( #242 ) );
#171 = AXIS2_PLACEMENT_3D( '', #243, #244, #245 );
#172 = SURFACE_SIDE_STYLE( '', ( #246 ) );
#173 = EDGE_LOOP( '', ( #247, #248 ) );
#174 = AXIS2_PLACEMENT_3D( '', #249, #250, #251 );
#176 = SURFACE_STYLE_FILL_AREA( #252 );
#177 = ORIENTED_EDGE( '', *, *, #253, .F. );
#178 = ORIENTED_EDGE( '', *, *, #254, .T. );
#179 = CARTESIAN_POINT( '', ( 4.94974746830584, 0.000000000000000, 90.0035713374682 ) );
#180 = DIRECTION( '', ( -0.707106781186548, 0.000000000000000, -0.707106781186548 ) );
#181 = DIRECTION( '', ( -0.707106781186547, 0.000000000000000, 0.707106781186547 ) );
#182 = SURFACE_STYLE_FILL_AREA( #255 );
#183 = ORIENTED_EDGE( '', *, *, #254, .F. );
#184 = ORIENTED_EDGE( '', *, *, #256, .T. );
#185 = ORIENTED_EDGE( '', *, *, #257, .T. );
#186 = CARTESIAN_POINT( '', ( 37.4766594028870, 0.000000000000000, 57.4766594028870 ) );
#187 = DIRECTION( '', ( -0.707106781186548, 0.000000000000000, -0.707106781186548 ) );
#188 = DIRECTION( '', ( 0.707106781186548, 0.000000000000000, -0.707106781186548 ) );
#189 = SURFACE_STYLE_FILL_AREA( #258 );
#190 = ORIENTED_EDGE( '', *, *, #259, .T. );
#191 = ORIENTED_EDGE( '', *, *, #257, .F. );
#192 = ORIENTED_EDGE( '', *, *, #260, .F. );
#193 = CARTESIAN_POINT( '', ( 0.000000000000000, 0.000000000000000, 20.0000000000000 ) );
#194 = DIRECTION( '', ( 0.000000000000000, -0.000000000000000, 1.00000000000000 ) );
#195 = DIRECTION( '', ( -1.00000000000000, 0.000000000000000, 0.000000000000000 ) );
#196 = SURFACE_STYLE_FILL_AREA( #261 );
#197 = ORIENTED_EDGE( '', *, *, #253, .T. );
#198 = ORIENTED_EDGE( '', *, *, #262, .F. );
#199 = CARTESIAN_POINT( '', ( 38.1837661840736, 0.000000000000000, 58.1837661840736 ) );
#200 = DIRECTION( '', ( -0.707106781186548, 0.000000000000000, -0.707106781186547 ) );
#201 = DIRECTION( '', ( 0.707106781186547, 0.000000000000000, -0.707106781186548 ) );
#202 = SURFACE_STYLE_FILL_AREA( #263 );
#203 = ORIENTED_EDGE( '', *, *, #264, .T. );
#204 = ORIENTED_EDGE( '', *, *, #265, .T. );
#205 = ORIENTED_EDGE( '', *, *, #266, .F. );
#206 = CARTESIAN_POINT( '', ( 0.000000000000000, 0.000000000000000, 54.6666666666667 ) );
#207 = DIRECTION( '', ( -0.000000000000000, 0.000000000000000, -1.00000000000000 ) );
#208 = DIRECTION( '', ( 1.00000000000000, 0.000000000000000, 0.000000000000000 ) );
#209 = SURFACE_STYLE_FILL_AREA( #267 );
#210 = ORIENTED_EDGE( '', *, *, #262, .T. );
#211 = ORIENTED_EDGE( '', *, *, #268, .F. );
#212 = CARTESIAN_POINT( '', ( -10.3708994574027, 0.000000000000000, 58.6551707048646 ) );
#213 = DIRECTION( '', ( 0.707106781186548, -0.000000000000000, 0.707106781186547 ) );
#214 = DIRECTION( '', ( 0.707106781186547, 0.000000000000000, -0.707106781186548 ) );
#215 = SURFACE_STYLE_FILL_AREA( #269 );
#216 = ORIENTED_EDGE( '', *, *, #270, .F. );
#217 = ORIENTED_EDGE( '', *, *, #259, .F. );
#218 = CARTESIAN_POINT( '', ( 0.000000000000000, 0.000000000000000, -33.0000000000000 ) );
#219 = DIRECTION( '', ( 0.000000000000000, 0.000000000000000, 1.00000000000000 ) );
#220 = DIRECTION( '', ( 1.00000000000000, 0.000000000000000, -0.000000000000000 ) );
#221 = SURFACE_STYLE_FILL_AREA( #271 );
#222 = ORIENTED_EDGE( '', *, *, #260, .T. );
#223 = ORIENTED_EDGE( '', *, *, #256, .F. );
#224 = CARTESIAN_POINT( '', ( 3.46944695195361E-15, 0.000000000000000, 20.0000000000000 ) );
#225 = DIRECTION( '', ( 0.000000000000000, 0.000000000000000, 1.00000000000000 ) );
#226 = DIRECTION( '', ( -1.00000000000000, 0.000000000000000, 0.000000000000000 ) );
#227 = SURFACE_STYLE_FILL_AREA( #272 );
#228 = ORIENTED_EDGE( '', *, *, #273, .T. );
#229 = ORIENTED_EDGE( '', *, *, #270, .T. );
#230 = CARTESIAN_POINT( '', ( 0.000000000000000, 0.000000000000000, 54.6666666666667 ) );
#231 = DIRECTION( '', ( -0.000000000000000, 0.000000000000000, -1.00000000000000 ) );
#232 = DIRECTION( '', ( 1.00000000000000, 0.000000000000000, 0.000000000000000 ) );
#233 = SURFACE_STYLE_FILL_AREA( #274 );
#234 = ORIENTED_EDGE( '', *, *, #268, .T. );
#235 = ORIENTED_EDGE( '', *, *, #264, .F. );
#236 = ORIENTED_EDGE( '', *, *, #275, .F. );
#237 = CARTESIAN_POINT( '', ( 38.1837661840736, 0.000000000000000, 58.1837661840736 ) );
#238 = DIRECTION( '', ( -0.707106781186548, 0.000000000000000, -0.707106781186547 ) );
#239 = DIRECTION( '', ( 0.707106781186547, 0.000000000000000, -0.707106781186548 ) );
#240 = SURFACE_STYLE_FILL_AREA( #276 );
#241 = ORIENTED_EDGE( '', *, *, #266, .T. );
#242 = ORIENTED_EDGE( '', *, *, #273, .F. );
#243 = CARTESIAN_POINT( '', ( -37.5000000000000, 0.000000000000000, 0.000000000000000 ) );
#244 = DIRECTION( '', ( 0.000000000000000, 0.000000000000000, -1.00000000000000 ) );
#245 = DIRECTION( '', ( -1.00000000000000, 0.000000000000000, 0.000000000000000 ) );
#246 = SURFACE_STYLE_FILL_AREA( #277 );
#247 = ORIENTED_EDGE( '', *, *, #265, .F. );
#248 = ORIENTED_EDGE( '', *, *, #275, .T. );
#249 = CARTESIAN_POINT( '', ( -6.93889390390723E-15, 0.000000000000000, 20.0000000000000 ) );
#250 = DIRECTION( '', ( 0.000000000000000, 0.000000000000000, 1.00000000000000 ) );
#251 = DIRECTION( '', ( 1.00000000000000, 0.000000000000000, 0.000000000000000 ) );
#252 = FILL_AREA_STYLE( '', ( #278 ) );
#253 = EDGE_CURVE( '', #279, #279, #280, .F. );
#254 = EDGE_CURVE( '', #281, #281, #282, .T. );
#255 = FILL_AREA_STYLE( '', ( #283 ) );
#256 = EDGE_CURVE( '', #284, #285, #286, .T. );
#257 = EDGE_CURVE( '', #285, #284, #287, .F. );
#258 = FILL_AREA_STYLE( '', ( #288 ) );
#259 = EDGE_CURVE( '', #289, #289, #290, .T. );
#260 = EDGE_CURVE( '', #284, #285, #291, .T. );
#261 = FILL_AREA_STYLE( '', ( #292 ) );
#262 = EDGE_CURVE( '', #293, #293, #294, .T. );
#263 = FILL_AREA_STYLE( '', ( #295 ) );
#264 = EDGE_CURVE( '', #296, #297, #298, .T. );
#265 = EDGE_CURVE( '', #297, #296, #299, .T. );
#266 = EDGE_CURVE( '', #300, #300, #301, .T. );
#267 = FILL_AREA_STYLE( '', ( #302 ) );
#268 = EDGE_CURVE( '', #303, #303, #304, .T. );
#269 = FILL_AREA_STYLE( '', ( #305 ) );
#270 = EDGE_CURVE( '', #306, #306, #307, .F. );
#271 = FILL_AREA_STYLE( '', ( #308 ) );
#272 = FILL_AREA_STYLE( '', ( #309 ) );
#273 = EDGE_CURVE( '', #310, #310, #311, .T. );
#274 = FILL_AREA_STYLE( '', ( #312 ) );
#275 = EDGE_CURVE( '', #297, #296, #313, .T. );
#276 = FILL_AREA_STYLE( '', ( #314 ) );
#277 = FILL_AREA_STYLE( '', ( #315 ) );
#278 = FILL_AREA_STYLE_COLOUR( '', #316 );
#279 = VERTEX_POINT( '', #317 );
#280 = CIRCLE( '', #318, 37.5000000000000 );
#281 = VERTEX_POINT( '', #319 );
#282 = CIRCLE( '', #320, 46.0000000000000 );
#283 = FILL_AREA_STYLE_COLOUR( '', #321 );
#284 = VERTEX_POINT( '', #322 );
#285 = VERTEX_POINT( '', #323 );
#286 = CIRCLE( '', #324, 46.0000000000000 );
#287 = ELLIPSE( '', #325, 49.7900412135000, 46.0000000000000 );
#288 = FILL_AREA_STYLE_COLOUR( '', #326 );
#289 = VERTEX_POINT( '', #327 );
#290 = CIRCLE( '', #328, 46.0000000000000 );
#291 = CIRCLE( '', #329, 46.0000000000000 );
#292 = FILL_AREA_STYLE_COLOUR( '', #330 );
#293 = VERTEX_POINT( '', #331 );
#294 = CIRCLE( '', #332, 37.5000000000000 );
#295 = FILL_AREA_STYLE_COLOUR( '', #333 );
#296 = VERTEX_POINT( '', #334 );
#297 = VERTEX_POINT( '', #335 );
#298 = ELLIPSE( '', #336, 37.5229296101000, 34.6666666667000 );
#299 = CIRCLE( '', #337, 34.6666666667000 );
#300 = VERTEX_POINT( '', #338 );
#301 = CIRCLE( '', #339, 34.6666666667000 );
#302 = FILL_AREA_STYLE_COLOUR( '', #340 );
#303 = VERTEX_POINT( '', #341 );
#304 = CIRCLE( '', #342, 34.6666666667000 );
#305 = FILL_AREA_STYLE_COLOUR( '', #343 );
#306 = VERTEX_POINT( '', #344 );
#307 = CIRCLE( '', #345, 37.5000000000000 );
#308 = FILL_AREA_STYLE_COLOUR( '', #346 );
#309 = FILL_AREA_STYLE_COLOUR( '', #347 );
#310 = VERTEX_POINT( '', #348 );
#311 = CIRCLE( '', #349, 37.5000000000000 );
#312 = FILL_AREA_STYLE_COLOUR( '', #350 );
#313 = CIRCLE( '', #351, 34.6666666667000 );
#314 = FILL_AREA_STYLE_COLOUR( '', #352 );
#315 = FILL_AREA_STYLE_COLOUR( '', #353 );
#316 = COLOUR_RGB( '', 0.689999997600000, 0.689999997600000, 0.689999997600000 );
#317 = CARTESIAN_POINT( '', ( 10.9601551083915, 0.000000000000000, 83.9931636973826 ) );
#318 = AXIS2_PLACEMENT_3D( '', #354, #355, #356 );
#319 = CARTESIAN_POINT( '', ( 70.0035713374682, 0.000000000000000, 24.9497474683058 ) );
#320 = AXIS2_PLACEMENT_3D( '', #357, #358, #359 );
#321 = COLOUR_RGB( '', 0.689999997600000, 0.689999997600000, 0.689999997600000 );
#322 = CARTESIAN_POINT( '', ( 6.28198941400531E-15, 46.0000000000000, 20.0000000000000 ) );
#323 = CARTESIAN_POINT( '', ( 1.02441147333854E-14, -46.0000000000000, 20.0000000000000 ) );
#324 = AXIS2_PLACEMENT_3D( '', #360, #361, #362 );
#325 = AXIS2_PLACEMENT_3D( '', #363, #364, #365 );
#326 = COLOUR_RGB( '', 0.689999997600000, 0.689999997600000, 0.689999997600000 );
#327 = CARTESIAN_POINT( '', ( 46.0000000000000, 0.000000000000000, -33.0000000000000 ) );
#328 = AXIS2_PLACEMENT_3D( '', #366, #367, #368 );
#329 = AXIS2_PLACEMENT_3D( '', #369, #370, #371 );
#330 = COLOUR_RGB( '', 0.689999997600000, 0.689999997600000, 0.689999997600000 );
#331 = CARTESIAN_POINT( '', ( 40.6586399182265, 0.000000000000000, 7.62563132923540 ) );
#332 = AXIS2_PLACEMENT_3D( '', #372, #373, #374 );
#333 = COLOUR_RGB( '', 0.689999997600000, 0.689999997600000, 0.689999997600000 );
#334 = CARTESIAN_POINT( '', ( -3.45201210266219E-14, -34.6666666666667, 20.0000000000000 ) );
#335 = CARTESIAN_POINT( '', ( -2.77119884924003E-14, 34.6666666666667, 20.0000000000000 ) );
#336 = AXIS2_PLACEMENT_3D( '', #375, #376, #377 );
#337 = AXIS2_PLACEMENT_3D( '', #378, #379, #380 );
#338 = CARTESIAN_POINT( '', ( 34.6666666666667, 0.000000000000000, 0.000000000000000 ) );
#339 = AXIS2_PLACEMENT_3D( '', #381, #382, #383 );
#340 = COLOUR_RGB( '', 0.689999997600000, 0.689999997600000, 0.689999997600000 );
#341 = CARTESIAN_POINT( '', ( 38.6551707048646, 0.000000000000000, 9.62910054259728 ) );
#342 = AXIS2_PLACEMENT_3D( '', #384, #385, #386 );
#343 = COLOUR_RGB( '', 0.689999997600000, 0.689999997600000, 0.689999997600000 );
#344 = CARTESIAN_POINT( '', ( 37.5000000000000, 0.000000000000000, -33.0000000000000 ) );
#345 = AXIS2_PLACEMENT_3D( '', #387, #388, #389 );
#346 = COLOUR_RGB( '', 0.689999997600000, 0.689999997600000, 0.689999997600000 );
#347 = COLOUR_RGB( '', 0.689999997600000, 0.689999997600000, 0.689999997600000 );
#348 = CARTESIAN_POINT( '', ( 37.5000000000000, 0.000000000000000, 0.000000000000000 ) );
#349 = AXIS2_PLACEMENT_3D( '', #390, #391, #392 );
#350 = COLOUR_RGB( '', 0.689999997600000, 0.689999997600000, 0.689999997600000 );
#351 = AXIS2_PLACEMENT_3D( '', #393, #394, #395 );
#352 = COLOUR_RGB( '', 0.689999997600000, 0.689999997600000, 0.689999997600000 );
#353 = COLOUR_RGB( '', 0.689999997600000, 0.689999997600000, 0.689999997600000 );
#354 = CARTESIAN_POINT( '', ( 37.4766594028870, 0.000000000000000, 57.4766594028870 ) );
#355 = DIRECTION( '', ( -0.707106781186548, 0.000000000000000, -0.707106781186548 ) );
#356 = DIRECTION( '', ( -0.707106781186548, 0.000000000000000, 0.707106781186548 ) );
#357 = CARTESIAN_POINT( '', ( 37.4766594028870, 0.000000000000000, 57.4766594028870 ) );
#358 = DIRECTION( '', ( 0.707106781186548, -0.000000000000000, 0.707106781186548 ) );
#359 = DIRECTION( '', ( 0.707106781186548, 0.000000000000000, -0.707106781186548 ) );
#360 = CARTESIAN_POINT( '', ( 1.73472347597681E-15, 0.000000000000000, 20.0000000000000 ) );
#361 = DIRECTION( '', ( 0.707106781186548, -0.000000000000000, 0.707106781186548 ) );
#362 = DIRECTION( '', ( 0.707106781186548, 0.000000000000000, -0.707106781186548 ) );
#363 = CARTESIAN_POINT( '', ( -3.46944695195361E-15, 0.000000000000000, 20.0000000000000 ) );
#364 = DIRECTION( '', ( -0.382683432365090, 0.000000000000000, -0.923879532511287 ) );
#365 = DIRECTION( '', ( 0.923879532511287, 0.000000000000000, -0.382683432365090 ) );
#366 = CARTESIAN_POINT( '', ( 0.000000000000000, 0.000000000000000, -33.0000000000000 ) );
#367 = DIRECTION( '', ( 0.000000000000000, 0.000000000000000, 1.00000000000000 ) );
#368 = DIRECTION( '', ( 1.00000000000000, 0.000000000000000, 0.000000000000000 ) );
#369 = CARTESIAN_POINT( '', ( 0.000000000000000, 0.000000000000000, 20.0000000000000 ) );
#370 = DIRECTION( '', ( 0.000000000000000, 0.000000000000000, 1.00000000000000 ) );
#371 = DIRECTION( '', ( 1.00000000000000, 0.000000000000000, 0.000000000000000 ) );
#372 = CARTESIAN_POINT( '', ( 14.1421356237309, 0.000000000000000, 34.1421356237309 ) );
#373 = DIRECTION( '', ( 0.707106781186548, -0.000000000000000, 0.707106781186547 ) );
#374 = DIRECTION( '', ( 0.707106781186547, 0.000000000000000, -0.707106781186548 ) );
#375 = CARTESIAN_POINT( '', ( -6.93889390390723E-15, 0.000000000000000, 20.0000000000000 ) );
#376 = DIRECTION( '', ( 0.382683432365090, 0.000000000000000, 0.923879532511287 ) );
#377 = DIRECTION( '', ( -0.923879532511287, 0.000000000000000, 0.382683432365090 ) );
#378 = CARTESIAN_POINT( '', ( 0.000000000000000, 0.000000000000000, 20.0000000000000 ) );
#379 = DIRECTION( '', ( 0.000000000000000, -0.000000000000000, 1.00000000000000 ) );
#380 = DIRECTION( '', ( 1.00000000000000, 0.000000000000000, 0.000000000000000 ) );
#381 = CARTESIAN_POINT( '', ( 0.000000000000000, 0.000000000000000, 0.000000000000000 ) );
#382 = DIRECTION( '', ( 0.000000000000000, -0.000000000000000, 1.00000000000000 ) );
#383 = DIRECTION( '', ( 1.00000000000000, 0.000000000000000, 0.000000000000000 ) );
#384 = CARTESIAN_POINT( '', ( 14.1421356237309, 0.000000000000000, 34.1421356237309 ) );
#385 = DIRECTION( '', ( 0.707106781186548, -0.000000000000000, 0.707106781186547 ) );
#386 = DIRECTION( '', ( 0.707106781186547, 0.000000000000000, -0.707106781186548 ) );
#387 = CARTESIAN_POINT( '', ( 0.000000000000000, 0.000000000000000, -33.0000000000000 ) );
#388 = DIRECTION( '', ( 0.000000000000000, 0.000000000000000, 1.00000000000000 ) );
#389 = DIRECTION( '', ( 1.00000000000000, 0.000000000000000, -0.000000000000000 ) );
#390 = CARTESIAN_POINT( '', ( 0.000000000000000, 0.000000000000000, 0.000000000000000 ) );
#391 = DIRECTION( '', ( 0.000000000000000, -0.000000000000000, 1.00000000000000 ) );
#392 = DIRECTION( '', ( 1.00000000000000, 0.000000000000000, 0.000000000000000 ) );
#393 = CARTESIAN_POINT( '', ( -1.73472347597681E-14, 0.000000000000000, 20.0000000000000 ) );
#394 = DIRECTION( '', ( 0.707106781186548, -0.000000000000000, 0.707106781186547 ) );
#395 = DIRECTION( '', ( 0.707106781186547, 0.000000000000000, -0.707106781186548 ) );
ENDSEC;
END-ISO-10303-21;
