ISO-10303-21;
HEADER;
/* Generated by software containing ST-Developer
 * from STEP Tools, Inc. (www.steptools.com) 
 */

FILE_DESCRIPTION(
/* description */ (''),
/* implementation_level */ '2;1');

FILE_NAME(
/* name */ 
'Q:\\Ric010\\FF7\\FIPlastiCAD\\FIP\\Lavoro\\PVC Fittings\\PVC Fittings
 STEP\\PFV\\PFV012.ipt.stp',
/* time_stamp */ '2013-10-01T14:50:34+02:00',
/* author */ ('bfaro'),
/* organization */ (''),
/* preprocessor_version */ 'ST-DEVELOPER v15.2',
/* originating_system */ 'Autodesk Inventor 2014',
/* authorisation */ '');

FILE_SCHEMA (('AUTOMOTIVE_DESIGN { 1 0 10303 214 3 1 1 }'));
ENDSEC;

DATA;
#10=SHAPE_REPRESENTATION_RELATIONSHIP('SRR','None',#500,#11);
#11=ADVANCED_BREP_SHAPE_REPRESENTATION($,(#271),#491);
#12=LINE($,#465,#24);
#13=LINE($,#467,#25);
#14=LINE($,#468,#26);
#15=LINE($,#471,#27);
#16=LINE($,#472,#28);
#17=LINE($,#475,#29);
#18=LINE($,#476,#30);
#19=LINE($,#479,#31);
#20=LINE($,#480,#32);
#21=LINE($,#483,#33);
#22=LINE($,#484,#34);
#23=LINE($,#486,#35);
#24=VECTOR($,#331,6.47669666976493);
#25=VECTOR($,#332,13.2790561913614);
#26=VECTOR($,#333,6.47669666976493);
#27=VECTOR($,#336,13.2790561913614);
#28=VECTOR($,#337,6.47669666976493);
#29=VECTOR($,#340,6.47669666976493);
#30=VECTOR($,#341,13.2790561913614);
#31=VECTOR($,#344,13.2790561913614);
#32=VECTOR($,#345,6.47669666976493);
#33=VECTOR($,#348,6.47669666976493);
#34=VECTOR($,#349,13.2790561913614);
#35=VECTOR($,#352,13.2790561913614);
#36=PLANE($,#287);
#37=PLANE($,#288);
#38=PLANE($,#289);
#39=PLANE($,#290);
#40=PLANE($,#291);
#41=PLANE($,#292);
#42=PLANE($,#293);
#43=PLANE($,#294);
#44=PLANE($,#295);
#45=PLANE($,#296);
#46=(
BOUNDED_SURFACE()
B_SPLINE_SURFACE(2,2,((#427,#428,#429,#430,#431,#432,#433,#434,#435),(#436,
#437,#438,#439,#440,#441,#442,#443,#444),(#445,#446,#447,#448,#449,#450,
#451,#452,#453)),.UNSPECIFIED.,.F.,.T.,.F.)
B_SPLINE_SURFACE_WITH_KNOTS((3,3),(3,2,2,2,3),(1.22986295159597,1.55595718846186),
(-3.14159265358979,-1.5707963267949,0.,1.5707963267949,3.14159265358979),
 .UNSPECIFIED.)
GEOMETRIC_REPRESENTATION_ITEM()
RATIONAL_B_SPLINE_SURFACE(((1.,0.707106781186548,1.,0.707106781186548,1.,
0.707106781186548,1.,0.707106781186548,1.),(0.98673723951786,0.697728593312374,
0.98673723951786,0.697728593312374,0.98673723951786,0.697728593312374,0.98673723951786,
0.697728593312374,0.98673723951786),(1.,0.707106781186548,1.,0.707106781186548,
1.,0.707106781186548,1.,0.707106781186548,1.)))
REPRESENTATION_ITEM($)
SURFACE()
);
#47=TOROIDAL_SURFACE($,#280,13.25,5.99999999999999);
#48=(
BOUNDED_CURVE()
B_SPLINE_CURVE(2,(#370,#371,#372),.UNSPECIFIED.,.F.,.F.)
B_SPLINE_CURVE_WITH_KNOTS((3,3),(8.01837666866721,14.8281856433667),
 .UNSPECIFIED.)
CURVE()
GEOMETRIC_REPRESENTATION_ITEM()
RATIONAL_B_SPLINE_CURVE((1.,1.04496587874001,1.01355494026326))
REPRESENTATION_ITEM($)
);
#49=(
BOUNDED_CURVE()
B_SPLINE_CURVE(2,(#374,#375,#376),.UNSPECIFIED.,.F.,.F.)
B_SPLINE_CURVE_WITH_KNOTS((3,3),(1.20856769396765,8.01837666866721),
 .UNSPECIFIED.)
CURVE()
GEOMETRIC_REPRESENTATION_ITEM()
RATIONAL_B_SPLINE_CURVE((1.01355494026328,1.04496587874008,1.))
REPRESENTATION_ITEM($)
);
#50=(
BOUNDED_CURVE()
B_SPLINE_CURVE(2,(#378,#379,#380),.UNSPECIFIED.,.F.,.F.)
B_SPLINE_CURVE_WITH_KNOTS((3,3),(8.01837666866722,14.8281856433667),
 .UNSPECIFIED.)
CURVE()
GEOMETRIC_REPRESENTATION_ITEM()
RATIONAL_B_SPLINE_CURVE((1.,1.04496587873999,1.01355494026325))
REPRESENTATION_ITEM($)
);
#51=(
BOUNDED_CURVE()
B_SPLINE_CURVE(2,(#382,#383,#384),.UNSPECIFIED.,.F.,.F.)
B_SPLINE_CURVE_WITH_KNOTS((3,3),(1.20856769396772,8.01837666866722),
 .UNSPECIFIED.)
CURVE()
GEOMETRIC_REPRESENTATION_ITEM()
RATIONAL_B_SPLINE_CURVE((1.01355494026326,1.04496587874001,1.))
REPRESENTATION_ITEM($)
);
#52=(
BOUNDED_CURVE()
B_SPLINE_CURVE(2,(#386,#387,#388),.UNSPECIFIED.,.F.,.F.)
B_SPLINE_CURVE_WITH_KNOTS((3,3),(8.01837666866721,14.8281856433667),
 .UNSPECIFIED.)
CURVE()
GEOMETRIC_REPRESENTATION_ITEM()
RATIONAL_B_SPLINE_CURVE((1.,1.04496587874002,1.01355494026326))
REPRESENTATION_ITEM($)
);
#53=(
BOUNDED_CURVE()
B_SPLINE_CURVE(2,(#390,#391,#392),.UNSPECIFIED.,.F.,.F.)
B_SPLINE_CURVE_WITH_KNOTS((3,3),(1.20856769396766,8.01837666866721),
 .UNSPECIFIED.)
CURVE()
GEOMETRIC_REPRESENTATION_ITEM()
RATIONAL_B_SPLINE_CURVE((1.01355494026328,1.04496587874008,1.))
REPRESENTATION_ITEM($)
);
#54=(
BOUNDED_CURVE()
B_SPLINE_CURVE(2,(#394,#395,#396),.UNSPECIFIED.,.F.,.F.)
B_SPLINE_CURVE_WITH_KNOTS((3,3),(8.01837666866722,14.8281856433667),
 .UNSPECIFIED.)
CURVE()
GEOMETRIC_REPRESENTATION_ITEM()
RATIONAL_B_SPLINE_CURVE((1.,1.04496587874,1.01355494026326))
REPRESENTATION_ITEM($)
);
#55=(
BOUNDED_CURVE()
B_SPLINE_CURVE(2,(#398,#399,#400),.UNSPECIFIED.,.F.,.F.)
B_SPLINE_CURVE_WITH_KNOTS((3,3),(1.20856769396773,8.01837666866722),
 .UNSPECIFIED.)
CURVE()
GEOMETRIC_REPRESENTATION_ITEM()
RATIONAL_B_SPLINE_CURVE((1.01355494026326,1.04496587874001,1.))
REPRESENTATION_ITEM($)
);
#56=(
BOUNDED_CURVE()
B_SPLINE_CURVE(2,(#402,#403,#404),.UNSPECIFIED.,.F.,.F.)
B_SPLINE_CURVE_WITH_KNOTS((3,3),(8.01837666866722,14.8281856433667),
 .UNSPECIFIED.)
CURVE()
GEOMETRIC_REPRESENTATION_ITEM()
RATIONAL_B_SPLINE_CURVE((1.,1.04496587873999,1.01355494026325))
REPRESENTATION_ITEM($)
);
#57=(
BOUNDED_CURVE()
B_SPLINE_CURVE(2,(#406,#407,#408),.UNSPECIFIED.,.F.,.F.)
B_SPLINE_CURVE_WITH_KNOTS((3,3),(1.20856769396774,8.01837666866722),
 .UNSPECIFIED.)
CURVE()
GEOMETRIC_REPRESENTATION_ITEM()
RATIONAL_B_SPLINE_CURVE((1.01355494026326,1.04496587874,1.))
REPRESENTATION_ITEM($)
);
#58=(
BOUNDED_CURVE()
B_SPLINE_CURVE(2,(#410,#411,#412),.UNSPECIFIED.,.F.,.F.)
B_SPLINE_CURVE_WITH_KNOTS((3,3),(8.01837666866721,14.8281856433668),
 .UNSPECIFIED.)
CURVE()
GEOMETRIC_REPRESENTATION_ITEM()
RATIONAL_B_SPLINE_CURVE((1.,1.04496587874009,1.01355494026328))
REPRESENTATION_ITEM($)
);
#59=(
BOUNDED_CURVE()
B_SPLINE_CURVE(2,(#413,#414,#415),.UNSPECIFIED.,.F.,.F.)
B_SPLINE_CURVE_WITH_KNOTS((3,3),(1.20856769396765,8.01837666866721),
 .UNSPECIFIED.)
CURVE()
GEOMETRIC_REPRESENTATION_ITEM()
RATIONAL_B_SPLINE_CURVE((1.01355494026328,1.04496587874009,1.))
REPRESENTATION_ITEM($)
);
#60=(
BOUNDED_CURVE()
B_SPLINE_CURVE(2,(#459,#460,#461),.UNSPECIFIED.,.F.,.F.)
B_SPLINE_CURVE_WITH_KNOTS((3,3),(1.22986295159597,1.55595718846186),
 .UNSPECIFIED.)
CURVE()
GEOMETRIC_REPRESENTATION_ITEM()
RATIONAL_B_SPLINE_CURVE((1.,0.98673723951786,1.))
REPRESENTATION_ITEM($)
);
#61=CONICAL_SURFACE($,#276,12.75,74.9999999999996);
#62=FACE_BOUND($,#87,.T.);
#63=FACE_BOUND($,#89,.T.);
#64=FACE_BOUND($,#91,.T.);
#65=FACE_BOUND($,#93,.T.);
#66=FACE_BOUND($,#95,.T.);
#67=FACE_BOUND($,#98,.T.);
#68=FACE_BOUND($,#106,.T.);
#69=FACE_BOUND($,#109,.T.);
#70=FACE_OUTER_BOUND($,#86,.T.);
#71=FACE_OUTER_BOUND($,#88,.T.);
#72=FACE_OUTER_BOUND($,#90,.T.);
#73=FACE_OUTER_BOUND($,#92,.T.);
#74=FACE_OUTER_BOUND($,#94,.T.);
#75=FACE_OUTER_BOUND($,#96,.T.);
#76=FACE_OUTER_BOUND($,#97,.T.);
#77=FACE_OUTER_BOUND($,#99,.T.);
#78=FACE_OUTER_BOUND($,#100,.T.);
#79=FACE_OUTER_BOUND($,#101,.T.);
#80=FACE_OUTER_BOUND($,#102,.T.);
#81=FACE_OUTER_BOUND($,#103,.T.);
#82=FACE_OUTER_BOUND($,#104,.T.);
#83=FACE_OUTER_BOUND($,#105,.T.);
#84=FACE_OUTER_BOUND($,#107,.T.);
#85=FACE_OUTER_BOUND($,#108,.T.);
#86=EDGE_LOOP($,(#181));
#87=EDGE_LOOP($,(#182));
#88=EDGE_LOOP($,(#183));
#89=EDGE_LOOP($,(#184,#185,#186,#187,#188,#189,#190,#191,#192,#193,#194,
#195));
#90=EDGE_LOOP($,(#196));
#91=EDGE_LOOP($,(#197));
#92=EDGE_LOOP($,(#198));
#93=EDGE_LOOP($,(#199));
#94=EDGE_LOOP($,(#200));
#95=EDGE_LOOP($,(#201));
#96=EDGE_LOOP($,(#202,#203,#204,#205));
#97=EDGE_LOOP($,(#206));
#98=EDGE_LOOP($,(#207));
#99=EDGE_LOOP($,(#208,#209,#210,#211,#212));
#100=EDGE_LOOP($,(#213,#214,#215,#216,#217));
#101=EDGE_LOOP($,(#218,#219,#220,#221,#222));
#102=EDGE_LOOP($,(#223,#224,#225,#226,#227));
#103=EDGE_LOOP($,(#228,#229,#230,#231,#232));
#104=EDGE_LOOP($,(#233,#234,#235,#236,#237));
#105=EDGE_LOOP($,(#238,#239,#240,#241,#242,#243));
#106=EDGE_LOOP($,(#244,#245));
#107=EDGE_LOOP($,(#246));
#108=EDGE_LOOP($,(#247));
#109=EDGE_LOOP($,(#248));
#110=CIRCLE($,#274,10.5);
#111=CIRCLE($,#275,10.5);
#112=CIRCLE($,#277,14.);
#113=CIRCLE($,#279,14.);
#114=CIRCLE($,#281,7.25);
#115=CIRCLE($,#282,7.8425976661617);
#116=CIRCLE($,#284,7.25000000000001);
#117=CIRCLE($,#285,11.1242977306435);
#118=CIRCLE($,#286,11.1242977306435);
#119=VERTEX_POINT($,#361);
#120=VERTEX_POINT($,#363);
#121=VERTEX_POINT($,#366);
#122=VERTEX_POINT($,#368);
#123=VERTEX_POINT($,#369);
#124=VERTEX_POINT($,#373);
#125=VERTEX_POINT($,#377);
#126=VERTEX_POINT($,#381);
#127=VERTEX_POINT($,#385);
#128=VERTEX_POINT($,#389);
#129=VERTEX_POINT($,#393);
#130=VERTEX_POINT($,#397);
#131=VERTEX_POINT($,#401);
#132=VERTEX_POINT($,#405);
#133=VERTEX_POINT($,#409);
#134=VERTEX_POINT($,#417);
#135=VERTEX_POINT($,#420);
#136=VERTEX_POINT($,#422);
#137=VERTEX_POINT($,#425);
#138=VERTEX_POINT($,#454);
#139=VERTEX_POINT($,#455);
#140=VERTEX_POINT($,#458);
#141=VERTEX_POINT($,#464);
#142=VERTEX_POINT($,#466);
#143=VERTEX_POINT($,#470);
#144=VERTEX_POINT($,#474);
#145=VERTEX_POINT($,#478);
#146=VERTEX_POINT($,#482);
#147=EDGE_CURVE($,#119,#119,#110,.T.);
#148=EDGE_CURVE($,#120,#120,#111,.T.);
#149=EDGE_CURVE($,#121,#121,#112,.T.);
#150=EDGE_CURVE($,#122,#123,#48,.T.);
#151=EDGE_CURVE($,#124,#122,#49,.T.);
#152=EDGE_CURVE($,#125,#124,#50,.T.);
#153=EDGE_CURVE($,#126,#125,#51,.T.);
#154=EDGE_CURVE($,#127,#126,#52,.T.);
#155=EDGE_CURVE($,#128,#127,#53,.T.);
#156=EDGE_CURVE($,#129,#128,#54,.T.);
#157=EDGE_CURVE($,#130,#129,#55,.T.);
#158=EDGE_CURVE($,#131,#130,#56,.T.);
#159=EDGE_CURVE($,#132,#131,#57,.T.);
#160=EDGE_CURVE($,#133,#132,#58,.T.);
#161=EDGE_CURVE($,#123,#133,#59,.T.);
#162=EDGE_CURVE($,#134,#134,#113,.T.);
#163=EDGE_CURVE($,#135,#135,#114,.T.);
#164=EDGE_CURVE($,#136,#136,#115,.T.);
#165=EDGE_CURVE($,#137,#137,#116,.T.);
#166=EDGE_CURVE($,#138,#139,#117,.T.);
#167=EDGE_CURVE($,#139,#138,#118,.T.);
#168=EDGE_CURVE($,#139,#140,#60,.T.);
#169=EDGE_CURVE($,#126,#141,#12,.T.);
#170=EDGE_CURVE($,#141,#142,#13,.T.);
#171=EDGE_CURVE($,#128,#142,#14,.T.);
#172=EDGE_CURVE($,#142,#143,#15,.T.);
#173=EDGE_CURVE($,#130,#143,#16,.T.);
#174=EDGE_CURVE($,#124,#144,#17,.T.);
#175=EDGE_CURVE($,#144,#141,#18,.T.);
#176=EDGE_CURVE($,#143,#145,#19,.T.);
#177=EDGE_CURVE($,#132,#145,#20,.T.);
#178=EDGE_CURVE($,#123,#146,#21,.T.);
#179=EDGE_CURVE($,#146,#144,#22,.T.);
#180=EDGE_CURVE($,#145,#146,#23,.T.);
#181=ORIENTED_EDGE($,*,*,#147,.T.);
#182=ORIENTED_EDGE($,*,*,#148,.F.);
#183=ORIENTED_EDGE($,*,*,#149,.T.);
#184=ORIENTED_EDGE($,*,*,#150,.F.);
#185=ORIENTED_EDGE($,*,*,#151,.F.);
#186=ORIENTED_EDGE($,*,*,#152,.F.);
#187=ORIENTED_EDGE($,*,*,#153,.F.);
#188=ORIENTED_EDGE($,*,*,#154,.F.);
#189=ORIENTED_EDGE($,*,*,#155,.F.);
#190=ORIENTED_EDGE($,*,*,#156,.F.);
#191=ORIENTED_EDGE($,*,*,#157,.F.);
#192=ORIENTED_EDGE($,*,*,#158,.F.);
#193=ORIENTED_EDGE($,*,*,#159,.F.);
#194=ORIENTED_EDGE($,*,*,#160,.F.);
#195=ORIENTED_EDGE($,*,*,#161,.F.);
#196=ORIENTED_EDGE($,*,*,#162,.T.);
#197=ORIENTED_EDGE($,*,*,#149,.F.);
#198=ORIENTED_EDGE($,*,*,#163,.T.);
#199=ORIENTED_EDGE($,*,*,#164,.F.);
#200=ORIENTED_EDGE($,*,*,#163,.F.);
#201=ORIENTED_EDGE($,*,*,#165,.F.);
#202=ORIENTED_EDGE($,*,*,#166,.F.);
#203=ORIENTED_EDGE($,*,*,#167,.F.);
#204=ORIENTED_EDGE($,*,*,#168,.T.);
#205=ORIENTED_EDGE($,*,*,#168,.F.);
#206=ORIENTED_EDGE($,*,*,#162,.F.);
#207=ORIENTED_EDGE($,*,*,#147,.F.);
#208=ORIENTED_EDGE($,*,*,#155,.T.);
#209=ORIENTED_EDGE($,*,*,#154,.T.);
#210=ORIENTED_EDGE($,*,*,#169,.T.);
#211=ORIENTED_EDGE($,*,*,#170,.T.);
#212=ORIENTED_EDGE($,*,*,#171,.F.);
#213=ORIENTED_EDGE($,*,*,#157,.T.);
#214=ORIENTED_EDGE($,*,*,#156,.T.);
#215=ORIENTED_EDGE($,*,*,#171,.T.);
#216=ORIENTED_EDGE($,*,*,#172,.T.);
#217=ORIENTED_EDGE($,*,*,#173,.F.);
#218=ORIENTED_EDGE($,*,*,#153,.T.);
#219=ORIENTED_EDGE($,*,*,#152,.T.);
#220=ORIENTED_EDGE($,*,*,#174,.T.);
#221=ORIENTED_EDGE($,*,*,#175,.T.);
#222=ORIENTED_EDGE($,*,*,#169,.F.);
#223=ORIENTED_EDGE($,*,*,#176,.T.);
#224=ORIENTED_EDGE($,*,*,#177,.F.);
#225=ORIENTED_EDGE($,*,*,#159,.T.);
#226=ORIENTED_EDGE($,*,*,#158,.T.);
#227=ORIENTED_EDGE($,*,*,#173,.T.);
#228=ORIENTED_EDGE($,*,*,#151,.T.);
#229=ORIENTED_EDGE($,*,*,#150,.T.);
#230=ORIENTED_EDGE($,*,*,#178,.T.);
#231=ORIENTED_EDGE($,*,*,#179,.T.);
#232=ORIENTED_EDGE($,*,*,#174,.F.);
#233=ORIENTED_EDGE($,*,*,#180,.T.);
#234=ORIENTED_EDGE($,*,*,#178,.F.);
#235=ORIENTED_EDGE($,*,*,#161,.T.);
#236=ORIENTED_EDGE($,*,*,#160,.T.);
#237=ORIENTED_EDGE($,*,*,#177,.T.);
#238=ORIENTED_EDGE($,*,*,#170,.F.);
#239=ORIENTED_EDGE($,*,*,#175,.F.);
#240=ORIENTED_EDGE($,*,*,#179,.F.);
#241=ORIENTED_EDGE($,*,*,#180,.F.);
#242=ORIENTED_EDGE($,*,*,#176,.F.);
#243=ORIENTED_EDGE($,*,*,#172,.F.);
#244=ORIENTED_EDGE($,*,*,#166,.T.);
#245=ORIENTED_EDGE($,*,*,#167,.T.);
#246=ORIENTED_EDGE($,*,*,#165,.T.);
#247=ORIENTED_EDGE($,*,*,#148,.T.);
#248=ORIENTED_EDGE($,*,*,#164,.T.);
#249=CYLINDRICAL_SURFACE($,#273,10.5);
#250=CYLINDRICAL_SURFACE($,#278,14.);
#251=CYLINDRICAL_SURFACE($,#283,7.25000000000001);
#252=STYLED_ITEM($,(#509),#254);
#253=STYLED_ITEM($,(#508),#271);
#254=ADVANCED_FACE($,(#70,#62),#249,.T.);
#255=ADVANCED_FACE($,(#71,#63),#61,.T.);
#256=ADVANCED_FACE($,(#72,#64),#250,.T.);
#257=ADVANCED_FACE($,(#73,#65),#47,.T.);
#258=ADVANCED_FACE($,(#74,#66),#251,.F.);
#259=ADVANCED_FACE($,(#75),#46,.F.);
#260=ADVANCED_FACE($,(#76,#67),#36,.T.);
#261=ADVANCED_FACE($,(#77),#37,.T.);
#262=ADVANCED_FACE($,(#78),#38,.T.);
#263=ADVANCED_FACE($,(#79),#39,.T.);
#264=ADVANCED_FACE($,(#80),#40,.T.);
#265=ADVANCED_FACE($,(#81),#41,.T.);
#266=ADVANCED_FACE($,(#82),#42,.T.);
#267=ADVANCED_FACE($,(#83,#68),#43,.T.);
#268=ADVANCED_FACE($,(#84),#44,.F.);
#269=ADVANCED_FACE($,(#85,#69),#45,.T.);
#270=CLOSED_SHELL($,(#254,#255,#256,#257,#258,#259,#260,#261,#262,#263,
#264,#265,#266,#267,#268,#269));
#271=MANIFOLD_SOLID_BREP('1AD',#270);
#272=AXIS2_PLACEMENT_3D('placement',#359,#297,#298);
#273=AXIS2_PLACEMENT_3D($,#360,#299,#300);
#274=AXIS2_PLACEMENT_3D($,#362,#301,#302);
#275=AXIS2_PLACEMENT_3D($,#364,#303,#304);
#276=AXIS2_PLACEMENT_3D($,#365,#305,#306);
#277=AXIS2_PLACEMENT_3D($,#367,#307,#308);
#278=AXIS2_PLACEMENT_3D($,#416,#309,#310);
#279=AXIS2_PLACEMENT_3D($,#418,#311,#312);
#280=AXIS2_PLACEMENT_3D($,#419,#313,#314);
#281=AXIS2_PLACEMENT_3D($,#421,#315,#316);
#282=AXIS2_PLACEMENT_3D($,#423,#317,#318);
#283=AXIS2_PLACEMENT_3D($,#424,#319,#320);
#284=AXIS2_PLACEMENT_3D($,#426,#321,#322);
#285=AXIS2_PLACEMENT_3D($,#456,#323,#324);
#286=AXIS2_PLACEMENT_3D($,#457,#325,#326);
#287=AXIS2_PLACEMENT_3D($,#462,#327,#328);
#288=AXIS2_PLACEMENT_3D($,#463,#329,#330);
#289=AXIS2_PLACEMENT_3D($,#469,#334,#335);
#290=AXIS2_PLACEMENT_3D($,#473,#338,#339);
#291=AXIS2_PLACEMENT_3D($,#477,#342,#343);
#292=AXIS2_PLACEMENT_3D($,#481,#346,#347);
#293=AXIS2_PLACEMENT_3D($,#485,#350,#351);
#294=AXIS2_PLACEMENT_3D($,#487,#353,#354);
#295=AXIS2_PLACEMENT_3D($,#488,#355,#356);
#296=AXIS2_PLACEMENT_3D($,#489,#357,#358);
#297=DIRECTION('axis',(0.,0.,1.));
#298=DIRECTION('refdir',(1.,0.,0.));
#299=DIRECTION('center_axis',(-1.,1.224606E-016,0.));
#300=DIRECTION('ref_axis',(1.224606E-016,1.,0.));
#301=DIRECTION('center_axis',(-1.,0.,0.));
#302=DIRECTION('ref_axis',(0.,1.,0.));
#303=DIRECTION('center_axis',(-1.,0.,0.));
#304=DIRECTION('ref_axis',(0.,1.,0.));
#305=DIRECTION('center_axis',(-1.,0.,0.));
#306=DIRECTION('ref_axis',(0.,1.,0.));
#307=DIRECTION('center_axis',(1.,0.,0.));
#308=DIRECTION('ref_axis',(0.,1.,0.));
#309=DIRECTION('center_axis',(1.,0.,0.));
#310=DIRECTION('ref_axis',(0.,1.,0.));
#311=DIRECTION('center_axis',(1.,0.,0.));
#312=DIRECTION('ref_axis',(0.,1.,0.));
#313=DIRECTION('center_axis',(1.,0.,0.));
#314=DIRECTION('ref_axis',(0.,0.,-1.));
#315=DIRECTION('center_axis',(1.,0.,0.));
#316=DIRECTION('ref_axis',(0.,1.,0.));
#317=DIRECTION('center_axis',(1.,0.,0.));
#318=DIRECTION('ref_axis',(0.,1.,0.));
#319=DIRECTION('center_axis',(1.,0.,0.));
#320=DIRECTION('ref_axis',(0.,1.,0.));
#321=DIRECTION('center_axis',(-1.,0.,0.));
#322=DIRECTION('ref_axis',(0.,1.,0.));
#323=DIRECTION('center_axis',(-1.,0.,0.));
#324=DIRECTION('ref_axis',(0.,0.,1.));
#325=DIRECTION('center_axis',(-1.,0.,0.));
#326=DIRECTION('ref_axis',(0.,0.,1.));
#327=DIRECTION('center_axis',(-1.,0.,0.));
#328=DIRECTION('ref_axis',(0.,0.,1.));
#329=DIRECTION('center_axis',(0.,0.866025403784439,0.499999999999999));
#330=DIRECTION('ref_axis',(0.,-0.499999999999999,0.866025403784439));
#331=DIRECTION($,(1.,0.,0.));
#332=DIRECTION($,(0.,0.499999999999999,-0.866025403784439));
#333=DIRECTION($,(1.,0.,0.));
#334=DIRECTION('center_axis',(0.,0.866025403784438,-0.500000000000001));
#335=DIRECTION('ref_axis',(-1.,0.,0.));
#336=DIRECTION($,(0.,-0.500000000000001,-0.866025403784438));
#337=DIRECTION($,(1.,0.,0.));
#338=DIRECTION('center_axis',(0.,0.,1.));
#339=DIRECTION('ref_axis',(1.,0.,0.));
#340=DIRECTION($,(1.,0.,0.));
#341=DIRECTION($,(0.,1.,0.));
#342=DIRECTION('center_axis',(0.,0.,-1.));
#343=DIRECTION('ref_axis',(-1.,0.,0.));
#344=DIRECTION($,(0.,-1.,0.));
#345=DIRECTION($,(1.,0.,0.));
#346=DIRECTION('center_axis',(0.,-0.866025403784439,0.5));
#347=DIRECTION('ref_axis',(1.,0.,0.));
#348=DIRECTION($,(1.,0.,0.));
#349=DIRECTION($,(0.,0.5,0.866025403784439));
#350=DIRECTION('center_axis',(0.,-0.866025403784439,-0.5));
#351=DIRECTION('ref_axis',(0.,0.5,-0.866025403784439));
#352=DIRECTION($,(0.,-0.5,0.866025403784439));
#353=DIRECTION('center_axis',(1.,0.,0.));
#354=DIRECTION('ref_axis',(0.,0.,-1.));
#355=DIRECTION('center_axis',(1.,0.,0.));
#356=DIRECTION('ref_axis',(0.,0.,-1.));
#357=DIRECTION('center_axis',(-1.,0.,0.));
#358=DIRECTION('ref_axis',(0.,0.,1.));
#359=CARTESIAN_POINT('',(0.,0.,0.));
#360=CARTESIAN_POINT('Origin',(0.499999999999986,-6.123032E-017,0.));
#361=CARTESIAN_POINT('',(15.,-10.5,1.285837E-015));
#362=CARTESIAN_POINT('Origin',(15.,-1.83691E-015,0.));
#363=CARTESIAN_POINT('',(-1.276756E-015,-10.5,1.285837E-015));
#364=CARTESIAN_POINT('Origin',(0.,0.,0.));
#365=CARTESIAN_POINT('Origin',(17.6650635094611,-2.089349E-031,0.));
#366=CARTESIAN_POINT('',(17.3301270189222,-14.,-1.714449E-015));
#367=CARTESIAN_POINT('Origin',(17.3301270189222,-2.089349E-031,0.));
#368=CARTESIAN_POINT('',(18.,-9.95929214352104,5.75));
#369=CARTESIAN_POINT('',(17.5233033302351,-13.2790561913614,5.329071E-015));
#370=CARTESIAN_POINT('Ctrl Pts',(18.,-9.95929214352104,5.75));
#371=CARTESIAN_POINT('Ctrl Pts',(18.,-11.4999999999999,3.08141571295804));
#372=CARTESIAN_POINT('Ctrl Pts',(17.5233033302351,-13.2790561913614,5.329071E-015));
#373=CARTESIAN_POINT('',(17.5233033302351,-6.6395280956807,11.5));
#374=CARTESIAN_POINT('Ctrl Pts',(17.5233033302351,-6.6395280956807,11.5));
#375=CARTESIAN_POINT('Ctrl Pts',(18.,-8.41858428704212,8.41858428704202));
#376=CARTESIAN_POINT('Ctrl Pts',(18.,-9.95929214352104,5.75));
#377=CARTESIAN_POINT('',(18.,1.065814E-014,11.5));
#378=CARTESIAN_POINT('Ctrl Pts',(18.,1.065814E-014,11.5));
#379=CARTESIAN_POINT('Ctrl Pts',(18.,-3.08141571295775,11.5));
#380=CARTESIAN_POINT('Ctrl Pts',(17.5233033302351,-6.6395280956807,11.5));
#381=CARTESIAN_POINT('',(17.5233033302351,6.63952809568071,11.5));
#382=CARTESIAN_POINT('Ctrl Pts',(17.5233033302351,6.63952809568071,11.5));
#383=CARTESIAN_POINT('Ctrl Pts',(18.,3.08141571295779,11.5));
#384=CARTESIAN_POINT('Ctrl Pts',(18.,1.065814E-014,11.5));
#385=CARTESIAN_POINT('',(18.,9.95929214352105,5.74999999999999));
#386=CARTESIAN_POINT('Ctrl Pts',(18.,9.95929214352105,5.74999999999999));
#387=CARTESIAN_POINT('Ctrl Pts',(18.,8.41858428704217,8.41858428704197));
#388=CARTESIAN_POINT('Ctrl Pts',(17.5233033302351,6.63952809568071,11.5));
#389=CARTESIAN_POINT('',(17.5233033302351,13.2790561913614,-1.154632E-014));
#390=CARTESIAN_POINT('Ctrl Pts',(17.5233033302351,13.2790561913614,-1.154632E-014));
#391=CARTESIAN_POINT('Ctrl Pts',(18.,11.5,3.08141571295796));
#392=CARTESIAN_POINT('Ctrl Pts',(18.,9.95929214352105,5.74999999999999));
#393=CARTESIAN_POINT('',(18.,9.95929214352104,-5.75000000000001));
#394=CARTESIAN_POINT('Ctrl Pts',(18.,9.95929214352104,-5.75000000000001));
#395=CARTESIAN_POINT('Ctrl Pts',(18.,11.4999999999999,-3.08141571295804));
#396=CARTESIAN_POINT('Ctrl Pts',(17.5233033302351,13.2790561913614,-1.154632E-014));
#397=CARTESIAN_POINT('',(17.5233033302351,6.63952809568069,-11.5));
#398=CARTESIAN_POINT('Ctrl Pts',(17.5233033302351,6.63952809568069,-11.5));
#399=CARTESIAN_POINT('Ctrl Pts',(18.,8.41858428704214,-8.41858428704199));
#400=CARTESIAN_POINT('Ctrl Pts',(18.,9.95929214352104,-5.75000000000001));
#401=CARTESIAN_POINT('',(18.,-7.105427E-015,-11.5));
#402=CARTESIAN_POINT('Ctrl Pts',(18.,-7.105427E-015,-11.5));
#403=CARTESIAN_POINT('Ctrl Pts',(18.,3.08141571295775,-11.5));
#404=CARTESIAN_POINT('Ctrl Pts',(17.5233033302351,6.63952809568069,-11.5));
#405=CARTESIAN_POINT('',(17.5233033302351,-6.6395280956807,-11.5));
#406=CARTESIAN_POINT('Ctrl Pts',(17.5233033302351,-6.6395280956807,-11.5));
#407=CARTESIAN_POINT('Ctrl Pts',(18.,-3.08141571295778,-11.5));
#408=CARTESIAN_POINT('Ctrl Pts',(18.,-7.105427E-015,-11.5));
#409=CARTESIAN_POINT('',(18.,-9.95929214352105,-5.75));
#410=CARTESIAN_POINT('Ctrl Pts',(18.,-9.95929214352105,-5.75));
#411=CARTESIAN_POINT('Ctrl Pts',(18.,-8.41858428704214,-8.41858428704202));
#412=CARTESIAN_POINT('Ctrl Pts',(17.5233033302351,-6.6395280956807,-11.5));
#413=CARTESIAN_POINT('Ctrl Pts',(17.5233033302351,-13.2790561913614,5.329071E-015));
#414=CARTESIAN_POINT('Ctrl Pts',(18.,-11.5,-3.08141571295798));
#415=CARTESIAN_POINT('Ctrl Pts',(18.,-9.95929214352105,-5.75));
#416=CARTESIAN_POINT('Origin',(16.1650635094611,-2.089349E-031,0.));
#417=CARTESIAN_POINT('',(15.,-14.,-1.714449E-015));
#418=CARTESIAN_POINT('Origin',(15.,-2.089349E-031,0.));
#419=CARTESIAN_POINT('Origin',(2.59999999999992,-2.089349E-031,0.));
#420=CARTESIAN_POINT('',(2.59999999999999,-7.25000000000001,-8.878396E-016));
#421=CARTESIAN_POINT('Origin',(2.6,-2.089349E-031,0.));
#422=CARTESIAN_POINT('',(-9.85878E-014,7.8425976661617,0.));
#423=CARTESIAN_POINT('Origin',(-9.85878E-014,-2.089349E-031,0.));
#424=CARTESIAN_POINT('Origin',(11.8467708328189,-2.089349E-031,0.));
#425=CARTESIAN_POINT('',(17.,-7.25,8.878396E-016));
#426=CARTESIAN_POINT('Origin',(17.,-2.089349E-031,0.));
#427=CARTESIAN_POINT('Ctrl Pts',(24.0000000000009,-9.78599342743274E-013,
11.124297730641));
#428=CARTESIAN_POINT('Ctrl Pts',(24.0000000000005,-11.1242977306454,11.124297730641));
#429=CARTESIAN_POINT('Ctrl Pts',(23.9999999999993,-11.1242977306454,-3.37110318780037E-012));
#430=CARTESIAN_POINT('Ctrl Pts',(23.9999999999981,-11.1242977306454,-11.1242977306478));
#431=CARTESIAN_POINT('Ctrl Pts',(23.9999999999984,-9.78599342743274E-013,
-11.1242977306478));
#432=CARTESIAN_POINT('Ctrl Pts',(23.9999999999988,11.1242977306434,-11.1242977306478));
#433=CARTESIAN_POINT('Ctrl Pts',(24.,11.1242977306434,-3.37110318780045E-012));
#434=CARTESIAN_POINT('Ctrl Pts',(24.0000000000012,11.1242977306434,11.124297730641));
#435=CARTESIAN_POINT('Ctrl Pts',(24.0000000000009,-9.78599342743274E-013,
11.124297730641));
#436=CARTESIAN_POINT('Ctrl Pts',(25.9150151162623,-1.03922129052965E-012,
5.72665634946144));
#437=CARTESIAN_POINT('Ctrl Pts',(25.9150151162621,-5.72665634946605,5.72665634946144));
#438=CARTESIAN_POINT('Ctrl Pts',(25.9150151162615,-5.72665634946606,-3.58067211454189E-012));
#439=CARTESIAN_POINT('Ctrl Pts',(25.9150151162608,-5.72665634946605,-5.7266563494686));
#440=CARTESIAN_POINT('Ctrl Pts',(25.915015116261,-1.03922129052965E-012,
-5.7266563494686));
#441=CARTESIAN_POINT('Ctrl Pts',(25.9150151162612,5.72665634946398,-5.7266563494686));
#442=CARTESIAN_POINT('Ctrl Pts',(25.9150151162618,5.72665634946398,-3.58067211454193E-012));
#443=CARTESIAN_POINT('Ctrl Pts',(25.9150151162625,5.72665634946398,5.72665634946144));
#444=CARTESIAN_POINT('Ctrl Pts',(25.9150151162623,-1.03922129052965E-012,
5.72665634946144));
#445=CARTESIAN_POINT('Ctrl Pts',(25.9999999999999,-1.04191158218367E-012,
-3.59198154396551E-012));
#446=CARTESIAN_POINT('Ctrl Pts',(25.9999999999999,-1.03990244011709E-012,
-3.59198154396551E-012));
#447=CARTESIAN_POINT('Ctrl Pts',(25.9999999999999,-1.03990244011709E-012,
-3.58997240189893E-012));
#448=CARTESIAN_POINT('Ctrl Pts',(25.9999999999999,-1.03990244011709E-012,
-3.58796325983235E-012));
#449=CARTESIAN_POINT('Ctrl Pts',(25.9999999999999,-1.04191158218367E-012,
-3.58796325983235E-012));
#450=CARTESIAN_POINT('Ctrl Pts',(25.9999999999999,-1.04392072425025E-012,
-3.58796325983235E-012));
#451=CARTESIAN_POINT('Ctrl Pts',(25.9999999999999,-1.04392072425025E-012,
-3.58997240189893E-012));
#452=CARTESIAN_POINT('Ctrl Pts',(25.9999999999999,-1.04392072425025E-012,
-3.59198154396551E-012));
#453=CARTESIAN_POINT('Ctrl Pts',(25.9999999999999,-1.04191158218367E-012,
-3.59198154396551E-012));
#454=CARTESIAN_POINT('',(24.,11.1242977306433,0.));
#455=CARTESIAN_POINT('',(24.0000000000009,-9.78599342743274E-013,11.124297730641));
#456=CARTESIAN_POINT('Origin',(24.,-3.197442E-014,0.));
#457=CARTESIAN_POINT('Origin',(24.,-3.197442E-014,0.));
#458=CARTESIAN_POINT('',(25.9999999999999,-2.089349E-031,0.));
#459=CARTESIAN_POINT('Ctrl Pts',(24.0000000000009,-9.78599342743274E-013,
11.124297730641));
#460=CARTESIAN_POINT('Ctrl Pts',(25.9150151162623,-1.03922129052965E-012,
5.72665634946144));
#461=CARTESIAN_POINT('Ctrl Pts',(25.9999999999999,-1.04191158218367E-012,
-3.59198154396551E-012));
#462=CARTESIAN_POINT('Origin',(15.,12.4,0.));
#463=CARTESIAN_POINT('Origin',(17.,6.63952809568071,11.5));
#464=CARTESIAN_POINT('',(24.,6.63952809568071,11.5));
#465=CARTESIAN_POINT($,(17.5233033302351,6.63952809568071,11.5));
#466=CARTESIAN_POINT('',(24.,13.2790561913614,-1.154632E-014));
#467=CARTESIAN_POINT($,(24.,6.63952809568071,11.5));
#468=CARTESIAN_POINT($,(17.5233033302351,13.2790561913614,-1.154632E-014));
#469=CARTESIAN_POINT('Origin',(17.,13.2790561913614,-1.154632E-014));
#470=CARTESIAN_POINT('',(24.,6.63952809568069,-11.5));
#471=CARTESIAN_POINT($,(24.,13.2790561913614,-1.154632E-014));
#472=CARTESIAN_POINT($,(17.5233033302351,6.63952809568069,-11.5));
#473=CARTESIAN_POINT('Origin',(17.,-6.6395280956807,11.5));
#474=CARTESIAN_POINT('',(24.,-6.6395280956807,11.5));
#475=CARTESIAN_POINT($,(17.5233033302351,-6.6395280956807,11.5));
#476=CARTESIAN_POINT($,(24.,-6.6395280956807,11.5));
#477=CARTESIAN_POINT('Origin',(17.,6.63952809568069,-11.5));
#478=CARTESIAN_POINT('',(24.,-6.6395280956807,-11.5));
#479=CARTESIAN_POINT($,(24.,6.63952809568069,-11.5));
#480=CARTESIAN_POINT($,(17.5233033302351,-6.6395280956807,-11.5));
#481=CARTESIAN_POINT('Origin',(17.,-13.2790561913614,5.329071E-015));
#482=CARTESIAN_POINT('',(24.,-13.2790561913614,5.329071E-015));
#483=CARTESIAN_POINT($,(17.5233033302351,-13.2790561913614,5.329071E-015));
#484=CARTESIAN_POINT($,(24.,-13.2790561913614,5.329071E-015));
#485=CARTESIAN_POINT('Origin',(17.,-6.6395280956807,-11.5));
#486=CARTESIAN_POINT($,(24.,-6.6395280956807,-11.5));
#487=CARTESIAN_POINT('Origin',(24.,-2.089349E-031,1.776357E-015));
#488=CARTESIAN_POINT('Origin',(17.,-2.089349E-031,1.776357E-015));
#489=CARTESIAN_POINT('Origin',(8.881784E-016,9.89999999999999,0.));
#490=UNCERTAINTY_MEASURE_WITH_UNIT(LENGTH_MEASURE(0.01),#492,
'DISTANCE_ACCURACY_VALUE',
'Maximum model space distance between geometric entities at asserted c
onnectivities');
#491=(
GEOMETRIC_REPRESENTATION_CONTEXT(3)
GLOBAL_UNCERTAINTY_ASSIGNED_CONTEXT((#490))
GLOBAL_UNIT_ASSIGNED_CONTEXT((#492,#495,#493))
REPRESENTATION_CONTEXT('','3D')
);
#492=(
LENGTH_UNIT()
NAMED_UNIT(*)
SI_UNIT(.MILLI.,.METRE.)
);
#493=(
NAMED_UNIT(*)
SI_UNIT($,.STERADIAN.)
SOLID_ANGLE_UNIT()
);
#494=DIMENSIONAL_EXPONENTS(0.,0.,0.,0.,0.,0.,0.);
#495=(
CONVERSION_BASED_UNIT('degree',#497)
NAMED_UNIT(#494)
PLANE_ANGLE_UNIT()
);
#496=(
NAMED_UNIT(*)
PLANE_ANGLE_UNIT()
SI_UNIT($,.RADIAN.)
);
#497=PLANE_ANGLE_MEASURE_WITH_UNIT(PLANE_ANGLE_MEASURE(0.01745329252),#496);
#498=SHAPE_DEFINITION_REPRESENTATION(#499,#500);
#499=PRODUCT_DEFINITION_SHAPE('',$,#502);
#500=SHAPE_REPRESENTATION('',(#272),#491);
#501=PRODUCT_DEFINITION_CONTEXT('3D Mechanical Parts',#505,'design');
#502=PRODUCT_DEFINITION('PFV012','PFV012',#503,#501);
#503=PRODUCT_DEFINITION_FORMATION('',$,#507);
#504=APPLICATION_PROTOCOL_DEFINITION('international standard',
'automotive_design',2009,#505);
#505=APPLICATION_CONTEXT(
'Core Data for Automotive Mechanical Design Process');
#506=PRODUCT_CONTEXT('3D Mechanical Parts',#505,'mechanical');
#507=PRODUCT('PFV012','PFV012',$,(#506));
#508=PRESENTATION_STYLE_ASSIGNMENT((#510));
#509=PRESENTATION_STYLE_ASSIGNMENT((#511));
#510=SURFACE_STYLE_USAGE(.BOTH.,#512);
#511=SURFACE_STYLE_USAGE(.BOTH.,#513);
#512=SURFACE_SIDE_STYLE($,(#514));
#513=SURFACE_SIDE_STYLE($,(#515));
#514=SURFACE_STYLE_FILL_AREA(#516);
#515=SURFACE_STYLE_FILL_AREA(#517);
#516=FILL_AREA_STYLE($,(#518));
#517=FILL_AREA_STYLE($,(#519));
#518=FILL_AREA_STYLE_COLOUR($,#520);
#519=FILL_AREA_STYLE_COLOUR($,#521);
#520=COLOUR_RGB('',0.509803921568627,0.509803921568627,0.588235294117647);
#521=COLOUR_RGB('',1.,0.,0.);
ENDSEC;
END-ISO-10303-21;
