ISO-10303-21;
HEADER;
FILE_DESCRIPTION( ( '' ), '1' );
FILE_NAME( '//se01002/users/anro/AGRU_12705020011_PPH_grau_Rohr__5m_200X18_2__SDR11__ISO_S-5_10.stp', '2018-02-07T07:36:28', ( '' ), ( '' ), ' ', ' ', ' ' );
FILE_SCHEMA( ( 'automotive_design' ) );
ENDSEC;
DATA;
#1 = MECHANICAL_DESIGN_GEOMETRIC_PRESENTATION_REPRESENTATION( ' ', ( #10, #11, #12, #13, #14, #15, #16, #17, #18, #19, #20, #21, #22, #23, #24, #25, #26, #27, #28, #29, #30, #31, #32, #33, #34, #35, #36 ), #6 );
#2 = PRODUCT_DEFINITION_CONTEXT( '', #37, 'design' );
#3 = APPLICATION_PROTOCOL_DEFINITION( 'INTERNATIONAL STANDARD', 'automotive_design', 1994, #37 );
#4 = PRODUCT_CATEGORY_RELATIONSHIP( 'NONE', 'NONE', #38, #39 );
#5 = SHAPE_DEFINITION_REPRESENTATION( #40, #41 );
#6 =  ( GEOMETRIC_REPRESENTATION_CONTEXT( 3 )GLOBAL_UNCERTAINTY_ASSIGNED_CONTEXT( ( #44 ) )GLOBAL_UNIT_ASSIGNED_CONTEXT( ( #46, #47, #48 ) )REPRESENTATION_CONTEXT( 'NONE', 'WORKSPACE' ) );
#10 = STYLED_ITEM( '', ( #50 ), #51 );
#11 = STYLED_ITEM( '', ( #52 ), #53 );
#12 = STYLED_ITEM( '', ( #54 ), #55 );
#13 = STYLED_ITEM( '', ( #56 ), #57 );
#14 = STYLED_ITEM( '', ( #58 ), #59 );
#15 = STYLED_ITEM( '', ( #60 ), #61 );
#16 = STYLED_ITEM( '', ( #62 ), #63 );
#17 = STYLED_ITEM( '', ( #64 ), #65 );
#18 = STYLED_ITEM( '', ( #66 ), #67 );
#19 = STYLED_ITEM( '', ( #68 ), #69 );
#20 = STYLED_ITEM( '', ( #70 ), #71 );
#21 = STYLED_ITEM( '', ( #72 ), #73 );
#22 = STYLED_ITEM( '', ( #74 ), #75 );
#23 = STYLED_ITEM( '', ( #76 ), #77 );
#24 = STYLED_ITEM( '', ( #78 ), #79 );
#25 = STYLED_ITEM( '', ( #80 ), #81 );
#26 = STYLED_ITEM( '', ( #82 ), #83 );
#27 = STYLED_ITEM( '', ( #84 ), #85 );
#28 = STYLED_ITEM( '', ( #86 ), #87 );
#29 = STYLED_ITEM( '', ( #88 ), #89 );
#30 = STYLED_ITEM( '', ( #90 ), #91 );
#31 = STYLED_ITEM( '', ( #92 ), #93 );
#32 = STYLED_ITEM( '', ( #94 ), #95 );
#33 = STYLED_ITEM( '', ( #96 ), #97 );
#34 = STYLED_ITEM( '', ( #98 ), #99 );
#35 = STYLED_ITEM( '', ( #100 ), #101 );
#36 = STYLED_ITEM( '', ( #102 ), #103 );
#37 = APPLICATION_CONTEXT( ' ' );
#38 = PRODUCT_CATEGORY( 'part', 'NONE' );
#39 = PRODUCT_RELATED_PRODUCT_CATEGORY( 'detail', ' ', ( #104 ) );
#40 = PRODUCT_DEFINITION_SHAPE( 'NONE', 'NONE', #105 );
#41 = ADVANCED_BREP_SHAPE_REPRESENTATION( '1', ( #101, #106 ), #6 );
#44 = UNCERTAINTY_MEASURE_WITH_UNIT( LENGTH_MEASURE( 1.00000000000000E-006 ), #46, '', '' );
#46 =  ( CONVERSION_BASED_UNIT( 'MILLIMETRE', #109 )LENGTH_UNIT(  )NAMED_UNIT( #112 ) );
#47 =  ( NAMED_UNIT( #114 )PLANE_ANGLE_UNIT(  )SI_UNIT( $, .RADIAN. ) );
#48 =  ( NAMED_UNIT( #114 )SOLID_ANGLE_UNIT(  )SI_UNIT( $, .STERADIAN. ) );
#50 = PRESENTATION_STYLE_ASSIGNMENT( ( #120 ) );
#51 = VERTEX_POINT( '', #121 );
#52 = PRESENTATION_STYLE_ASSIGNMENT( ( #122 ) );
#53 = ADVANCED_FACE( '', ( #123 ), #124, .T. );
#54 = PRESENTATION_STYLE_ASSIGNMENT( ( #125 ) );
#55 = EDGE_CURVE( '', #91, #83, #126, .T. );
#56 = PRESENTATION_STYLE_ASSIGNMENT( ( #127 ) );
#57 = EDGE_CURVE( '', #95, #93, #128, .T. );
#58 = PRESENTATION_STYLE_ASSIGNMENT( ( #129 ) );
#59 = VERTEX_POINT( '', #130 );
#60 = PRESENTATION_STYLE_ASSIGNMENT( ( #131 ) );
#61 = EDGE_CURVE( '', #93, #91, #132, .T. );
#62 = PRESENTATION_STYLE_ASSIGNMENT( ( #133 ) );
#63 = EDGE_CURVE( '', #103, #51, #134, .T. );
#64 = PRESENTATION_STYLE_ASSIGNMENT( ( #135 ) );
#65 = ADVANCED_FACE( '', ( #136 ), #137, .T. );
#66 = PRESENTATION_STYLE_ASSIGNMENT( ( #138 ) );
#67 = ADVANCED_FACE( '', ( #139 ), #140, .F. );
#68 = PRESENTATION_STYLE_ASSIGNMENT( ( #141 ) );
#69 = EDGE_CURVE( '', #93, #95, #142, .T. );
#70 = PRESENTATION_STYLE_ASSIGNMENT( ( #143 ) );
#71 = ADVANCED_FACE( '', ( #144 ), #145, .F. );
#72 = PRESENTATION_STYLE_ASSIGNMENT( ( #146 ) );
#73 = EDGE_CURVE( '', #83, #95, #147, .T. );
#74 = PRESENTATION_STYLE_ASSIGNMENT( ( #148 ) );
#75 = EDGE_CURVE( '', #59, #79, #149, .T. );
#76 = PRESENTATION_STYLE_ASSIGNMENT( ( #150 ) );
#77 = EDGE_CURVE( '', #51, #103, #151, .T. );
#78 = PRESENTATION_STYLE_ASSIGNMENT( ( #152 ) );
#79 = VERTEX_POINT( '', #153 );
#80 = PRESENTATION_STYLE_ASSIGNMENT( ( #154 ) );
#81 = ADVANCED_FACE( '', ( #155, #156 ), #157, .T. );
#82 = PRESENTATION_STYLE_ASSIGNMENT( ( #158 ) );
#83 = VERTEX_POINT( '', #159 );
#84 = PRESENTATION_STYLE_ASSIGNMENT( ( #160 ) );
#85 = EDGE_CURVE( '', #79, #103, #161, .T. );
#86 = PRESENTATION_STYLE_ASSIGNMENT( ( #162 ) );
#87 = EDGE_CURVE( '', #83, #91, #163, .T. );
#88 = PRESENTATION_STYLE_ASSIGNMENT( ( #164 ) );
#89 = EDGE_CURVE( '', #51, #59, #165, .T. );
#90 = PRESENTATION_STYLE_ASSIGNMENT( ( #166 ) );
#91 = VERTEX_POINT( '', #167 );
#92 = PRESENTATION_STYLE_ASSIGNMENT( ( #168 ) );
#93 = VERTEX_POINT( '', #169 );
#94 = PRESENTATION_STYLE_ASSIGNMENT( ( #170 ) );
#95 = VERTEX_POINT( '', #171 );
#96 = PRESENTATION_STYLE_ASSIGNMENT( ( #172 ) );
#97 = ADVANCED_FACE( '', ( #173, #174 ), #175, .F. );
#98 = PRESENTATION_STYLE_ASSIGNMENT( ( #176 ) );
#99 = EDGE_CURVE( '', #79, #59, #177, .T. );
#100 = PRESENTATION_STYLE_ASSIGNMENT( ( #178 ) );
#101 = MANIFOLD_SOLID_BREP( '1', #179 );
#102 = PRESENTATION_STYLE_ASSIGNMENT( ( #180 ) );
#103 = VERTEX_POINT( '', #181 );
#104 = PRODUCT( '1', '1', 'PART-1-DESC', ( #182 ) );
#105 = PRODUCT_DEFINITION( 'NONE', 'NONE', #183, #2 );
#106 = AXIS2_PLACEMENT_3D( '', #184, #185, #186 );
#109 = LENGTH_MEASURE_WITH_UNIT( LENGTH_MEASURE( 1.00000000000000 ), #187 );
#112 = DIMENSIONAL_EXPONENTS( 1.00000000000000, 0.000000000000000, 0.000000000000000, 0.000000000000000, 0.000000000000000, 0.000000000000000, 0.000000000000000 );
#114 = DIMENSIONAL_EXPONENTS( 0.000000000000000, 0.000000000000000, 0.000000000000000, 0.000000000000000, 0.000000000000000, 0.000000000000000, 0.000000000000000 );
#120 = POINT_STYLE( ' ', #188, POSITIVE_LENGTH_MEASURE( 1.00000000000000E-006 ), #189 );
#121 = CARTESIAN_POINT( '', ( 0.000000000000000, 0.000000000000000, -81.8000000000000 ) );
#122 = SURFACE_STYLE_USAGE( .BOTH., #190 );
#123 = FACE_OUTER_BOUND( '', #191, .T. );
#124 = CYLINDRICAL_SURFACE( '', #192, 100.000000000000 );
#125 = CURVE_STYLE( '', #193, POSITIVE_LENGTH_MEASURE( 1.00000000000000E-006 ), #194 );
#126 = CIRCLE( '', #195, 100.000000000000 );
#127 = CURVE_STYLE( '', #196, POSITIVE_LENGTH_MEASURE( 1.00000000000000E-006 ), #197 );
#128 = CIRCLE( '', #198, 100.000000000000 );
#129 = POINT_STYLE( ' ', #199, POSITIVE_LENGTH_MEASURE( 1.00000000000000E-006 ), #200 );
#130 = CARTESIAN_POINT( '', ( 5000.00000000000, 0.000000000000000, -81.8000000000000 ) );
#131 = CURVE_STYLE( '', #201, POSITIVE_LENGTH_MEASURE( 1.00000000000000E-006 ), #202 );
#132 = LINE( '', #203, #204 );
#133 = CURVE_STYLE( '', #205, POSITIVE_LENGTH_MEASURE( 1.00000000000000E-006 ), #206 );
#134 = CIRCLE( '', #207, 81.8000000000000 );
#135 = SURFACE_STYLE_USAGE( .BOTH., #208 );
#136 = FACE_OUTER_BOUND( '', #209, .T. );
#137 = CYLINDRICAL_SURFACE( '', #210, 100.000000000000 );
#138 = SURFACE_STYLE_USAGE( .BOTH., #211 );
#139 = FACE_OUTER_BOUND( '', #212, .T. );
#140 = CYLINDRICAL_SURFACE( '', #213, 81.8000000000000 );
#141 = CURVE_STYLE( '', #214, POSITIVE_LENGTH_MEASURE( 1.00000000000000E-006 ), #215 );
#142 = CIRCLE( '', #216, 100.000000000000 );
#143 = SURFACE_STYLE_USAGE( .BOTH., #217 );
#144 = FACE_OUTER_BOUND( '', #218, .T. );
#145 = CYLINDRICAL_SURFACE( '', #219, 81.8000000000000 );
#146 = CURVE_STYLE( '', #220, POSITIVE_LENGTH_MEASURE( 1.00000000000000E-006 ), #221 );
#147 = LINE( '', #222, #223 );
#148 = CURVE_STYLE( '', #224, POSITIVE_LENGTH_MEASURE( 1.00000000000000E-006 ), #225 );
#149 = CIRCLE( '', #226, 81.8000000000000 );
#150 = CURVE_STYLE( '', #227, POSITIVE_LENGTH_MEASURE( 1.00000000000000E-006 ), #228 );
#151 = CIRCLE( '', #229, 81.8000000000000 );
#152 = POINT_STYLE( ' ', #230, POSITIVE_LENGTH_MEASURE( 1.00000000000000E-006 ), #231 );
#153 = CARTESIAN_POINT( '', ( 5000.00000000000, 1.00172799742670E-014, 81.8000000000000 ) );
#154 = SURFACE_STYLE_USAGE( .BOTH., #232 );
#155 = FACE_OUTER_BOUND( '', #233, .T. );
#156 = FACE_BOUND( '', #234, .T. );
#157 = PLANE( '', #235 );
#158 = POINT_STYLE( ' ', #236, POSITIVE_LENGTH_MEASURE( 1.00000000000000E-006 ), #237 );
#159 = CARTESIAN_POINT( '', ( 5000.00000000000, 1.22460635382238E-014, 100.000000000000 ) );
#160 = CURVE_STYLE( '', #238, POSITIVE_LENGTH_MEASURE( 1.00000000000000E-006 ), #239 );
#161 = LINE( '', #240, #241 );
#162 = CURVE_STYLE( '', #242, POSITIVE_LENGTH_MEASURE( 1.00000000000000E-006 ), #243 );
#163 = CIRCLE( '', #244, 100.000000000000 );
#164 = CURVE_STYLE( '', #245, POSITIVE_LENGTH_MEASURE( 1.00000000000000E-006 ), #246 );
#165 = LINE( '', #247, #248 );
#166 = POINT_STYLE( ' ', #249, POSITIVE_LENGTH_MEASURE( 1.00000000000000E-006 ), #250 );
#167 = CARTESIAN_POINT( '', ( 5000.00000000000, 0.000000000000000, -100.000000000000 ) );
#168 = POINT_STYLE( ' ', #251, POSITIVE_LENGTH_MEASURE( 1.00000000000000E-006 ), #252 );
#169 = CARTESIAN_POINT( '', ( 0.000000000000000, 0.000000000000000, -100.000000000000 ) );
#170 = POINT_STYLE( ' ', #253, POSITIVE_LENGTH_MEASURE( 1.00000000000000E-006 ), #254 );
#171 = CARTESIAN_POINT( '', ( 0.000000000000000, 1.22460635382238E-014, 100.000000000000 ) );
#172 = SURFACE_STYLE_USAGE( .BOTH., #255 );
#173 = FACE_OUTER_BOUND( '', #256, .T. );
#174 = FACE_BOUND( '', #257, .T. );
#175 = PLANE( '', #258 );
#176 = CURVE_STYLE( '', #259, POSITIVE_LENGTH_MEASURE( 1.00000000000000E-006 ), #260 );
#177 = CIRCLE( '', #261, 81.8000000000000 );
#178 = SURFACE_STYLE_USAGE( .BOTH., #262 );
#179 = CLOSED_SHELL( '', ( #53, #71, #67, #65, #81, #97 ) );
#180 = POINT_STYLE( ' ', #263, POSITIVE_LENGTH_MEASURE( 1.00000000000000E-006 ), #264 );
#181 = CARTESIAN_POINT( '', ( 0.000000000000000, 1.00172799742670E-014, 81.8000000000000 ) );
#182 = PRODUCT_CONTEXT( '', #37, 'mechanical' );
#183 = PRODUCT_DEFINITION_FORMATION_WITH_SPECIFIED_SOURCE( ' ', 'NONE', #104, .NOT_KNOWN. );
#184 = CARTESIAN_POINT( '', ( 0.000000000000000, 0.000000000000000, 0.000000000000000 ) );
#185 = DIRECTION( '', ( 0.000000000000000, 0.000000000000000, 1.00000000000000 ) );
#186 = DIRECTION( '', ( 1.00000000000000, 0.000000000000000, 0.000000000000000 ) );
#187 =  ( NAMED_UNIT( #112 )LENGTH_UNIT(  )SI_UNIT( .MILLI., .METRE. ) );
#188 = PRE_DEFINED_MARKER( '' );
#189 = COLOUR_RGB( '', 0.689999997615810, 0.689999997615810, 0.689999997615810 );
#190 = SURFACE_SIDE_STYLE( '', ( #266 ) );
#191 = EDGE_LOOP( '', ( #267, #268, #269, #270 ) );
#192 = AXIS2_PLACEMENT_3D( '', #271, #272, #273 );
#193 = DRAUGHTING_PRE_DEFINED_CURVE_FONT( 'continuous' );
#194 = COLOUR_RGB( '', 0.689999997615810, 0.689999997615810, 0.689999997615810 );
#195 = AXIS2_PLACEMENT_3D( '', #274, #275, #276 );
#196 = DRAUGHTING_PRE_DEFINED_CURVE_FONT( 'continuous' );
#197 = COLOUR_RGB( '', 0.689999997615810, 0.689999997615810, 0.689999997615810 );
#198 = AXIS2_PLACEMENT_3D( '', #277, #278, #279 );
#199 = PRE_DEFINED_MARKER( '' );
#200 = COLOUR_RGB( '', 0.689999997615810, 0.689999997615810, 0.689999997615810 );
#201 = DRAUGHTING_PRE_DEFINED_CURVE_FONT( 'continuous' );
#202 = COLOUR_RGB( '', 0.689999997615810, 0.689999997615810, 0.689999997615810 );
#203 = CARTESIAN_POINT( '', ( 0.000000000000000, -1.22460635382238E-014, -100.000000000000 ) );
#204 = VECTOR( '', #280, 1.00000000000000 );
#205 = DRAUGHTING_PRE_DEFINED_CURVE_FONT( 'continuous' );
#206 = COLOUR_RGB( '', 0.689999997615810, 0.689999997615810, 0.689999997615810 );
#207 = AXIS2_PLACEMENT_3D( '', #281, #282, #283 );
#208 = SURFACE_SIDE_STYLE( '', ( #284 ) );
#209 = EDGE_LOOP( '', ( #285, #286, #287, #288 ) );
#210 = AXIS2_PLACEMENT_3D( '', #289, #290, #291 );
#211 = SURFACE_SIDE_STYLE( '', ( #292 ) );
#212 = EDGE_LOOP( '', ( #293, #294, #295, #296 ) );
#213 = AXIS2_PLACEMENT_3D( '', #297, #298, #299 );
#214 = DRAUGHTING_PRE_DEFINED_CURVE_FONT( 'continuous' );
#215 = COLOUR_RGB( '', 0.689999997615810, 0.689999997615810, 0.689999997615810 );
#216 = AXIS2_PLACEMENT_3D( '', #300, #301, #302 );
#217 = SURFACE_SIDE_STYLE( '', ( #303 ) );
#218 = EDGE_LOOP( '', ( #304, #305, #306, #307 ) );
#219 = AXIS2_PLACEMENT_3D( '', #308, #309, #310 );
#220 = DRAUGHTING_PRE_DEFINED_CURVE_FONT( 'continuous' );
#221 = COLOUR_RGB( '', 0.689999997615810, 0.689999997615810, 0.689999997615810 );
#222 = CARTESIAN_POINT( '', ( 0.000000000000000, 1.22460635382238E-014, 100.000000000000 ) );
#223 = VECTOR( '', #311, 1.00000000000000 );
#224 = DRAUGHTING_PRE_DEFINED_CURVE_FONT( 'continuous' );
#225 = COLOUR_RGB( '', 0.689999997615810, 0.689999997615810, 0.689999997615810 );
#226 = AXIS2_PLACEMENT_3D( '', #312, #313, #314 );
#227 = DRAUGHTING_PRE_DEFINED_CURVE_FONT( 'continuous' );
#228 = COLOUR_RGB( '', 0.689999997615810, 0.689999997615810, 0.689999997615810 );
#229 = AXIS2_PLACEMENT_3D( '', #315, #316, #317 );
#230 = PRE_DEFINED_MARKER( '' );
#231 = COLOUR_RGB( '', 0.689999997615810, 0.689999997615810, 0.689999997615810 );
#232 = SURFACE_SIDE_STYLE( '', ( #318 ) );
#233 = EDGE_LOOP( '', ( #319, #320 ) );
#234 = EDGE_LOOP( '', ( #321, #322 ) );
#235 = AXIS2_PLACEMENT_3D( '', #323, #324, #325 );
#236 = PRE_DEFINED_MARKER( '' );
#237 = COLOUR_RGB( '', 0.689999997615810, 0.689999997615810, 0.689999997615810 );
#238 = DRAUGHTING_PRE_DEFINED_CURVE_FONT( 'continuous' );
#239 = COLOUR_RGB( '', 0.689999997615810, 0.689999997615810, 0.689999997615810 );
#240 = CARTESIAN_POINT( '', ( 0.000000000000000, 1.00172799742670E-014, 81.8000000000000 ) );
#241 = VECTOR( '', #326, 1.00000000000000 );
#242 = DRAUGHTING_PRE_DEFINED_CURVE_FONT( 'continuous' );
#243 = COLOUR_RGB( '', 0.689999997615810, 0.689999997615810, 0.689999997615810 );
#244 = AXIS2_PLACEMENT_3D( '', #327, #328, #329 );
#245 = DRAUGHTING_PRE_DEFINED_CURVE_FONT( 'continuous' );
#246 = COLOUR_RGB( '', 0.689999997615810, 0.689999997615810, 0.689999997615810 );
#247 = CARTESIAN_POINT( '', ( 0.000000000000000, -1.00172799742670E-014, -81.8000000000000 ) );
#248 = VECTOR( '', #330, 1.00000000000000 );
#249 = PRE_DEFINED_MARKER( '' );
#250 = COLOUR_RGB( '', 0.689999997615810, 0.689999997615810, 0.689999997615810 );
#251 = PRE_DEFINED_MARKER( '' );
#252 = COLOUR_RGB( '', 0.689999997615810, 0.689999997615810, 0.689999997615810 );
#253 = PRE_DEFINED_MARKER( '' );
#254 = COLOUR_RGB( '', 0.689999997615810, 0.689999997615810, 0.689999997615810 );
#255 = SURFACE_SIDE_STYLE( '', ( #331 ) );
#256 = EDGE_LOOP( '', ( #332, #333 ) );
#257 = EDGE_LOOP( '', ( #334, #335 ) );
#258 = AXIS2_PLACEMENT_3D( '', #336, #337, #338 );
#259 = DRAUGHTING_PRE_DEFINED_CURVE_FONT( 'continuous' );
#260 = COLOUR_RGB( '', 0.689999997615810, 0.689999997615810, 0.689999997615810 );
#261 = AXIS2_PLACEMENT_3D( '', #339, #340, #341 );
#262 = SURFACE_SIDE_STYLE( '', ( #342 ) );
#263 = PRE_DEFINED_MARKER( '' );
#264 = COLOUR_RGB( '', 0.689999997615810, 0.689999997615810, 0.689999997615810 );
#266 = SURFACE_STYLE_FILL_AREA( #343 );
#267 = ORIENTED_EDGE( '', *, *, #61, .F. );
#268 = ORIENTED_EDGE( '', *, *, #69, .T. );
#269 = ORIENTED_EDGE( '', *, *, #73, .F. );
#270 = ORIENTED_EDGE( '', *, *, #87, .T. );
#271 = CARTESIAN_POINT( '', ( 0.000000000000000, 0.000000000000000, 0.000000000000000 ) );
#272 = DIRECTION( '', ( -1.00000000000000, -0.000000000000000, -0.000000000000000 ) );
#273 = DIRECTION( '', ( 0.000000000000000, 0.000000000000000, -1.00000000000000 ) );
#274 = CARTESIAN_POINT( '', ( 5000.00000000000, 0.000000000000000, 0.000000000000000 ) );
#275 = DIRECTION( '', ( -1.00000000000000, 0.000000000000000, 0.000000000000000 ) );
#276 = DIRECTION( '', ( 0.000000000000000, 0.000000000000000, -1.00000000000000 ) );
#277 = CARTESIAN_POINT( '', ( 0.000000000000000, 0.000000000000000, 0.000000000000000 ) );
#278 = DIRECTION( '', ( 1.00000000000000, -0.000000000000000, 0.000000000000000 ) );
#279 = DIRECTION( '', ( 0.000000000000000, 0.000000000000000, -1.00000000000000 ) );
#280 = DIRECTION( '', ( 1.00000000000000, 0.000000000000000, 0.000000000000000 ) );
#281 = CARTESIAN_POINT( '', ( 0.000000000000000, 0.000000000000000, 0.000000000000000 ) );
#282 = DIRECTION( '', ( 1.00000000000000, -0.000000000000000, 0.000000000000000 ) );
#283 = DIRECTION( '', ( 0.000000000000000, 0.000000000000000, -1.00000000000000 ) );
#284 = SURFACE_STYLE_FILL_AREA( #344 );
#285 = ORIENTED_EDGE( '', *, *, #61, .T. );
#286 = ORIENTED_EDGE( '', *, *, #55, .T. );
#287 = ORIENTED_EDGE( '', *, *, #73, .T. );
#288 = ORIENTED_EDGE( '', *, *, #57, .T. );
#289 = CARTESIAN_POINT( '', ( 0.000000000000000, 0.000000000000000, 0.000000000000000 ) );
#290 = DIRECTION( '', ( -1.00000000000000, -0.000000000000000, -0.000000000000000 ) );
#291 = DIRECTION( '', ( 0.000000000000000, 0.000000000000000, -1.00000000000000 ) );
#292 = SURFACE_STYLE_FILL_AREA( #345 );
#293 = ORIENTED_EDGE( '', *, *, #89, .T. );
#294 = ORIENTED_EDGE( '', *, *, #75, .T. );
#295 = ORIENTED_EDGE( '', *, *, #85, .T. );
#296 = ORIENTED_EDGE( '', *, *, #77, .F. );
#297 = CARTESIAN_POINT( '', ( 0.000000000000000, 0.000000000000000, 0.000000000000000 ) );
#298 = DIRECTION( '', ( -1.00000000000000, -0.000000000000000, -0.000000000000000 ) );
#299 = DIRECTION( '', ( 0.000000000000000, 0.000000000000000, -1.00000000000000 ) );
#300 = CARTESIAN_POINT( '', ( 0.000000000000000, 0.000000000000000, 0.000000000000000 ) );
#301 = DIRECTION( '', ( 1.00000000000000, -0.000000000000000, 0.000000000000000 ) );
#302 = DIRECTION( '', ( 0.000000000000000, 0.000000000000000, -1.00000000000000 ) );
#303 = SURFACE_STYLE_FILL_AREA( #346 );
#304 = ORIENTED_EDGE( '', *, *, #89, .F. );
#305 = ORIENTED_EDGE( '', *, *, #63, .F. );
#306 = ORIENTED_EDGE( '', *, *, #85, .F. );
#307 = ORIENTED_EDGE( '', *, *, #99, .T. );
#308 = CARTESIAN_POINT( '', ( 0.000000000000000, 0.000000000000000, 0.000000000000000 ) );
#309 = DIRECTION( '', ( -1.00000000000000, -0.000000000000000, -0.000000000000000 ) );
#310 = DIRECTION( '', ( 0.000000000000000, 0.000000000000000, -1.00000000000000 ) );
#311 = DIRECTION( '', ( -1.00000000000000, -0.000000000000000, -0.000000000000000 ) );
#312 = CARTESIAN_POINT( '', ( 5000.00000000000, 0.000000000000000, 0.000000000000000 ) );
#313 = DIRECTION( '', ( 1.00000000000000, 0.000000000000000, 0.000000000000000 ) );
#314 = DIRECTION( '', ( 0.000000000000000, 0.000000000000000, -1.00000000000000 ) );
#315 = CARTESIAN_POINT( '', ( 0.000000000000000, 0.000000000000000, 0.000000000000000 ) );
#316 = DIRECTION( '', ( 1.00000000000000, -0.000000000000000, 0.000000000000000 ) );
#317 = DIRECTION( '', ( 0.000000000000000, 0.000000000000000, -1.00000000000000 ) );
#318 = SURFACE_STYLE_FILL_AREA( #347 );
#319 = ORIENTED_EDGE( '', *, *, #55, .F. );
#320 = ORIENTED_EDGE( '', *, *, #87, .F. );
#321 = ORIENTED_EDGE( '', *, *, #75, .F. );
#322 = ORIENTED_EDGE( '', *, *, #99, .F. );
#323 = CARTESIAN_POINT( '', ( 5000.00000000000, 0.000000000000000, 0.000000000000000 ) );
#324 = DIRECTION( '', ( 1.00000000000000, 0.000000000000000, 0.000000000000000 ) );
#325 = DIRECTION( '', ( 0.000000000000000, 0.000000000000000, -1.00000000000000 ) );
#326 = DIRECTION( '', ( -1.00000000000000, 0.000000000000000, 0.000000000000000 ) );
#327 = CARTESIAN_POINT( '', ( 5000.00000000000, 0.000000000000000, 0.000000000000000 ) );
#328 = DIRECTION( '', ( -1.00000000000000, 0.000000000000000, 0.000000000000000 ) );
#329 = DIRECTION( '', ( 0.000000000000000, 0.000000000000000, -1.00000000000000 ) );
#330 = DIRECTION( '', ( 1.00000000000000, 0.000000000000000, 0.000000000000000 ) );
#331 = SURFACE_STYLE_FILL_AREA( #348 );
#332 = ORIENTED_EDGE( '', *, *, #69, .F. );
#333 = ORIENTED_EDGE( '', *, *, #57, .F. );
#334 = ORIENTED_EDGE( '', *, *, #77, .T. );
#335 = ORIENTED_EDGE( '', *, *, #63, .T. );
#336 = CARTESIAN_POINT( '', ( 0.000000000000000, 0.000000000000000, 0.000000000000000 ) );
#337 = DIRECTION( '', ( 1.00000000000000, 0.000000000000000, 0.000000000000000 ) );
#338 = DIRECTION( '', ( 0.000000000000000, 0.000000000000000, -1.00000000000000 ) );
#339 = CARTESIAN_POINT( '', ( 5000.00000000000, 0.000000000000000, 0.000000000000000 ) );
#340 = DIRECTION( '', ( 1.00000000000000, 0.000000000000000, 0.000000000000000 ) );
#341 = DIRECTION( '', ( 0.000000000000000, 0.000000000000000, -1.00000000000000 ) );
#342 = SURFACE_STYLE_FILL_AREA( #349 );
#343 = FILL_AREA_STYLE( '', ( #350 ) );
#344 = FILL_AREA_STYLE( '', ( #351 ) );
#345 = FILL_AREA_STYLE( '', ( #352 ) );
#346 = FILL_AREA_STYLE( '', ( #353 ) );
#347 = FILL_AREA_STYLE( '', ( #354 ) );
#348 = FILL_AREA_STYLE( '', ( #355 ) );
#349 = FILL_AREA_STYLE( '', ( #356 ) );
#350 = FILL_AREA_STYLE_COLOUR( '', #357 );
#351 = FILL_AREA_STYLE_COLOUR( '', #358 );
#352 = FILL_AREA_STYLE_COLOUR( '', #359 );
#353 = FILL_AREA_STYLE_COLOUR( '', #360 );
#354 = FILL_AREA_STYLE_COLOUR( '', #361 );
#355 = FILL_AREA_STYLE_COLOUR( '', #362 );
#356 = FILL_AREA_STYLE_COLOUR( '', #363 );
#357 = COLOUR_RGB( '', 0.689999997615810, 0.689999997615810, 0.689999997615810 );
#358 = COLOUR_RGB( '', 0.689999997615810, 0.689999997615810, 0.689999997615810 );
#359 = COLOUR_RGB( '', 0.689999997615810, 0.689999997615810, 0.689999997615810 );
#360 = COLOUR_RGB( '', 0.689999997615810, 0.689999997615810, 0.689999997615810 );
#361 = COLOUR_RGB( '', 0.689999997615810, 0.689999997615810, 0.689999997615810 );
#362 = COLOUR_RGB( '', 0.689999997615810, 0.689999997615810, 0.689999997615810 );
#363 = COLOUR_RGB( '', 0.689999997615810, 0.689999997615810, 0.689999997615810 );
ENDSEC;
END-ISO-10303-21;
