ISO-10303-21;
HEADER;
/* Generated by software containing ST-Developer
 * from STEP Tools, Inc. (www.steptools.com) 
 */

FILE_DESCRIPTION(
/* description */ (''),
/* implementation_level */ '2;1');

FILE_NAME(
/* name */ 
'Q:\\Ric010\\FF7\\FIPlastiCAD\\FIP\\Lavoro\\PVC Fittings\\PVC Fittings
 STEP\\DIFV\\DIFV040032100.ipt.stp',
/* time_stamp */ '2013-10-01T14:36:50+02:00',
/* author */ ('bfaro'),
/* organization */ (''),
/* preprocessor_version */ 'ST-DEVELOPER v15.2',
/* originating_system */ 'Autodesk Inventor 2014',
/* authorisation */ '');

FILE_SCHEMA (('AUTOMOTIVE_DESIGN { 1 0 10303 214 3 1 1 }'));
ENDSEC;

DATA;
#10=SHAPE_REPRESENTATION_RELATIONSHIP('SRR','None',#584,#11);
#11=ADVANCED_BREP_SHAPE_REPRESENTATION($,(#335),#575);
#12=STYLED_ITEM($,(#593),#330);
#13=STYLED_ITEM($,(#592),#335);
#14=CONICAL_SURFACE($,#364,23.7,75.);
#15=CYLINDRICAL_SURFACE($,#350,17.1);
#16=CYLINDRICAL_SURFACE($,#358,20.);
#17=CYLINDRICAL_SURFACE($,#362,26.);
#18=CYLINDRICAL_SURFACE($,#365,21.4);
#19=CYLINDRICAL_SURFACE($,#368,15.1455);
#20=CYLINDRICAL_SURFACE($,#369,14.75);
#21=CYLINDRICAL_SURFACE($,#373,16.);
#22=FACE_BOUND($,#78,.T.);
#23=FACE_BOUND($,#79,.T.);
#24=FACE_BOUND($,#81,.T.);
#25=FACE_BOUND($,#87,.T.);
#26=FACE_BOUND($,#88,.T.);
#27=FACE_BOUND($,#89,.T.);
#28=FACE_BOUND($,#91,.T.);
#29=FACE_BOUND($,#93,.T.);
#30=FACE_BOUND($,#95,.T.);
#31=FACE_BOUND($,#97,.T.);
#32=FACE_BOUND($,#99,.T.);
#33=FACE_BOUND($,#101,.T.);
#34=FACE_BOUND($,#102,.T.);
#35=FACE_BOUND($,#103,.T.);
#36=FACE_BOUND($,#105,.T.);
#37=FACE_BOUND($,#107,.T.);
#38=FACE_BOUND($,#109,.T.);
#39=FACE_BOUND($,#111,.T.);
#40=CIRCLE($,#342,14.75);
#41=CIRCLE($,#343,15.1455);
#42=CIRCLE($,#345,21.4);
#43=CIRCLE($,#351,17.1);
#44=CIRCLE($,#352,17.1);
#45=CIRCLE($,#354,15.1455);
#46=CIRCLE($,#356,20.);
#47=CIRCLE($,#357,16.);
#48=CIRCLE($,#359,20.);
#49=CIRCLE($,#361,26.);
#50=CIRCLE($,#363,26.);
#51=CIRCLE($,#366,21.4);
#52=CIRCLE($,#370,14.75);
#53=CIRCLE($,#372,16.);
#54=FACE_OUTER_BOUND($,#74,.T.);
#55=FACE_OUTER_BOUND($,#75,.T.);
#56=FACE_OUTER_BOUND($,#76,.T.);
#57=FACE_OUTER_BOUND($,#77,.T.);
#58=FACE_OUTER_BOUND($,#80,.T.);
#59=FACE_OUTER_BOUND($,#82,.T.);
#60=FACE_OUTER_BOUND($,#83,.T.);
#61=FACE_OUTER_BOUND($,#84,.T.);
#62=FACE_OUTER_BOUND($,#85,.T.);
#63=FACE_OUTER_BOUND($,#86,.T.);
#64=FACE_OUTER_BOUND($,#90,.T.);
#65=FACE_OUTER_BOUND($,#92,.T.);
#66=FACE_OUTER_BOUND($,#94,.T.);
#67=FACE_OUTER_BOUND($,#96,.T.);
#68=FACE_OUTER_BOUND($,#98,.T.);
#69=FACE_OUTER_BOUND($,#100,.T.);
#70=FACE_OUTER_BOUND($,#104,.T.);
#71=FACE_OUTER_BOUND($,#106,.T.);
#72=FACE_OUTER_BOUND($,#108,.T.);
#73=FACE_OUTER_BOUND($,#110,.T.);
#74=EDGE_LOOP($,(#220,#221,#222,#223));
#75=EDGE_LOOP($,(#224,#225,#226,#227));
#76=EDGE_LOOP($,(#228,#229,#230,#231));
#77=EDGE_LOOP($,(#232,#233,#234,#235));
#78=EDGE_LOOP($,(#236));
#79=EDGE_LOOP($,(#237));
#80=EDGE_LOOP($,(#238,#239,#240,#241,#242,#243,#244,#245));
#81=EDGE_LOOP($,(#246));
#82=EDGE_LOOP($,(#247,#248,#249,#250));
#83=EDGE_LOOP($,(#251,#252,#253,#254));
#84=EDGE_LOOP($,(#255,#256,#257,#258));
#85=EDGE_LOOP($,(#259,#260,#261,#262));
#86=EDGE_LOOP($,(#263));
#87=EDGE_LOOP($,(#264));
#88=EDGE_LOOP($,(#265));
#89=EDGE_LOOP($,(#266));
#90=EDGE_LOOP($,(#267));
#91=EDGE_LOOP($,(#268));
#92=EDGE_LOOP($,(#269));
#93=EDGE_LOOP($,(#270));
#94=EDGE_LOOP($,(#271));
#95=EDGE_LOOP($,(#272));
#96=EDGE_LOOP($,(#273));
#97=EDGE_LOOP($,(#274));
#98=EDGE_LOOP($,(#275,#276,#277,#278,#279,#280,#281,#282));
#99=EDGE_LOOP($,(#283));
#100=EDGE_LOOP($,(#284));
#101=EDGE_LOOP($,(#285));
#102=EDGE_LOOP($,(#286));
#103=EDGE_LOOP($,(#287));
#104=EDGE_LOOP($,(#288));
#105=EDGE_LOOP($,(#289));
#106=EDGE_LOOP($,(#290));
#107=EDGE_LOOP($,(#291));
#108=EDGE_LOOP($,(#292));
#109=EDGE_LOOP($,(#293));
#110=EDGE_LOOP($,(#294));
#111=EDGE_LOOP($,(#295));
#112=LINE($,#474,#128);
#113=LINE($,#476,#129);
#114=LINE($,#477,#130);
#115=LINE($,#484,#131);
#116=LINE($,#485,#132);
#117=LINE($,#492,#133);
#118=LINE($,#493,#134);
#119=LINE($,#500,#135);
#120=LINE($,#501,#136);
#121=LINE($,#509,#137);
#122=LINE($,#511,#138);
#123=LINE($,#513,#139);
#124=LINE($,#514,#140);
#125=LINE($,#522,#141);
#126=LINE($,#528,#142);
#127=LINE($,#534,#143);
#128=VECTOR($,#378,7.90646183314002);
#129=VECTOR($,#379,18.2253967444162);
#130=VECTOR($,#380,7.90646183314002);
#131=VECTOR($,#383,7.90646183314002);
#132=VECTOR($,#384,18.2253967444162);
#133=VECTOR($,#387,7.90646183314002);
#134=VECTOR($,#388,18.2253967444162);
#135=VECTOR($,#391,7.90646183314002);
#136=VECTOR($,#392,18.2253967444162);
#137=VECTOR($,#401,18.2253967444162);
#138=VECTOR($,#402,18.2253967444162);
#139=VECTOR($,#403,18.2253967444162);
#140=VECTOR($,#404,18.2253967444162);
#141=VECTOR($,#409,7.90646183314002);
#142=VECTOR($,#412,7.90646183314002);
#143=VECTOR($,#415,7.90646183314002);
#144=(
BOUNDED_CURVE()
B_SPLINE_CURVE(2,(#470,#471,#472),.UNSPECIFIED.,.F.,.F.)
B_SPLINE_CURVE_WITH_KNOTS((3,3),(0.235429133105825,2.10569904461038),
 .UNSPECIFIED.)
CURVE()
GEOMETRIC_REPRESENTATION_ITEM()
RATIONAL_B_SPLINE_CURVE((1.02391260643165,1.10827501898265,1.02391260643165))
REPRESENTATION_ITEM($)
);
#145=(
BOUNDED_CURVE()
B_SPLINE_CURVE(2,(#480,#481,#482),.UNSPECIFIED.,.F.,.F.)
B_SPLINE_CURVE_WITH_KNOTS((3,3),(0.235429133105824,2.10569904461038),
 .UNSPECIFIED.)
CURVE()
GEOMETRIC_REPRESENTATION_ITEM()
RATIONAL_B_SPLINE_CURVE((1.02391260643165,1.10827501898266,1.02391260643165))
REPRESENTATION_ITEM($)
);
#146=(
BOUNDED_CURVE()
B_SPLINE_CURVE(2,(#488,#489,#490),.UNSPECIFIED.,.F.,.F.)
B_SPLINE_CURVE_WITH_KNOTS((3,3),(0.235429133105826,2.10569904461038),
 .UNSPECIFIED.)
CURVE()
GEOMETRIC_REPRESENTATION_ITEM()
RATIONAL_B_SPLINE_CURVE((1.02391260643165,1.10827501898265,1.02391260643165))
REPRESENTATION_ITEM($)
);
#147=(
BOUNDED_CURVE()
B_SPLINE_CURVE(2,(#496,#497,#498),.UNSPECIFIED.,.F.,.F.)
B_SPLINE_CURVE_WITH_KNOTS((3,3),(0.235429133105824,2.10569904461038),
 .UNSPECIFIED.)
CURVE()
GEOMETRIC_REPRESENTATION_ITEM()
RATIONAL_B_SPLINE_CURVE((1.02391260643165,1.10827501898266,1.02391260643165))
REPRESENTATION_ITEM($)
);
#148=(
BOUNDED_CURVE()
B_SPLINE_CURVE(2,(#519,#520,#521),.UNSPECIFIED.,.F.,.F.)
B_SPLINE_CURVE_WITH_KNOTS((3,3),(0.235429133105826,2.10569904461038),
 .UNSPECIFIED.)
CURVE()
GEOMETRIC_REPRESENTATION_ITEM()
RATIONAL_B_SPLINE_CURVE((1.02391260643165,1.10827501898265,1.02391260643165))
REPRESENTATION_ITEM($)
);
#149=(
BOUNDED_CURVE()
B_SPLINE_CURVE(2,(#525,#526,#527),.UNSPECIFIED.,.F.,.F.)
B_SPLINE_CURVE_WITH_KNOTS((3,3),(0.235429133105823,2.10569904461038),
 .UNSPECIFIED.)
CURVE()
GEOMETRIC_REPRESENTATION_ITEM()
RATIONAL_B_SPLINE_CURVE((1.02391260643165,1.10827501898266,1.02391260643165))
REPRESENTATION_ITEM($)
);
#150=(
BOUNDED_CURVE()
B_SPLINE_CURVE(2,(#531,#532,#533),.UNSPECIFIED.,.F.,.F.)
B_SPLINE_CURVE_WITH_KNOTS((3,3),(0.235429133105823,2.10569904461038),
 .UNSPECIFIED.)
CURVE()
GEOMETRIC_REPRESENTATION_ITEM()
RATIONAL_B_SPLINE_CURVE((1.02391260643165,1.10827501898266,1.02391260643165))
REPRESENTATION_ITEM($)
);
#151=(
BOUNDED_CURVE()
B_SPLINE_CURVE(2,(#536,#537,#538),.UNSPECIFIED.,.F.,.F.)
B_SPLINE_CURVE_WITH_KNOTS((3,3),(0.235429133105824,2.10569904461038),
 .UNSPECIFIED.)
CURVE()
GEOMETRIC_REPRESENTATION_ITEM()
RATIONAL_B_SPLINE_CURVE((1.02391260643165,1.10827501898266,1.02391260643165))
REPRESENTATION_ITEM($)
);
#152=VERTEX_POINT($,#468);
#153=VERTEX_POINT($,#469);
#154=VERTEX_POINT($,#473);
#155=VERTEX_POINT($,#475);
#156=VERTEX_POINT($,#479);
#157=VERTEX_POINT($,#483);
#158=VERTEX_POINT($,#487);
#159=VERTEX_POINT($,#491);
#160=VERTEX_POINT($,#495);
#161=VERTEX_POINT($,#499);
#162=VERTEX_POINT($,#503);
#163=VERTEX_POINT($,#505);
#164=VERTEX_POINT($,#508);
#165=VERTEX_POINT($,#510);
#166=VERTEX_POINT($,#512);
#167=VERTEX_POINT($,#515);
#168=VERTEX_POINT($,#518);
#169=VERTEX_POINT($,#524);
#170=VERTEX_POINT($,#530);
#171=VERTEX_POINT($,#540);
#172=VERTEX_POINT($,#542);
#173=VERTEX_POINT($,#545);
#174=VERTEX_POINT($,#548);
#175=VERTEX_POINT($,#550);
#176=VERTEX_POINT($,#553);
#177=VERTEX_POINT($,#556);
#178=VERTEX_POINT($,#559);
#179=VERTEX_POINT($,#563);
#180=VERTEX_POINT($,#568);
#181=VERTEX_POINT($,#571);
#182=EDGE_CURVE($,#152,#153,#144,.T.);
#183=EDGE_CURVE($,#152,#154,#112,.T.);
#184=EDGE_CURVE($,#155,#154,#113,.T.);
#185=EDGE_CURVE($,#153,#155,#114,.T.);
#186=EDGE_CURVE($,#156,#152,#145,.T.);
#187=EDGE_CURVE($,#156,#157,#115,.T.);
#188=EDGE_CURVE($,#154,#157,#116,.T.);
#189=EDGE_CURVE($,#158,#156,#146,.T.);
#190=EDGE_CURVE($,#158,#159,#117,.T.);
#191=EDGE_CURVE($,#157,#159,#118,.T.);
#192=EDGE_CURVE($,#160,#158,#147,.T.);
#193=EDGE_CURVE($,#160,#161,#119,.T.);
#194=EDGE_CURVE($,#159,#161,#120,.T.);
#195=EDGE_CURVE($,#162,#162,#40,.T.);
#196=EDGE_CURVE($,#163,#163,#41,.T.);
#197=EDGE_CURVE($,#161,#164,#121,.T.);
#198=EDGE_CURVE($,#164,#165,#122,.T.);
#199=EDGE_CURVE($,#165,#166,#123,.T.);
#200=EDGE_CURVE($,#166,#155,#124,.T.);
#201=EDGE_CURVE($,#167,#167,#42,.T.);
#202=EDGE_CURVE($,#153,#168,#148,.T.);
#203=EDGE_CURVE($,#168,#166,#125,.T.);
#204=EDGE_CURVE($,#168,#169,#149,.T.);
#205=EDGE_CURVE($,#169,#165,#126,.T.);
#206=EDGE_CURVE($,#169,#170,#150,.T.);
#207=EDGE_CURVE($,#170,#164,#127,.T.);
#208=EDGE_CURVE($,#170,#160,#151,.T.);
#209=EDGE_CURVE($,#171,#171,#43,.T.);
#210=EDGE_CURVE($,#172,#172,#44,.T.);
#211=EDGE_CURVE($,#173,#173,#45,.T.);
#212=EDGE_CURVE($,#174,#174,#46,.T.);
#213=EDGE_CURVE($,#175,#175,#47,.T.);
#214=EDGE_CURVE($,#176,#176,#48,.T.);
#215=EDGE_CURVE($,#177,#177,#49,.T.);
#216=EDGE_CURVE($,#178,#178,#50,.T.);
#217=EDGE_CURVE($,#179,#179,#51,.T.);
#218=EDGE_CURVE($,#180,#180,#52,.T.);
#219=EDGE_CURVE($,#181,#181,#53,.T.);
#220=ORIENTED_EDGE($,*,*,#182,.F.);
#221=ORIENTED_EDGE($,*,*,#183,.T.);
#222=ORIENTED_EDGE($,*,*,#184,.F.);
#223=ORIENTED_EDGE($,*,*,#185,.F.);
#224=ORIENTED_EDGE($,*,*,#186,.F.);
#225=ORIENTED_EDGE($,*,*,#187,.T.);
#226=ORIENTED_EDGE($,*,*,#188,.F.);
#227=ORIENTED_EDGE($,*,*,#183,.F.);
#228=ORIENTED_EDGE($,*,*,#189,.F.);
#229=ORIENTED_EDGE($,*,*,#190,.T.);
#230=ORIENTED_EDGE($,*,*,#191,.F.);
#231=ORIENTED_EDGE($,*,*,#187,.F.);
#232=ORIENTED_EDGE($,*,*,#192,.F.);
#233=ORIENTED_EDGE($,*,*,#193,.T.);
#234=ORIENTED_EDGE($,*,*,#194,.F.);
#235=ORIENTED_EDGE($,*,*,#190,.F.);
#236=ORIENTED_EDGE($,*,*,#195,.T.);
#237=ORIENTED_EDGE($,*,*,#196,.F.);
#238=ORIENTED_EDGE($,*,*,#197,.T.);
#239=ORIENTED_EDGE($,*,*,#198,.T.);
#240=ORIENTED_EDGE($,*,*,#199,.T.);
#241=ORIENTED_EDGE($,*,*,#200,.T.);
#242=ORIENTED_EDGE($,*,*,#184,.T.);
#243=ORIENTED_EDGE($,*,*,#188,.T.);
#244=ORIENTED_EDGE($,*,*,#191,.T.);
#245=ORIENTED_EDGE($,*,*,#194,.T.);
#246=ORIENTED_EDGE($,*,*,#201,.F.);
#247=ORIENTED_EDGE($,*,*,#202,.F.);
#248=ORIENTED_EDGE($,*,*,#185,.T.);
#249=ORIENTED_EDGE($,*,*,#200,.F.);
#250=ORIENTED_EDGE($,*,*,#203,.F.);
#251=ORIENTED_EDGE($,*,*,#204,.F.);
#252=ORIENTED_EDGE($,*,*,#203,.T.);
#253=ORIENTED_EDGE($,*,*,#199,.F.);
#254=ORIENTED_EDGE($,*,*,#205,.F.);
#255=ORIENTED_EDGE($,*,*,#206,.F.);
#256=ORIENTED_EDGE($,*,*,#205,.T.);
#257=ORIENTED_EDGE($,*,*,#198,.F.);
#258=ORIENTED_EDGE($,*,*,#207,.F.);
#259=ORIENTED_EDGE($,*,*,#208,.F.);
#260=ORIENTED_EDGE($,*,*,#207,.T.);
#261=ORIENTED_EDGE($,*,*,#197,.F.);
#262=ORIENTED_EDGE($,*,*,#193,.F.);
#263=ORIENTED_EDGE($,*,*,#209,.T.);
#264=ORIENTED_EDGE($,*,*,#210,.F.);
#265=ORIENTED_EDGE($,*,*,#211,.F.);
#266=ORIENTED_EDGE($,*,*,#209,.F.);
#267=ORIENTED_EDGE($,*,*,#212,.F.);
#268=ORIENTED_EDGE($,*,*,#213,.T.);
#269=ORIENTED_EDGE($,*,*,#214,.F.);
#270=ORIENTED_EDGE($,*,*,#212,.T.);
#271=ORIENTED_EDGE($,*,*,#215,.F.);
#272=ORIENTED_EDGE($,*,*,#214,.T.);
#273=ORIENTED_EDGE($,*,*,#216,.F.);
#274=ORIENTED_EDGE($,*,*,#215,.T.);
#275=ORIENTED_EDGE($,*,*,#192,.T.);
#276=ORIENTED_EDGE($,*,*,#189,.T.);
#277=ORIENTED_EDGE($,*,*,#186,.T.);
#278=ORIENTED_EDGE($,*,*,#182,.T.);
#279=ORIENTED_EDGE($,*,*,#202,.T.);
#280=ORIENTED_EDGE($,*,*,#204,.T.);
#281=ORIENTED_EDGE($,*,*,#206,.T.);
#282=ORIENTED_EDGE($,*,*,#208,.T.);
#283=ORIENTED_EDGE($,*,*,#216,.T.);
#284=ORIENTED_EDGE($,*,*,#201,.T.);
#285=ORIENTED_EDGE($,*,*,#217,.F.);
#286=ORIENTED_EDGE($,*,*,#210,.T.);
#287=ORIENTED_EDGE($,*,*,#217,.T.);
#288=ORIENTED_EDGE($,*,*,#196,.T.);
#289=ORIENTED_EDGE($,*,*,#211,.T.);
#290=ORIENTED_EDGE($,*,*,#195,.F.);
#291=ORIENTED_EDGE($,*,*,#218,.F.);
#292=ORIENTED_EDGE($,*,*,#219,.F.);
#293=ORIENTED_EDGE($,*,*,#218,.T.);
#294=ORIENTED_EDGE($,*,*,#213,.F.);
#295=ORIENTED_EDGE($,*,*,#219,.T.);
#296=PLANE($,#337);
#297=PLANE($,#338);
#298=PLANE($,#339);
#299=PLANE($,#340);
#300=PLANE($,#341);
#301=PLANE($,#344);
#302=PLANE($,#346);
#303=PLANE($,#347);
#304=PLANE($,#348);
#305=PLANE($,#349);
#306=PLANE($,#353);
#307=PLANE($,#355);
#308=PLANE($,#360);
#309=PLANE($,#367);
#310=PLANE($,#371);
#311=ADVANCED_FACE($,(#54),#296,.T.);
#312=ADVANCED_FACE($,(#55),#297,.T.);
#313=ADVANCED_FACE($,(#56),#298,.T.);
#314=ADVANCED_FACE($,(#57),#299,.T.);
#315=ADVANCED_FACE($,(#22,#23),#300,.T.);
#316=ADVANCED_FACE($,(#58,#24),#301,.T.);
#317=ADVANCED_FACE($,(#59),#302,.T.);
#318=ADVANCED_FACE($,(#60),#303,.T.);
#319=ADVANCED_FACE($,(#61),#304,.T.);
#320=ADVANCED_FACE($,(#62),#305,.T.);
#321=ADVANCED_FACE($,(#63,#25),#15,.F.);
#322=ADVANCED_FACE($,(#26,#27),#306,.T.);
#323=ADVANCED_FACE($,(#64,#28),#307,.T.);
#324=ADVANCED_FACE($,(#65,#29),#16,.T.);
#325=ADVANCED_FACE($,(#66,#30),#308,.T.);
#326=ADVANCED_FACE($,(#67,#31),#17,.T.);
#327=ADVANCED_FACE($,(#68,#32),#14,.T.);
#328=ADVANCED_FACE($,(#69,#33),#18,.T.);
#329=ADVANCED_FACE($,(#34,#35),#309,.T.);
#330=ADVANCED_FACE($,(#70,#36),#19,.F.);
#331=ADVANCED_FACE($,(#71,#37),#20,.F.);
#332=ADVANCED_FACE($,(#72,#38),#310,.T.);
#333=ADVANCED_FACE($,(#73,#39),#21,.F.);
#334=CLOSED_SHELL($,(#311,#312,#313,#314,#315,#316,#317,#318,#319,#320,
#321,#322,#323,#324,#325,#326,#327,#328,#329,#330,#331,#332,#333));
#335=MANIFOLD_SOLID_BREP('Solido1',#334);
#336=AXIS2_PLACEMENT_3D('placement',#466,#374,#375);
#337=AXIS2_PLACEMENT_3D($,#467,#376,#377);
#338=AXIS2_PLACEMENT_3D($,#478,#381,#382);
#339=AXIS2_PLACEMENT_3D($,#486,#385,#386);
#340=AXIS2_PLACEMENT_3D($,#494,#389,#390);
#341=AXIS2_PLACEMENT_3D($,#502,#393,#394);
#342=AXIS2_PLACEMENT_3D($,#504,#395,#396);
#343=AXIS2_PLACEMENT_3D($,#506,#397,#398);
#344=AXIS2_PLACEMENT_3D($,#507,#399,#400);
#345=AXIS2_PLACEMENT_3D($,#516,#405,#406);
#346=AXIS2_PLACEMENT_3D($,#517,#407,#408);
#347=AXIS2_PLACEMENT_3D($,#523,#410,#411);
#348=AXIS2_PLACEMENT_3D($,#529,#413,#414);
#349=AXIS2_PLACEMENT_3D($,#535,#416,#417);
#350=AXIS2_PLACEMENT_3D($,#539,#418,#419);
#351=AXIS2_PLACEMENT_3D($,#541,#420,#421);
#352=AXIS2_PLACEMENT_3D($,#543,#422,#423);
#353=AXIS2_PLACEMENT_3D($,#544,#424,#425);
#354=AXIS2_PLACEMENT_3D($,#546,#426,#427);
#355=AXIS2_PLACEMENT_3D($,#547,#428,#429);
#356=AXIS2_PLACEMENT_3D($,#549,#430,#431);
#357=AXIS2_PLACEMENT_3D($,#551,#432,#433);
#358=AXIS2_PLACEMENT_3D($,#552,#434,#435);
#359=AXIS2_PLACEMENT_3D($,#554,#436,#437);
#360=AXIS2_PLACEMENT_3D($,#555,#438,#439);
#361=AXIS2_PLACEMENT_3D($,#557,#440,#441);
#362=AXIS2_PLACEMENT_3D($,#558,#442,#443);
#363=AXIS2_PLACEMENT_3D($,#560,#444,#445);
#364=AXIS2_PLACEMENT_3D($,#561,#446,#447);
#365=AXIS2_PLACEMENT_3D($,#562,#448,#449);
#366=AXIS2_PLACEMENT_3D($,#564,#450,#451);
#367=AXIS2_PLACEMENT_3D($,#565,#452,#453);
#368=AXIS2_PLACEMENT_3D($,#566,#454,#455);
#369=AXIS2_PLACEMENT_3D($,#567,#456,#457);
#370=AXIS2_PLACEMENT_3D($,#569,#458,#459);
#371=AXIS2_PLACEMENT_3D($,#570,#460,#461);
#372=AXIS2_PLACEMENT_3D($,#572,#462,#463);
#373=AXIS2_PLACEMENT_3D($,#573,#464,#465);
#374=DIRECTION('axis',(0.,0.,1.));
#375=DIRECTION('refdir',(1.,0.,0.));
#376=DIRECTION('center_axis',(0.38268343236509,-0.923879532511287,0.));
#377=DIRECTION('ref_axis',(0.923879532511287,0.38268343236509,0.));
#378=DIRECTION($,(0.,0.,1.));
#379=DIRECTION($,(0.923879532511287,0.38268343236509,0.));
#380=DIRECTION($,(0.,0.,1.));
#381=DIRECTION('center_axis',(0.923879532511287,-0.38268343236509,0.));
#382=DIRECTION('ref_axis',(0.38268343236509,0.923879532511287,0.));
#383=DIRECTION($,(0.,0.,1.));
#384=DIRECTION($,(0.38268343236509,0.923879532511287,0.));
#385=DIRECTION('center_axis',(0.923879532511287,0.38268343236509,0.));
#386=DIRECTION('ref_axis',(-0.38268343236509,0.923879532511287,0.));
#387=DIRECTION($,(0.,0.,1.));
#388=DIRECTION($,(-0.38268343236509,0.923879532511287,0.));
#389=DIRECTION('center_axis',(0.38268343236509,0.923879532511287,0.));
#390=DIRECTION('ref_axis',(-0.923879532511287,0.38268343236509,0.));
#391=DIRECTION($,(0.,0.,1.));
#392=DIRECTION($,(-0.923879532511287,0.38268343236509,0.));
#393=DIRECTION('center_axis',(0.,0.,1.));
#394=DIRECTION('ref_axis',(1.,0.,0.));
#395=DIRECTION('center_axis',(0.,0.,-1.));
#396=DIRECTION('ref_axis',(1.,0.,0.));
#397=DIRECTION('center_axis',(0.,0.,-1.));
#398=DIRECTION('ref_axis',(0.,-1.,0.));
#399=DIRECTION('center_axis',(0.,0.,1.));
#400=DIRECTION('ref_axis',(1.,0.,0.));
#401=DIRECTION($,(-0.923879532511287,-0.38268343236509,0.));
#402=DIRECTION($,(-0.382683432365089,-0.923879532511287,0.));
#403=DIRECTION($,(0.38268343236509,-0.923879532511287,0.));
#404=DIRECTION($,(0.923879532511287,-0.382683432365089,0.));
#405=DIRECTION('center_axis',(0.,0.,1.));
#406=DIRECTION('ref_axis',(0.,-1.,0.));
#407=DIRECTION('center_axis',(-0.382683432365089,-0.923879532511287,0.));
#408=DIRECTION('ref_axis',(0.923879532511287,-0.382683432365089,0.));
#409=DIRECTION($,(0.,0.,1.));
#410=DIRECTION('center_axis',(-0.923879532511287,-0.38268343236509,0.));
#411=DIRECTION('ref_axis',(0.38268343236509,-0.923879532511287,0.));
#412=DIRECTION($,(0.,0.,1.));
#413=DIRECTION('center_axis',(-0.923879532511287,0.382683432365089,0.));
#414=DIRECTION('ref_axis',(-0.382683432365089,-0.923879532511287,0.));
#415=DIRECTION($,(0.,0.,1.));
#416=DIRECTION('center_axis',(-0.38268343236509,0.923879532511287,0.));
#417=DIRECTION('ref_axis',(-0.923879532511287,-0.38268343236509,0.));
#418=DIRECTION('center_axis',(0.,0.,-1.));
#419=DIRECTION('ref_axis',(-1.,0.,0.));
#420=DIRECTION('center_axis',(0.,0.,-1.));
#421=DIRECTION('ref_axis',(-1.,0.,0.));
#422=DIRECTION('center_axis',(0.,0.,-1.));
#423=DIRECTION('ref_axis',(-1.,0.,0.));
#424=DIRECTION('center_axis',(0.,0.,1.));
#425=DIRECTION('ref_axis',(1.,0.,0.));
#426=DIRECTION('center_axis',(0.,0.,1.));
#427=DIRECTION('ref_axis',(0.,-1.,0.));
#428=DIRECTION('center_axis',(0.,0.,-1.));
#429=DIRECTION('ref_axis',(-1.,0.,0.));
#430=DIRECTION('center_axis',(0.,0.,1.));
#431=DIRECTION('ref_axis',(0.,-1.,0.));
#432=DIRECTION('center_axis',(0.,0.,1.));
#433=DIRECTION('ref_axis',(0.,-1.,0.));
#434=DIRECTION('center_axis',(0.,0.,1.));
#435=DIRECTION('ref_axis',(0.,-1.,0.));
#436=DIRECTION('center_axis',(0.,0.,1.));
#437=DIRECTION('ref_axis',(0.,-1.,0.));
#438=DIRECTION('center_axis',(0.,0.,-1.));
#439=DIRECTION('ref_axis',(-1.,0.,0.));
#440=DIRECTION('center_axis',(0.,0.,1.));
#441=DIRECTION('ref_axis',(0.,-1.,0.));
#442=DIRECTION('center_axis',(0.,0.,1.));
#443=DIRECTION('ref_axis',(0.,-1.,0.));
#444=DIRECTION('center_axis',(0.,0.,1.));
#445=DIRECTION('ref_axis',(0.,-1.,0.));
#446=DIRECTION('center_axis',(0.,0.,-1.));
#447=DIRECTION('ref_axis',(0.,-1.,0.));
#448=DIRECTION('center_axis',(0.,0.,1.));
#449=DIRECTION('ref_axis',(0.,-1.,0.));
#450=DIRECTION('center_axis',(0.,0.,1.));
#451=DIRECTION('ref_axis',(0.,-1.,0.));
#452=DIRECTION('center_axis',(0.,0.,1.));
#453=DIRECTION('ref_axis',(1.,0.,0.));
#454=DIRECTION('center_axis',(0.,0.,1.));
#455=DIRECTION('ref_axis',(0.,-1.,0.));
#456=DIRECTION('center_axis',(0.,0.,1.));
#457=DIRECTION('ref_axis',(0.,-1.,0.));
#458=DIRECTION('center_axis',(0.,0.,1.));
#459=DIRECTION('ref_axis',(0.,-1.,0.));
#460=DIRECTION('center_axis',(0.,0.,-1.));
#461=DIRECTION('ref_axis',(-1.,0.,0.));
#462=DIRECTION('center_axis',(0.,0.,1.));
#463=DIRECTION('ref_axis',(0.,-1.,0.));
#464=DIRECTION('center_axis',(0.,0.,1.));
#465=DIRECTION('ref_axis',(0.,-1.,0.));
#466=CARTESIAN_POINT('',(0.,0.,0.));
#467=CARTESIAN_POINT('Origin',(1.10904934936593E-014,-23.8126284064327,
29.9));
#468=CARTESIAN_POINT('',(16.838071024064,-16.838071024064,30.19353816686));
#469=CARTESIAN_POINT('',(1.10904934936593E-014,-23.8126284064327,30.19353816686));
#470=CARTESIAN_POINT('Ctrl Pts',(16.838071024064,-16.838071024064,30.19353816686));
#471=CARTESIAN_POINT('Ctrl Pts',(8.41903551203177,-20.3253497152484,31.1279516759448));
#472=CARTESIAN_POINT('Ctrl Pts',(1.10904934936593E-014,-23.8126284064327,
30.19353816686));
#473=CARTESIAN_POINT('',(16.838071024064,-16.838071024064,38.1));
#474=CARTESIAN_POINT($,(16.838071024064,-16.838071024064,29.9));
#475=CARTESIAN_POINT('',(1.10904934936593E-014,-23.8126284064327,38.1));
#476=CARTESIAN_POINT($,(1.10904934936593E-014,-23.8126284064327,38.1));
#477=CARTESIAN_POINT($,(1.10904934936593E-014,-23.8126284064327,29.9));
#478=CARTESIAN_POINT('Origin',(16.838071024064,-16.838071024064,29.9));
#479=CARTESIAN_POINT('',(23.8126284064327,1.39853852606212E-015,30.19353816686));
#480=CARTESIAN_POINT('Ctrl Pts',(23.8126284064327,1.39853852606212E-015,
30.19353816686));
#481=CARTESIAN_POINT('Ctrl Pts',(20.3253497152482,-8.4190355120322,31.1279516759448));
#482=CARTESIAN_POINT('Ctrl Pts',(16.838071024064,-16.838071024064,30.19353816686));
#483=CARTESIAN_POINT('',(23.8126284064327,0.,38.1));
#484=CARTESIAN_POINT($,(23.8126284064327,1.39853852606212E-015,29.9));
#485=CARTESIAN_POINT($,(16.838071024064,-16.838071024064,38.1));
#486=CARTESIAN_POINT('Origin',(23.8126284064327,1.39853852606212E-015,29.9));
#487=CARTESIAN_POINT('',(16.838071024064,16.838071024064,30.19353816686));
#488=CARTESIAN_POINT('Ctrl Pts',(16.838071024064,16.838071024064,30.19353816686));
#489=CARTESIAN_POINT('Ctrl Pts',(20.3253497152484,8.41903551203175,31.1279516759448));
#490=CARTESIAN_POINT('Ctrl Pts',(23.8126284064327,1.39853852606212E-015,
30.19353816686));
#491=CARTESIAN_POINT('',(16.838071024064,16.838071024064,38.1));
#492=CARTESIAN_POINT($,(16.838071024064,16.838071024064,29.9));
#493=CARTESIAN_POINT($,(23.8126284064327,1.39853852606212E-015,38.1));
#494=CARTESIAN_POINT('Origin',(16.838071024064,16.838071024064,29.9));
#495=CARTESIAN_POINT('',(0.,23.8126284064327,30.19353816686));
#496=CARTESIAN_POINT('Ctrl Pts',(0.,23.8126284064327,30.19353816686));
#497=CARTESIAN_POINT('Ctrl Pts',(8.41903551203221,20.3253497152482,31.1279516759448));
#498=CARTESIAN_POINT('Ctrl Pts',(16.838071024064,16.838071024064,30.19353816686));
#499=CARTESIAN_POINT('',(0.,23.8126284064327,38.1));
#500=CARTESIAN_POINT($,(0.,23.8126284064327,29.9));
#501=CARTESIAN_POINT($,(16.838071024064,16.838071024064,38.1));
#502=CARTESIAN_POINT('Origin',(1.82748782952882E-015,-1.37061587214661E-015,
38.1));
#503=CARTESIAN_POINT('',(-14.75,1.80635402874235E-015,38.1));
#504=CARTESIAN_POINT('Origin',(0.,0.,38.1));
#505=CARTESIAN_POINT('',(1.85478880964862E-015,15.1455,38.1));
#506=CARTESIAN_POINT('Origin',(0.,0.,38.1));
#507=CARTESIAN_POINT('Origin',(1.82748782952882E-015,-1.37061587214661E-015,
38.1));
#508=CARTESIAN_POINT('',(-16.838071024064,16.838071024064,38.1));
#509=CARTESIAN_POINT($,(0.,23.8126284064327,38.1));
#510=CARTESIAN_POINT('',(-23.8126284064327,-1.33226762955019E-014,38.1));
#511=CARTESIAN_POINT($,(-16.838071024064,16.838071024064,38.1));
#512=CARTESIAN_POINT('',(-16.8380710240639,-16.838071024064,38.1));
#513=CARTESIAN_POINT($,(-23.8126284064327,-1.48187291552448E-014,38.1));
#514=CARTESIAN_POINT($,(-16.8380710240639,-16.838071024064,38.1));
#515=CARTESIAN_POINT('',(-2.62074415017534E-015,21.4,38.1));
#516=CARTESIAN_POINT('Origin',(0.,0.,38.1));
#517=CARTESIAN_POINT('Origin',(-16.8380710240639,-16.838071024064,29.9));
#518=CARTESIAN_POINT('',(-16.8380710240639,-16.838071024064,30.19353816686));
#519=CARTESIAN_POINT('Ctrl Pts',(1.10904934936593E-014,-23.8126284064327,
30.19353816686));
#520=CARTESIAN_POINT('Ctrl Pts',(-8.41903551203219,-20.3253497152482,31.1279516759448));
#521=CARTESIAN_POINT('Ctrl Pts',(-16.8380710240639,-16.838071024064,30.19353816686));
#522=CARTESIAN_POINT($,(-16.8380710240639,-16.838071024064,29.9));
#523=CARTESIAN_POINT('Origin',(-23.8126284064327,-1.48187291552448E-014,
29.9));
#524=CARTESIAN_POINT('',(-23.8126284064327,-1.48187291552448E-014,30.19353816686));
#525=CARTESIAN_POINT('Ctrl Pts',(-16.8380710240639,-16.838071024064,30.19353816686));
#526=CARTESIAN_POINT('Ctrl Pts',(-20.3253497152484,-8.41903551203177,31.1279516759448));
#527=CARTESIAN_POINT('Ctrl Pts',(-23.8126284064327,-1.48187291552448E-014,
30.19353816686));
#528=CARTESIAN_POINT($,(-23.8126284064327,-1.48187291552448E-014,29.9));
#529=CARTESIAN_POINT('Origin',(-16.838071024064,16.838071024064,29.9));
#530=CARTESIAN_POINT('',(-16.838071024064,16.838071024064,30.19353816686));
#531=CARTESIAN_POINT('Ctrl Pts',(-23.8126284064327,-1.48187291552448E-014,
30.19353816686));
#532=CARTESIAN_POINT('Ctrl Pts',(-20.3253497152482,8.41903551203222,31.1279516759448));
#533=CARTESIAN_POINT('Ctrl Pts',(-16.838071024064,16.838071024064,30.19353816686));
#534=CARTESIAN_POINT($,(-16.838071024064,16.838071024064,29.9));
#535=CARTESIAN_POINT('Origin',(0.,23.8126284064327,29.9));
#536=CARTESIAN_POINT('Ctrl Pts',(-16.838071024064,16.838071024064,30.19353816686));
#537=CARTESIAN_POINT('Ctrl Pts',(-8.41903551203175,20.3253497152484,31.1279516759448));
#538=CARTESIAN_POINT('Ctrl Pts',(0.,23.8126284064327,30.19353816686));
#539=CARTESIAN_POINT('Origin',(0.,0.,56.6));
#540=CARTESIAN_POINT('',(17.1,2.09414602654197E-015,54.4));
#541=CARTESIAN_POINT('Origin',(0.,0.,54.4));
#542=CARTESIAN_POINT('',(17.1,2.09414602654197E-015,56.6));
#543=CARTESIAN_POINT('Origin',(0.,0.,56.6));
#544=CARTESIAN_POINT('Origin',(-1.04018314324509E-015,4.32835487183297E-016,
54.4));
#545=CARTESIAN_POINT('',(15.1455,1.85478880964863E-015,54.4));
#546=CARTESIAN_POINT('Origin',(0.,0.,54.4));
#547=CARTESIAN_POINT('Origin',(0.,-18.,0.));
#548=CARTESIAN_POINT('',(0.,-20.,0.));
#549=CARTESIAN_POINT('Origin',(0.,0.,0.));
#550=CARTESIAN_POINT('',(0.,-16.,0.));
#551=CARTESIAN_POINT('Origin',(0.,0.,0.));
#552=CARTESIAN_POINT('Origin',(0.,0.,13.));
#553=CARTESIAN_POINT('',(0.,-20.,26.));
#554=CARTESIAN_POINT('Origin',(0.,0.,26.));
#555=CARTESIAN_POINT('Origin',(0.,-23.,26.));
#556=CARTESIAN_POINT('',(0.,-26.,26.));
#557=CARTESIAN_POINT('Origin',(0.,0.,26.));
#558=CARTESIAN_POINT('Origin',(0.,0.,27.8037168574084));
#559=CARTESIAN_POINT('',(0.,-26.,29.6074337148168));
#560=CARTESIAN_POINT('Origin',(0.,0.,29.6074337148168));
#561=CARTESIAN_POINT('Origin',(0.,0.,30.2237168574084));
#562=CARTESIAN_POINT('Origin',(0.,0.,43.72));
#563=CARTESIAN_POINT('',(0.,-21.4,56.6));
#564=CARTESIAN_POINT('Origin',(0.,0.,56.6));
#565=CARTESIAN_POINT('Origin',(0.,-18.27275,56.6));
#566=CARTESIAN_POINT('Origin',(0.,0.,45.8));
#567=CARTESIAN_POINT('Origin',(0.,0.,28.6));
#568=CARTESIAN_POINT('',(0.,-14.75,22.2));
#569=CARTESIAN_POINT('Origin',(0.,0.,22.2));
#570=CARTESIAN_POINT('Origin',(0.,-15.375,22.2));
#571=CARTESIAN_POINT('',(0.,-16.,22.2));
#572=CARTESIAN_POINT('Origin',(0.,0.,22.2));
#573=CARTESIAN_POINT('Origin',(0.,0.,11.1));
#574=UNCERTAINTY_MEASURE_WITH_UNIT(LENGTH_MEASURE(0.01),#576,
'DISTANCE_ACCURACY_VALUE',
'Maximum model space distance between geometric entities at asserted c
onnectivities');
#575=(
GEOMETRIC_REPRESENTATION_CONTEXT(3)
GLOBAL_UNCERTAINTY_ASSIGNED_CONTEXT((#574))
GLOBAL_UNIT_ASSIGNED_CONTEXT((#576,#579,#577))
REPRESENTATION_CONTEXT('','3D')
);
#576=(
LENGTH_UNIT()
NAMED_UNIT(*)
SI_UNIT(.MILLI.,.METRE.)
);
#577=(
NAMED_UNIT(*)
SI_UNIT($,.STERADIAN.)
SOLID_ANGLE_UNIT()
);
#578=DIMENSIONAL_EXPONENTS(0.,0.,0.,0.,0.,0.,0.);
#579=(
CONVERSION_BASED_UNIT('degree',#581)
NAMED_UNIT(#578)
PLANE_ANGLE_UNIT()
);
#580=(
NAMED_UNIT(*)
PLANE_ANGLE_UNIT()
SI_UNIT($,.RADIAN.)
);
#581=PLANE_ANGLE_MEASURE_WITH_UNIT(PLANE_ANGLE_MEASURE(0.01745329252),#580);
#582=SHAPE_DEFINITION_REPRESENTATION(#583,#584);
#583=PRODUCT_DEFINITION_SHAPE('',$,#586);
#584=SHAPE_REPRESENTATION('',(#336),#575);
#585=PRODUCT_DEFINITION_CONTEXT('3D Mechanical Parts',#589,'design');
#586=PRODUCT_DEFINITION('DIFV040032100','DIFV040032100',#587,#585);
#587=PRODUCT_DEFINITION_FORMATION('',$,#591);
#588=APPLICATION_PROTOCOL_DEFINITION('international standard',
'automotive_design',2009,#589);
#589=APPLICATION_CONTEXT(
'Core Data for Automotive Mechanical Design Process');
#590=PRODUCT_CONTEXT('3D Mechanical Parts',#589,'mechanical');
#591=PRODUCT('DIFV040032100','DIFV040032100',$,(#590));
#592=PRESENTATION_STYLE_ASSIGNMENT((#594));
#593=PRESENTATION_STYLE_ASSIGNMENT((#595));
#594=SURFACE_STYLE_USAGE(.BOTH.,#596);
#595=SURFACE_STYLE_USAGE(.BOTH.,#597);
#596=SURFACE_SIDE_STYLE($,(#598));
#597=SURFACE_SIDE_STYLE($,(#599));
#598=SURFACE_STYLE_FILL_AREA(#600);
#599=SURFACE_STYLE_FILL_AREA(#601);
#600=FILL_AREA_STYLE($,(#602));
#601=FILL_AREA_STYLE($,(#603));
#602=FILL_AREA_STYLE_COLOUR($,#604);
#603=FILL_AREA_STYLE_COLOUR($,#605);
#604=COLOUR_RGB('',0.509803921568627,0.509803921568627,0.588235294117647);
#605=COLOUR_RGB('',1.,0.,0.);
ENDSEC;
END-ISO-10303-21;
