ISO-10303-21;
HEADER;
/* Generated by software containing ST-Developer
 * from STEP Tools, Inc. (www.steptools.com) 
 */
/* OPTION: using custom renumber hook */

FILE_DESCRIPTION(
/* description */ ('STEP AP203'),
/* implementation_level */ '2;1');

FILE_NAME(
/* name */ '16007116311(architecture400)',
/* time_stamp */ '2022-06-30T14:21:52+02:00',
/* author */ ('License CC BY-ND 4.0'),
/* organization */ ('CADENAS'),
/* preprocessor_version */ 'ST-DEVELOPER v18.102',
/* originating_system */ 'PARTsolutions',
/* authorisation */ '  ');

FILE_SCHEMA (('CONFIG_CONTROL_DESIGN'));
ENDSEC;

DATA;
#10=PROPERTY_DEFINITION_REPRESENTATION(#14,#12);
#11=PROPERTY_DEFINITION_REPRESENTATION(#15,#13);
#12=REPRESENTATION('',(#16),#357);
#13=REPRESENTATION('',(#17),#357);
#14=PROPERTY_DEFINITION('pmi validation property','',#362);
#15=PROPERTY_DEFINITION('pmi validation property','',#362);
#16=VALUE_REPRESENTATION_ITEM('number of annotations',COUNT_MEASURE(0.));
#17=VALUE_REPRESENTATION_ITEM('number of views',COUNT_MEASURE(0.));
#18=SHAPE_REPRESENTATION_RELATIONSHIP('','',#207,#19);
#19=ADVANCED_BREP_SHAPE_REPRESENTATION('',(#205),#357);
#20=CONICAL_SURFACE('',#216,45.,0.816316142960492);
#21=CONICAL_SURFACE('',#220,39.2,0.673442241654993);
#22=CONICAL_SURFACE('',#224,31.7,0.568104732474428);
#23=CONICAL_SURFACE('',#232,31.5,0.568104732474428);
#24=CONICAL_SURFACE('',#236,37.5,0.673442241654992);
#25=CONICAL_SURFACE('',#240,45.,0.816316142960492);
#26=PLANE('',#212);
#27=PLANE('',#228);
#28=ORIENTED_EDGE('',*,*,#60,.T.);
#29=ORIENTED_EDGE('',*,*,#61,.F.);
#30=ORIENTED_EDGE('',*,*,#62,.T.);
#31=ORIENTED_EDGE('',*,*,#60,.F.);
#32=ORIENTED_EDGE('',*,*,#63,.T.);
#33=ORIENTED_EDGE('',*,*,#62,.F.);
#34=ORIENTED_EDGE('',*,*,#64,.T.);
#35=ORIENTED_EDGE('',*,*,#63,.F.);
#36=ORIENTED_EDGE('',*,*,#65,.T.);
#37=ORIENTED_EDGE('',*,*,#64,.F.);
#38=ORIENTED_EDGE('',*,*,#66,.T.);
#39=ORIENTED_EDGE('',*,*,#65,.F.);
#40=ORIENTED_EDGE('',*,*,#67,.T.);
#41=ORIENTED_EDGE('',*,*,#66,.F.);
#42=ORIENTED_EDGE('',*,*,#68,.T.);
#43=ORIENTED_EDGE('',*,*,#67,.F.);
#44=ORIENTED_EDGE('',*,*,#69,.T.);
#45=ORIENTED_EDGE('',*,*,#68,.F.);
#46=ORIENTED_EDGE('',*,*,#70,.T.);
#47=ORIENTED_EDGE('',*,*,#69,.F.);
#48=ORIENTED_EDGE('',*,*,#71,.T.);
#49=ORIENTED_EDGE('',*,*,#70,.F.);
#50=ORIENTED_EDGE('',*,*,#72,.T.);
#51=ORIENTED_EDGE('',*,*,#71,.F.);
#52=ORIENTED_EDGE('',*,*,#73,.T.);
#53=ORIENTED_EDGE('',*,*,#72,.F.);
#54=ORIENTED_EDGE('',*,*,#74,.T.);
#55=ORIENTED_EDGE('',*,*,#73,.F.);
#56=ORIENTED_EDGE('',*,*,#75,.T.);
#57=ORIENTED_EDGE('',*,*,#74,.F.);
#58=ORIENTED_EDGE('',*,*,#61,.T.);
#59=ORIENTED_EDGE('',*,*,#75,.F.);
#60=EDGE_CURVE('',#76,#76,#92,.T.);
#61=EDGE_CURVE('',#77,#77,#93,.T.);
#62=EDGE_CURVE('',#78,#78,#94,.T.);
#63=EDGE_CURVE('',#79,#79,#95,.T.);
#64=EDGE_CURVE('',#80,#80,#96,.T.);
#65=EDGE_CURVE('',#81,#81,#97,.T.);
#66=EDGE_CURVE('',#82,#82,#98,.T.);
#67=EDGE_CURVE('',#83,#83,#99,.T.);
#68=EDGE_CURVE('',#84,#84,#100,.T.);
#69=EDGE_CURVE('',#85,#85,#101,.T.);
#70=EDGE_CURVE('',#86,#86,#102,.T.);
#71=EDGE_CURVE('',#87,#87,#103,.T.);
#72=EDGE_CURVE('',#88,#88,#104,.T.);
#73=EDGE_CURVE('',#89,#89,#105,.T.);
#74=EDGE_CURVE('',#90,#90,#106,.T.);
#75=EDGE_CURVE('',#91,#91,#107,.T.);
#76=VERTEX_POINT('',#310);
#77=VERTEX_POINT('',#312);
#78=VERTEX_POINT('',#315);
#79=VERTEX_POINT('',#318);
#80=VERTEX_POINT('',#321);
#81=VERTEX_POINT('',#324);
#82=VERTEX_POINT('',#327);
#83=VERTEX_POINT('',#330);
#84=VERTEX_POINT('',#333);
#85=VERTEX_POINT('',#336);
#86=VERTEX_POINT('',#339);
#87=VERTEX_POINT('',#342);
#88=VERTEX_POINT('',#345);
#89=VERTEX_POINT('',#348);
#90=VERTEX_POINT('',#351);
#91=VERTEX_POINT('',#354);
#92=CIRCLE('',#210,55.);
#93=CIRCLE('',#211,55.);
#94=CIRCLE('',#213,45.);
#95=CIRCLE('',#215,45.);
#96=CIRCLE('',#217,39.2);
#97=CIRCLE('',#219,39.2);
#98=CIRCLE('',#221,31.7);
#99=CIRCLE('',#223,31.7);
#100=CIRCLE('',#225,25.7);
#101=CIRCLE('',#227,25.7);
#102=CIRCLE('',#229,31.5);
#103=CIRCLE('',#231,31.5);
#104=CIRCLE('',#233,37.5);
#105=CIRCLE('',#235,37.5);
#106=CIRCLE('',#237,45.);
#107=CIRCLE('',#239,45.);
#108=EDGE_LOOP('',(#28));
#109=EDGE_LOOP('',(#29));
#110=EDGE_LOOP('',(#30));
#111=EDGE_LOOP('',(#31));
#112=EDGE_LOOP('',(#32));
#113=EDGE_LOOP('',(#33));
#114=EDGE_LOOP('',(#34));
#115=EDGE_LOOP('',(#35));
#116=EDGE_LOOP('',(#36));
#117=EDGE_LOOP('',(#37));
#118=EDGE_LOOP('',(#38));
#119=EDGE_LOOP('',(#39));
#120=EDGE_LOOP('',(#40));
#121=EDGE_LOOP('',(#41));
#122=EDGE_LOOP('',(#42));
#123=EDGE_LOOP('',(#43));
#124=EDGE_LOOP('',(#44));
#125=EDGE_LOOP('',(#45));
#126=EDGE_LOOP('',(#46));
#127=EDGE_LOOP('',(#47));
#128=EDGE_LOOP('',(#48));
#129=EDGE_LOOP('',(#49));
#130=EDGE_LOOP('',(#50));
#131=EDGE_LOOP('',(#51));
#132=EDGE_LOOP('',(#52));
#133=EDGE_LOOP('',(#53));
#134=EDGE_LOOP('',(#54));
#135=EDGE_LOOP('',(#55));
#136=EDGE_LOOP('',(#56));
#137=EDGE_LOOP('',(#57));
#138=EDGE_LOOP('',(#58));
#139=EDGE_LOOP('',(#59));
#140=FACE_BOUND('',#108,.T.);
#141=FACE_BOUND('',#109,.T.);
#142=FACE_BOUND('',#110,.T.);
#143=FACE_BOUND('',#111,.T.);
#144=FACE_BOUND('',#112,.T.);
#145=FACE_BOUND('',#113,.T.);
#146=FACE_BOUND('',#114,.T.);
#147=FACE_BOUND('',#115,.T.);
#148=FACE_BOUND('',#116,.T.);
#149=FACE_BOUND('',#117,.T.);
#150=FACE_BOUND('',#118,.T.);
#151=FACE_BOUND('',#119,.T.);
#152=FACE_BOUND('',#120,.T.);
#153=FACE_BOUND('',#121,.T.);
#154=FACE_BOUND('',#122,.T.);
#155=FACE_BOUND('',#123,.T.);
#156=FACE_BOUND('',#124,.T.);
#157=FACE_BOUND('',#125,.T.);
#158=FACE_BOUND('',#126,.T.);
#159=FACE_BOUND('',#127,.T.);
#160=FACE_BOUND('',#128,.T.);
#161=FACE_BOUND('',#129,.T.);
#162=FACE_BOUND('',#130,.T.);
#163=FACE_BOUND('',#131,.T.);
#164=FACE_BOUND('',#132,.T.);
#165=FACE_BOUND('',#133,.T.);
#166=FACE_BOUND('',#134,.T.);
#167=FACE_BOUND('',#135,.T.);
#168=FACE_BOUND('',#136,.T.);
#169=FACE_BOUND('',#137,.T.);
#170=FACE_BOUND('',#138,.T.);
#171=FACE_BOUND('',#139,.T.);
#172=CYLINDRICAL_SURFACE('',#209,55.);
#173=CYLINDRICAL_SURFACE('',#214,45.);
#174=CYLINDRICAL_SURFACE('',#218,39.2);
#175=CYLINDRICAL_SURFACE('',#222,31.7);
#176=CYLINDRICAL_SURFACE('',#226,25.7);
#177=CYLINDRICAL_SURFACE('',#230,31.5);
#178=CYLINDRICAL_SURFACE('',#234,37.5);
#179=CYLINDRICAL_SURFACE('',#238,45.);
#180=ADVANCED_FACE('',(#140,#141),#172,.T.);
#181=ADVANCED_FACE('',(#142,#143),#26,.T.);
#182=ADVANCED_FACE('',(#144,#145),#173,.F.);
#183=ADVANCED_FACE('',(#146,#147),#20,.F.);
#184=ADVANCED_FACE('',(#148,#149),#174,.F.);
#185=ADVANCED_FACE('',(#150,#151),#21,.F.);
#186=ADVANCED_FACE('',(#152,#153),#175,.F.);
#187=ADVANCED_FACE('',(#154,#155),#22,.F.);
#188=ADVANCED_FACE('',(#156,#157),#176,.F.);
#189=ADVANCED_FACE('',(#158,#159),#27,.T.);
#190=ADVANCED_FACE('',(#160,#161),#177,.T.);
#191=ADVANCED_FACE('',(#162,#163),#23,.T.);
#192=ADVANCED_FACE('',(#164,#165),#178,.T.);
#193=ADVANCED_FACE('',(#166,#167),#24,.T.);
#194=ADVANCED_FACE('',(#168,#169),#179,.T.);
#195=ADVANCED_FACE('',(#170,#171),#25,.T.);
#196=CLOSED_SHELL('',(#180,#181,#182,#183,#184,#185,#186,#187,#188,#189,
#190,#191,#192,#193,#194,#195));
#197=STYLED_ITEM('',(#198),#205);
#198=PRESENTATION_STYLE_ASSIGNMENT((#199));
#199=SURFACE_STYLE_USAGE(.BOTH.,#200);
#200=SURFACE_SIDE_STYLE('',(#201));
#201=SURFACE_STYLE_FILL_AREA(#202);
#202=FILL_AREA_STYLE('',(#203));
#203=FILL_AREA_STYLE_COLOUR('',#204);
#204=COLOUR_RGB('',0.689999997615814,0.689999997615814,0.689999997615814);
#205=MANIFOLD_SOLID_BREP('16007116311(architecture400)',#196);
#206=SHAPE_DEFINITION_REPRESENTATION(#362,#207);
#207=SHAPE_REPRESENTATION('16007116311(architecture400)',(#208),#357);
#208=AXIS2_PLACEMENT_3D('',#307,#241,#242);
#209=AXIS2_PLACEMENT_3D('',#308,#243,#244);
#210=AXIS2_PLACEMENT_3D('',#309,#245,#246);
#211=AXIS2_PLACEMENT_3D('',#311,#247,#248);
#212=AXIS2_PLACEMENT_3D('',#313,#249,#250);
#213=AXIS2_PLACEMENT_3D('',#314,#251,#252);
#214=AXIS2_PLACEMENT_3D('',#316,#253,#254);
#215=AXIS2_PLACEMENT_3D('',#317,#255,#256);
#216=AXIS2_PLACEMENT_3D('',#319,#257,#258);
#217=AXIS2_PLACEMENT_3D('',#320,#259,#260);
#218=AXIS2_PLACEMENT_3D('',#322,#261,#262);
#219=AXIS2_PLACEMENT_3D('',#323,#263,#264);
#220=AXIS2_PLACEMENT_3D('',#325,#265,#266);
#221=AXIS2_PLACEMENT_3D('',#326,#267,#268);
#222=AXIS2_PLACEMENT_3D('',#328,#269,#270);
#223=AXIS2_PLACEMENT_3D('',#329,#271,#272);
#224=AXIS2_PLACEMENT_3D('',#331,#273,#274);
#225=AXIS2_PLACEMENT_3D('',#332,#275,#276);
#226=AXIS2_PLACEMENT_3D('',#334,#277,#278);
#227=AXIS2_PLACEMENT_3D('',#335,#279,#280);
#228=AXIS2_PLACEMENT_3D('',#337,#281,#282);
#229=AXIS2_PLACEMENT_3D('',#338,#283,#284);
#230=AXIS2_PLACEMENT_3D('',#340,#285,#286);
#231=AXIS2_PLACEMENT_3D('',#341,#287,#288);
#232=AXIS2_PLACEMENT_3D('',#343,#289,#290);
#233=AXIS2_PLACEMENT_3D('',#344,#291,#292);
#234=AXIS2_PLACEMENT_3D('',#346,#293,#294);
#235=AXIS2_PLACEMENT_3D('',#347,#295,#296);
#236=AXIS2_PLACEMENT_3D('',#349,#297,#298);
#237=AXIS2_PLACEMENT_3D('',#350,#299,#300);
#238=AXIS2_PLACEMENT_3D('',#352,#301,#302);
#239=AXIS2_PLACEMENT_3D('',#353,#303,#304);
#240=AXIS2_PLACEMENT_3D('',#355,#305,#306);
#241=DIRECTION('',(0.,0.,1.));
#242=DIRECTION('',(1.,0.,0.));
#243=DIRECTION('',(1.,0.,0.));
#244=DIRECTION('',(0.,0.,-1.));
#245=DIRECTION('',(1.,0.,0.));
#246=DIRECTION('',(0.,0.,-1.));
#247=DIRECTION('',(1.,0.,0.));
#248=DIRECTION('',(0.,0.,-1.));
#249=DIRECTION('',(-1.,0.,0.));
#250=DIRECTION('',(0.,0.,1.));
#251=DIRECTION('',(1.,0.,0.));
#252=DIRECTION('',(0.,0.,-1.));
#253=DIRECTION('',(1.,0.,0.));
#254=DIRECTION('',(0.,0.,-1.));
#255=DIRECTION('',(1.,0.,0.));
#256=DIRECTION('',(0.,0.,-1.));
#257=DIRECTION('',(-1.,0.,0.));
#258=DIRECTION('',(0.,0.,1.));
#259=DIRECTION('',(1.,0.,0.));
#260=DIRECTION('',(0.,0.,-1.));
#261=DIRECTION('',(1.,0.,0.));
#262=DIRECTION('',(0.,0.,-1.));
#263=DIRECTION('',(1.,0.,0.));
#264=DIRECTION('',(0.,0.,-1.));
#265=DIRECTION('',(-1.,0.,0.));
#266=DIRECTION('',(0.,0.,1.));
#267=DIRECTION('',(1.,0.,0.));
#268=DIRECTION('',(0.,0.,-1.));
#269=DIRECTION('',(1.,0.,0.));
#270=DIRECTION('',(0.,0.,-1.));
#271=DIRECTION('',(1.,0.,0.));
#272=DIRECTION('',(0.,0.,-1.));
#273=DIRECTION('',(-1.,0.,0.));
#274=DIRECTION('',(0.,0.,1.));
#275=DIRECTION('',(1.,0.,0.));
#276=DIRECTION('',(0.,0.,-1.));
#277=DIRECTION('',(1.,0.,0.));
#278=DIRECTION('',(0.,0.,-1.));
#279=DIRECTION('',(1.,0.,0.));
#280=DIRECTION('',(0.,0.,-1.));
#281=DIRECTION('',(1.,0.,0.));
#282=DIRECTION('',(0.,0.,-1.));
#283=DIRECTION('',(1.,0.,0.));
#284=DIRECTION('',(0.,0.,-1.));
#285=DIRECTION('',(1.,0.,0.));
#286=DIRECTION('',(0.,0.,-1.));
#287=DIRECTION('',(1.,0.,0.));
#288=DIRECTION('',(0.,0.,-1.));
#289=DIRECTION('',(-1.,0.,0.));
#290=DIRECTION('',(0.,0.,1.));
#291=DIRECTION('',(1.,0.,0.));
#292=DIRECTION('',(0.,0.,-1.));
#293=DIRECTION('',(1.,0.,0.));
#294=DIRECTION('',(0.,0.,-1.));
#295=DIRECTION('',(1.,0.,0.));
#296=DIRECTION('',(0.,0.,-1.));
#297=DIRECTION('',(-1.,0.,0.));
#298=DIRECTION('',(0.,0.,1.));
#299=DIRECTION('',(1.,0.,0.));
#300=DIRECTION('',(0.,0.,-1.));
#301=DIRECTION('',(1.,0.,0.));
#302=DIRECTION('',(0.,0.,-1.));
#303=DIRECTION('',(1.,0.,0.));
#304=DIRECTION('',(0.,0.,-1.));
#305=DIRECTION('',(-1.,0.,0.));
#306=DIRECTION('',(0.,0.,1.));
#307=CARTESIAN_POINT('',(0.,0.,0.));
#308=CARTESIAN_POINT('',(62.,0.,0.));
#309=CARTESIAN_POINT('',(0.,0.,0.));
#310=CARTESIAN_POINT('',(0.,0.,-55.));
#311=CARTESIAN_POINT('',(9.,0.,0.));
#312=CARTESIAN_POINT('',(9.,0.,-55.));
#313=CARTESIAN_POINT('',(0.,55.,0.));
#314=CARTESIAN_POINT('',(0.,0.,0.));
#315=CARTESIAN_POINT('',(0.,0.,-45.));
#316=CARTESIAN_POINT('',(62.,0.,0.));
#317=CARTESIAN_POINT('',(9.,0.,0.));
#318=CARTESIAN_POINT('',(9.,0.,-45.));
#319=CARTESIAN_POINT('',(9.,0.,0.));
#320=CARTESIAN_POINT('',(14.452,0.,0.));
#321=CARTESIAN_POINT('',(14.452,0.,-39.2));
#322=CARTESIAN_POINT('',(62.,0.,0.));
#323=CARTESIAN_POINT('',(27.8000000000001,0.,0.));
#324=CARTESIAN_POINT('',(27.8000000000001,0.,-39.2));
#325=CARTESIAN_POINT('',(27.8000000000001,0.,0.));
#326=CARTESIAN_POINT('',(37.2,0.,0.));
#327=CARTESIAN_POINT('',(37.2,0.,-31.7));
#328=CARTESIAN_POINT('',(62.,0.,0.));
#329=CARTESIAN_POINT('',(46.6,0.,0.));
#330=CARTESIAN_POINT('',(46.6,0.,-31.7));
#331=CARTESIAN_POINT('',(46.6,0.,0.));
#332=CARTESIAN_POINT('',(56.,0.,0.));
#333=CARTESIAN_POINT('',(56.,0.,-25.7));
#334=CARTESIAN_POINT('',(62.,0.,0.));
#335=CARTESIAN_POINT('',(62.,0.,0.));
#336=CARTESIAN_POINT('',(62.,0.,-25.7));
#337=CARTESIAN_POINT('',(62.,25.7,0.));
#338=CARTESIAN_POINT('',(62.,0.,0.));
#339=CARTESIAN_POINT('',(62.,0.,-31.5));
#340=CARTESIAN_POINT('',(62.,0.,0.));
#341=CARTESIAN_POINT('',(56.,0.,0.));
#342=CARTESIAN_POINT('',(56.,0.,-31.5));
#343=CARTESIAN_POINT('',(56.,0.,0.));
#344=CARTESIAN_POINT('',(46.6,0.,0.));
#345=CARTESIAN_POINT('',(46.6,0.,-37.5));
#346=CARTESIAN_POINT('',(62.,0.,0.));
#347=CARTESIAN_POINT('',(37.2,0.,0.));
#348=CARTESIAN_POINT('',(37.2,0.,-37.5));
#349=CARTESIAN_POINT('',(37.2,0.,0.));
#350=CARTESIAN_POINT('',(27.8000000000001,0.,0.));
#351=CARTESIAN_POINT('',(27.8000000000001,0.,-45.));
#352=CARTESIAN_POINT('',(62.,0.,0.));
#353=CARTESIAN_POINT('',(18.4,0.,0.));
#354=CARTESIAN_POINT('',(18.4,0.,-45.));
#355=CARTESIAN_POINT('',(18.4,0.,0.));
#356=MECHANICAL_DESIGN_GEOMETRIC_PRESENTATION_REPRESENTATION('',(#197),
#357);
#357=(
GEOMETRIC_REPRESENTATION_CONTEXT(3)
GLOBAL_UNCERTAINTY_ASSIGNED_CONTEXT((#358))
GLOBAL_UNIT_ASSIGNED_CONTEXT((#361,#360,#359))
REPRESENTATION_CONTEXT('16007116311(architecture400)',
'TOP_LEVEL_ASSEMBLY_PART')
);
#358=UNCERTAINTY_MEASURE_WITH_UNIT(LENGTH_MEASURE(0.005),#361,
'DISTANCE_ACCURACY_VALUE','Maximum Tolerance applied to model');
#359=(
NAMED_UNIT(*)
SI_UNIT($,.STERADIAN.)
SOLID_ANGLE_UNIT()
);
#360=(
NAMED_UNIT(*)
PLANE_ANGLE_UNIT()
SI_UNIT($,.RADIAN.)
);
#361=(
LENGTH_UNIT()
NAMED_UNIT(*)
SI_UNIT(.MILLI.,.METRE.)
);
#362=PRODUCT_DEFINITION_SHAPE('','',#363);
#363=PRODUCT_DEFINITION('','',#365,#364);
#364=DESIGN_CONTEXT('',#371,'design');
#365=PRODUCT_DEFINITION_FORMATION_WITH_SPECIFIED_SOURCE('','',#367,
 .NOT_KNOWN.);
#366=PRODUCT_RELATED_PRODUCT_CATEGORY('','',(#367));
#367=PRODUCT('16007116311(architecture400)',
'16007116311(architecture400)','16007116311(architecture400)',(#369));
#368=PRODUCT_CATEGORY('','');
#369=MECHANICAL_CONTEXT('',#371,'mechanical');
#370=APPLICATION_PROTOCOL_DEFINITION('international standard',
'config_control_design',2010,#371);
#371=APPLICATION_CONTEXT(
'configuration controlled 3D designs of mechanical parts and assemblie
s');
ENDSEC;
END-ISO-10303-21;
