ISO-10303-21;
HEADER;
FILE_DESCRIPTION( ( '' ), '1' );
FILE_NAME( '//se01002/users/anro/AGRU_25705005011_PE_100_schwarz_Rohr__5m_50X4_6__SDR11__ISO_S-5_05.stp', '2017-12-11T09:34:20', ( '' ), ( '' ), ' ', ' ', ' ' );
FILE_SCHEMA( ( 'automotive_design' ) );
ENDSEC;
DATA;
#1 = MECHANICAL_DESIGN_GEOMETRIC_PRESENTATION_REPRESENTATION( ' ', ( #10, #11, #12, #13, #14, #15, #16, #17, #18, #19, #20, #21, #22, #23, #24, #25, #26, #27, #28, #29, #30, #31, #32, #33, #34, #35, #36 ), #6 );
#2 = PRODUCT_DEFINITION_CONTEXT( '', #37, 'design' );
#3 = APPLICATION_PROTOCOL_DEFINITION( 'INTERNATIONAL STANDARD', 'automotive_design', 1994, #37 );
#4 = PRODUCT_CATEGORY_RELATIONSHIP( 'NONE', 'NONE', #38, #39 );
#5 = SHAPE_DEFINITION_REPRESENTATION( #40, #41 );
#6 =  ( GEOMETRIC_REPRESENTATION_CONTEXT( 3 )GLOBAL_UNCERTAINTY_ASSIGNED_CONTEXT( ( #44 ) )GLOBAL_UNIT_ASSIGNED_CONTEXT( ( #46, #47, #48 ) )REPRESENTATION_CONTEXT( 'NONE', 'WORKSPACE' ) );
#10 = STYLED_ITEM( '', ( #50 ), #51 );
#11 = STYLED_ITEM( '', ( #52 ), #53 );
#12 = STYLED_ITEM( '', ( #54 ), #55 );
#13 = STYLED_ITEM( '', ( #56 ), #57 );
#14 = STYLED_ITEM( '', ( #58 ), #59 );
#15 = STYLED_ITEM( '', ( #60 ), #61 );
#16 = STYLED_ITEM( '', ( #62 ), #63 );
#17 = STYLED_ITEM( '', ( #64 ), #65 );
#18 = STYLED_ITEM( '', ( #66 ), #67 );
#19 = STYLED_ITEM( '', ( #68 ), #69 );
#20 = STYLED_ITEM( '', ( #70 ), #71 );
#21 = STYLED_ITEM( '', ( #72 ), #73 );
#22 = STYLED_ITEM( '', ( #74 ), #75 );
#23 = STYLED_ITEM( '', ( #76 ), #77 );
#24 = STYLED_ITEM( '', ( #78 ), #79 );
#25 = STYLED_ITEM( '', ( #80 ), #81 );
#26 = STYLED_ITEM( '', ( #82 ), #83 );
#27 = STYLED_ITEM( '', ( #84 ), #85 );
#28 = STYLED_ITEM( '', ( #86 ), #87 );
#29 = STYLED_ITEM( '', ( #88 ), #89 );
#30 = STYLED_ITEM( '', ( #90 ), #91 );
#31 = STYLED_ITEM( '', ( #92 ), #93 );
#32 = STYLED_ITEM( '', ( #94 ), #95 );
#33 = STYLED_ITEM( '', ( #96 ), #97 );
#34 = STYLED_ITEM( '', ( #98 ), #99 );
#35 = STYLED_ITEM( '', ( #100 ), #101 );
#36 = STYLED_ITEM( '', ( #102 ), #103 );
#37 = APPLICATION_CONTEXT( ' ' );
#38 = PRODUCT_CATEGORY( 'part', 'NONE' );
#39 = PRODUCT_RELATED_PRODUCT_CATEGORY( 'detail', ' ', ( #104 ) );
#40 = PRODUCT_DEFINITION_SHAPE( 'NONE', 'NONE', #105 );
#41 = ADVANCED_BREP_SHAPE_REPRESENTATION( '1', ( #77, #106 ), #6 );
#44 = UNCERTAINTY_MEASURE_WITH_UNIT( LENGTH_MEASURE( 1.00000000000000E-006 ), #46, '', '' );
#46 =  ( CONVERSION_BASED_UNIT( 'MILLIMETRE', #109 )LENGTH_UNIT(  )NAMED_UNIT( #112 ) );
#47 =  ( NAMED_UNIT( #114 )PLANE_ANGLE_UNIT(  )SI_UNIT( $, .RADIAN. ) );
#48 =  ( NAMED_UNIT( #114 )SOLID_ANGLE_UNIT(  )SI_UNIT( $, .STERADIAN. ) );
#50 = PRESENTATION_STYLE_ASSIGNMENT( ( #120 ) );
#51 = ADVANCED_FACE( '', ( #121 ), #122, .F. );
#52 = PRESENTATION_STYLE_ASSIGNMENT( ( #123 ) );
#53 = EDGE_CURVE( '', #55, #83, #124, .T. );
#54 = PRESENTATION_STYLE_ASSIGNMENT( ( #125 ) );
#55 = VERTEX_POINT( '', #126 );
#56 = PRESENTATION_STYLE_ASSIGNMENT( ( #127 ) );
#57 = VERTEX_POINT( '', #128 );
#58 = PRESENTATION_STYLE_ASSIGNMENT( ( #129 ) );
#59 = EDGE_CURVE( '', #57, #67, #130, .T. );
#60 = PRESENTATION_STYLE_ASSIGNMENT( ( #131 ) );
#61 = EDGE_CURVE( '', #81, #67, #132, .T. );
#62 = PRESENTATION_STYLE_ASSIGNMENT( ( #133 ) );
#63 = EDGE_CURVE( '', #85, #103, #134, .T. );
#64 = PRESENTATION_STYLE_ASSIGNMENT( ( #135 ) );
#65 = EDGE_CURVE( '', #83, #85, #136, .T. );
#66 = PRESENTATION_STYLE_ASSIGNMENT( ( #137 ) );
#67 = VERTEX_POINT( '', #138 );
#68 = PRESENTATION_STYLE_ASSIGNMENT( ( #139 ) );
#69 = EDGE_CURVE( '', #81, #87, #140, .T. );
#70 = PRESENTATION_STYLE_ASSIGNMENT( ( #141 ) );
#71 = EDGE_CURVE( '', #87, #57, #142, .T. );
#72 = PRESENTATION_STYLE_ASSIGNMENT( ( #143 ) );
#73 = EDGE_CURVE( '', #67, #81, #144, .T. );
#74 = PRESENTATION_STYLE_ASSIGNMENT( ( #145 ) );
#75 = ADVANCED_FACE( '', ( #146, #147 ), #148, .T. );
#76 = PRESENTATION_STYLE_ASSIGNMENT( ( #149 ) );
#77 = MANIFOLD_SOLID_BREP( '1', #150 );
#78 = PRESENTATION_STYLE_ASSIGNMENT( ( #151 ) );
#79 = EDGE_CURVE( '', #85, #83, #152, .T. );
#80 = PRESENTATION_STYLE_ASSIGNMENT( ( #153 ) );
#81 = VERTEX_POINT( '', #154 );
#82 = PRESENTATION_STYLE_ASSIGNMENT( ( #155 ) );
#83 = VERTEX_POINT( '', #156 );
#84 = PRESENTATION_STYLE_ASSIGNMENT( ( #157 ) );
#85 = VERTEX_POINT( '', #158 );
#86 = PRESENTATION_STYLE_ASSIGNMENT( ( #159 ) );
#87 = VERTEX_POINT( '', #160 );
#88 = PRESENTATION_STYLE_ASSIGNMENT( ( #161 ) );
#89 = ADVANCED_FACE( '', ( #162 ), #163, .F. );
#90 = PRESENTATION_STYLE_ASSIGNMENT( ( #164 ) );
#91 = EDGE_CURVE( '', #103, #55, #165, .T. );
#92 = PRESENTATION_STYLE_ASSIGNMENT( ( #166 ) );
#93 = EDGE_CURVE( '', #57, #87, #167, .T. );
#94 = PRESENTATION_STYLE_ASSIGNMENT( ( #168 ) );
#95 = ADVANCED_FACE( '', ( #169 ), #170, .T. );
#96 = PRESENTATION_STYLE_ASSIGNMENT( ( #171 ) );
#97 = ADVANCED_FACE( '', ( #172, #173 ), #174, .F. );
#98 = PRESENTATION_STYLE_ASSIGNMENT( ( #175 ) );
#99 = EDGE_CURVE( '', #55, #103, #176, .T. );
#100 = PRESENTATION_STYLE_ASSIGNMENT( ( #177 ) );
#101 = ADVANCED_FACE( '', ( #178 ), #179, .T. );
#102 = PRESENTATION_STYLE_ASSIGNMENT( ( #180 ) );
#103 = VERTEX_POINT( '', #181 );
#104 = PRODUCT( '1', '1', 'PART-1-DESC', ( #182 ) );
#105 = PRODUCT_DEFINITION( 'NONE', 'NONE', #183, #2 );
#106 = AXIS2_PLACEMENT_3D( '', #184, #185, #186 );
#109 = LENGTH_MEASURE_WITH_UNIT( LENGTH_MEASURE( 1.00000000000000 ), #187 );
#112 = DIMENSIONAL_EXPONENTS( 1.00000000000000, 0.000000000000000, 0.000000000000000, 0.000000000000000, 0.000000000000000, 0.000000000000000, 0.000000000000000 );
#114 = DIMENSIONAL_EXPONENTS( 0.000000000000000, 0.000000000000000, 0.000000000000000, 0.000000000000000, 0.000000000000000, 0.000000000000000, 0.000000000000000 );
#120 = SURFACE_STYLE_USAGE( .BOTH., #188 );
#121 = FACE_OUTER_BOUND( '', #189, .T. );
#122 = CYLINDRICAL_SURFACE( '', #190, 20.4000000000000 );
#123 = CURVE_STYLE( '', #191, POSITIVE_LENGTH_MEASURE( 1.00000000000000E-006 ), #192 );
#124 = LINE( '', #193, #194 );
#125 = POINT_STYLE( ' ', #195, POSITIVE_LENGTH_MEASURE( 1.00000000000000E-006 ), #196 );
#126 = CARTESIAN_POINT( '', ( 5000.00000000000, 2.49819696179765E-015, 20.4000000000000 ) );
#127 = POINT_STYLE( ' ', #197, POSITIVE_LENGTH_MEASURE( 1.00000000000000E-006 ), #198 );
#128 = CARTESIAN_POINT( '', ( 5000.00000000000, 3.06151588455594E-015, 25.0000000000000 ) );
#129 = CURVE_STYLE( '', #199, POSITIVE_LENGTH_MEASURE( 1.00000000000000E-006 ), #200 );
#130 = LINE( '', #201, #202 );
#131 = CURVE_STYLE( '', #203, POSITIVE_LENGTH_MEASURE( 1.00000000000000E-006 ), #204 );
#132 = CIRCLE( '', #205, 25.0000000000000 );
#133 = CURVE_STYLE( '', #206, POSITIVE_LENGTH_MEASURE( 1.00000000000000E-006 ), #207 );
#134 = LINE( '', #208, #209 );
#135 = CURVE_STYLE( '', #210, POSITIVE_LENGTH_MEASURE( 1.00000000000000E-006 ), #211 );
#136 = CIRCLE( '', #212, 20.4000000000000 );
#137 = POINT_STYLE( ' ', #213, POSITIVE_LENGTH_MEASURE( 1.00000000000000E-006 ), #214 );
#138 = CARTESIAN_POINT( '', ( 0.000000000000000, 3.06151588455594E-015, 25.0000000000000 ) );
#139 = CURVE_STYLE( '', #215, POSITIVE_LENGTH_MEASURE( 1.00000000000000E-006 ), #216 );
#140 = LINE( '', #217, #218 );
#141 = CURVE_STYLE( '', #219, POSITIVE_LENGTH_MEASURE( 1.00000000000000E-006 ), #220 );
#142 = CIRCLE( '', #221, 25.0000000000000 );
#143 = CURVE_STYLE( '', #222, POSITIVE_LENGTH_MEASURE( 1.00000000000000E-006 ), #223 );
#144 = CIRCLE( '', #224, 25.0000000000000 );
#145 = SURFACE_STYLE_USAGE( .BOTH., #225 );
#146 = FACE_OUTER_BOUND( '', #226, .T. );
#147 = FACE_BOUND( '', #227, .T. );
#148 = PLANE( '', #228 );
#149 = SURFACE_STYLE_USAGE( .BOTH., #229 );
#150 = CLOSED_SHELL( '', ( #101, #51, #89, #95, #75, #97 ) );
#151 = CURVE_STYLE( '', #230, POSITIVE_LENGTH_MEASURE( 1.00000000000000E-006 ), #231 );
#152 = CIRCLE( '', #232, 20.4000000000000 );
#153 = POINT_STYLE( ' ', #233, POSITIVE_LENGTH_MEASURE( 1.00000000000000E-006 ), #234 );
#154 = CARTESIAN_POINT( '', ( 0.000000000000000, 0.000000000000000, -25.0000000000000 ) );
#155 = POINT_STYLE( ' ', #235, POSITIVE_LENGTH_MEASURE( 1.00000000000000E-006 ), #236 );
#156 = CARTESIAN_POINT( '', ( 0.000000000000000, 2.49819696179765E-015, 20.4000000000000 ) );
#157 = POINT_STYLE( ' ', #237, POSITIVE_LENGTH_MEASURE( 1.00000000000000E-006 ), #238 );
#158 = CARTESIAN_POINT( '', ( 0.000000000000000, 0.000000000000000, -20.4000000000000 ) );
#159 = POINT_STYLE( ' ', #239, POSITIVE_LENGTH_MEASURE( 1.00000000000000E-006 ), #240 );
#160 = CARTESIAN_POINT( '', ( 5000.00000000000, 0.000000000000000, -25.0000000000000 ) );
#161 = SURFACE_STYLE_USAGE( .BOTH., #241 );
#162 = FACE_OUTER_BOUND( '', #242, .T. );
#163 = CYLINDRICAL_SURFACE( '', #243, 20.4000000000000 );
#164 = CURVE_STYLE( '', #244, POSITIVE_LENGTH_MEASURE( 1.00000000000000E-006 ), #245 );
#165 = CIRCLE( '', #246, 20.4000000000000 );
#166 = CURVE_STYLE( '', #247, POSITIVE_LENGTH_MEASURE( 1.00000000000000E-006 ), #248 );
#167 = CIRCLE( '', #249, 25.0000000000000 );
#168 = SURFACE_STYLE_USAGE( .BOTH., #250 );
#169 = FACE_OUTER_BOUND( '', #251, .T. );
#170 = CYLINDRICAL_SURFACE( '', #252, 25.0000000000000 );
#171 = SURFACE_STYLE_USAGE( .BOTH., #253 );
#172 = FACE_OUTER_BOUND( '', #254, .T. );
#173 = FACE_BOUND( '', #255, .T. );
#174 = PLANE( '', #256 );
#175 = CURVE_STYLE( '', #257, POSITIVE_LENGTH_MEASURE( 1.00000000000000E-006 ), #258 );
#176 = CIRCLE( '', #259, 20.4000000000000 );
#177 = SURFACE_STYLE_USAGE( .BOTH., #260 );
#178 = FACE_OUTER_BOUND( '', #261, .T. );
#179 = CYLINDRICAL_SURFACE( '', #262, 25.0000000000000 );
#180 = POINT_STYLE( ' ', #263, POSITIVE_LENGTH_MEASURE( 1.00000000000000E-006 ), #264 );
#181 = CARTESIAN_POINT( '', ( 5000.00000000000, 0.000000000000000, -20.4000000000000 ) );
#182 = PRODUCT_CONTEXT( '', #37, 'mechanical' );
#183 = PRODUCT_DEFINITION_FORMATION_WITH_SPECIFIED_SOURCE( ' ', 'NONE', #104, .NOT_KNOWN. );
#184 = CARTESIAN_POINT( '', ( 0.000000000000000, 0.000000000000000, 0.000000000000000 ) );
#185 = DIRECTION( '', ( 0.000000000000000, 0.000000000000000, 1.00000000000000 ) );
#186 = DIRECTION( '', ( 1.00000000000000, 0.000000000000000, 0.000000000000000 ) );
#187 =  ( NAMED_UNIT( #112 )LENGTH_UNIT(  )SI_UNIT( .MILLI., .METRE. ) );
#188 = SURFACE_SIDE_STYLE( '', ( #266 ) );
#189 = EDGE_LOOP( '', ( #267, #268, #269, #270 ) );
#190 = AXIS2_PLACEMENT_3D( '', #271, #272, #273 );
#191 = DRAUGHTING_PRE_DEFINED_CURVE_FONT( 'continuous' );
#192 = COLOUR_RGB( '', 0.689999997615810, 0.689999997615810, 0.689999997615810 );
#193 = CARTESIAN_POINT( '', ( 0.000000000000000, 2.49819696179765E-015, 20.4000000000000 ) );
#194 = VECTOR( '', #274, 1.00000000000000 );
#195 = PRE_DEFINED_MARKER( '' );
#196 = COLOUR_RGB( '', 0.689999997615810, 0.689999997615810, 0.689999997615810 );
#197 = PRE_DEFINED_MARKER( '' );
#198 = COLOUR_RGB( '', 0.689999997615810, 0.689999997615810, 0.689999997615810 );
#199 = DRAUGHTING_PRE_DEFINED_CURVE_FONT( 'continuous' );
#200 = COLOUR_RGB( '', 0.689999997615810, 0.689999997615810, 0.689999997615810 );
#201 = CARTESIAN_POINT( '', ( 0.000000000000000, 3.06151588455594E-015, 25.0000000000000 ) );
#202 = VECTOR( '', #275, 1.00000000000000 );
#203 = DRAUGHTING_PRE_DEFINED_CURVE_FONT( 'continuous' );
#204 = COLOUR_RGB( '', 0.689999997615810, 0.689999997615810, 0.689999997615810 );
#205 = AXIS2_PLACEMENT_3D( '', #276, #277, #278 );
#206 = DRAUGHTING_PRE_DEFINED_CURVE_FONT( 'continuous' );
#207 = COLOUR_RGB( '', 0.689999997615810, 0.689999997615810, 0.689999997615810 );
#208 = CARTESIAN_POINT( '', ( 0.000000000000000, -2.49819696179765E-015, -20.4000000000000 ) );
#209 = VECTOR( '', #279, 1.00000000000000 );
#210 = DRAUGHTING_PRE_DEFINED_CURVE_FONT( 'continuous' );
#211 = COLOUR_RGB( '', 0.689999997615810, 0.689999997615810, 0.689999997615810 );
#212 = AXIS2_PLACEMENT_3D( '', #280, #281, #282 );
#213 = PRE_DEFINED_MARKER( '' );
#214 = COLOUR_RGB( '', 0.689999997615810, 0.689999997615810, 0.689999997615810 );
#215 = DRAUGHTING_PRE_DEFINED_CURVE_FONT( 'continuous' );
#216 = COLOUR_RGB( '', 0.689999997615810, 0.689999997615810, 0.689999997615810 );
#217 = CARTESIAN_POINT( '', ( 0.000000000000000, -3.06151588455594E-015, -25.0000000000000 ) );
#218 = VECTOR( '', #283, 1.00000000000000 );
#219 = DRAUGHTING_PRE_DEFINED_CURVE_FONT( 'continuous' );
#220 = COLOUR_RGB( '', 0.689999997615810, 0.689999997615810, 0.689999997615810 );
#221 = AXIS2_PLACEMENT_3D( '', #284, #285, #286 );
#222 = DRAUGHTING_PRE_DEFINED_CURVE_FONT( 'continuous' );
#223 = COLOUR_RGB( '', 0.689999997615810, 0.689999997615810, 0.689999997615810 );
#224 = AXIS2_PLACEMENT_3D( '', #287, #288, #289 );
#225 = SURFACE_SIDE_STYLE( '', ( #290 ) );
#226 = EDGE_LOOP( '', ( #291, #292 ) );
#227 = EDGE_LOOP( '', ( #293, #294 ) );
#228 = AXIS2_PLACEMENT_3D( '', #295, #296, #297 );
#229 = SURFACE_SIDE_STYLE( '', ( #298 ) );
#230 = DRAUGHTING_PRE_DEFINED_CURVE_FONT( 'continuous' );
#231 = COLOUR_RGB( '', 0.689999997615810, 0.689999997615810, 0.689999997615810 );
#232 = AXIS2_PLACEMENT_3D( '', #299, #300, #301 );
#233 = PRE_DEFINED_MARKER( '' );
#234 = COLOUR_RGB( '', 0.689999997615810, 0.689999997615810, 0.689999997615810 );
#235 = PRE_DEFINED_MARKER( '' );
#236 = COLOUR_RGB( '', 0.689999997615810, 0.689999997615810, 0.689999997615810 );
#237 = PRE_DEFINED_MARKER( '' );
#238 = COLOUR_RGB( '', 0.689999997615810, 0.689999997615810, 0.689999997615810 );
#239 = PRE_DEFINED_MARKER( '' );
#240 = COLOUR_RGB( '', 0.689999997615810, 0.689999997615810, 0.689999997615810 );
#241 = SURFACE_SIDE_STYLE( '', ( #302 ) );
#242 = EDGE_LOOP( '', ( #303, #304, #305, #306 ) );
#243 = AXIS2_PLACEMENT_3D( '', #307, #308, #309 );
#244 = DRAUGHTING_PRE_DEFINED_CURVE_FONT( 'continuous' );
#245 = COLOUR_RGB( '', 0.689999997615810, 0.689999997615810, 0.689999997615810 );
#246 = AXIS2_PLACEMENT_3D( '', #310, #311, #312 );
#247 = DRAUGHTING_PRE_DEFINED_CURVE_FONT( 'continuous' );
#248 = COLOUR_RGB( '', 0.689999997615810, 0.689999997615810, 0.689999997615810 );
#249 = AXIS2_PLACEMENT_3D( '', #313, #314, #315 );
#250 = SURFACE_SIDE_STYLE( '', ( #316 ) );
#251 = EDGE_LOOP( '', ( #317, #318, #319, #320 ) );
#252 = AXIS2_PLACEMENT_3D( '', #321, #322, #323 );
#253 = SURFACE_SIDE_STYLE( '', ( #324 ) );
#254 = EDGE_LOOP( '', ( #325, #326 ) );
#255 = EDGE_LOOP( '', ( #327, #328 ) );
#256 = AXIS2_PLACEMENT_3D( '', #329, #330, #331 );
#257 = DRAUGHTING_PRE_DEFINED_CURVE_FONT( 'continuous' );
#258 = COLOUR_RGB( '', 0.689999997615810, 0.689999997615810, 0.689999997615810 );
#259 = AXIS2_PLACEMENT_3D( '', #332, #333, #334 );
#260 = SURFACE_SIDE_STYLE( '', ( #335 ) );
#261 = EDGE_LOOP( '', ( #336, #337, #338, #339 ) );
#262 = AXIS2_PLACEMENT_3D( '', #340, #341, #342 );
#263 = PRE_DEFINED_MARKER( '' );
#264 = COLOUR_RGB( '', 0.689999997615810, 0.689999997615810, 0.689999997615810 );
#266 = SURFACE_STYLE_FILL_AREA( #343 );
#267 = ORIENTED_EDGE( '', *, *, #63, .F. );
#268 = ORIENTED_EDGE( '', *, *, #65, .F. );
#269 = ORIENTED_EDGE( '', *, *, #53, .F. );
#270 = ORIENTED_EDGE( '', *, *, #99, .T. );
#271 = CARTESIAN_POINT( '', ( 0.000000000000000, 0.000000000000000, 0.000000000000000 ) );
#272 = DIRECTION( '', ( -1.00000000000000, -0.000000000000000, -0.000000000000000 ) );
#273 = DIRECTION( '', ( 0.000000000000000, 0.000000000000000, -1.00000000000000 ) );
#274 = DIRECTION( '', ( -1.00000000000000, 0.000000000000000, 0.000000000000000 ) );
#275 = DIRECTION( '', ( -1.00000000000000, -0.000000000000000, -0.000000000000000 ) );
#276 = CARTESIAN_POINT( '', ( 0.000000000000000, 0.000000000000000, 0.000000000000000 ) );
#277 = DIRECTION( '', ( 1.00000000000000, -0.000000000000000, 0.000000000000000 ) );
#278 = DIRECTION( '', ( 0.000000000000000, 0.000000000000000, -1.00000000000000 ) );
#279 = DIRECTION( '', ( 1.00000000000000, 0.000000000000000, 0.000000000000000 ) );
#280 = CARTESIAN_POINT( '', ( 0.000000000000000, 0.000000000000000, 0.000000000000000 ) );
#281 = DIRECTION( '', ( 1.00000000000000, -0.000000000000000, 0.000000000000000 ) );
#282 = DIRECTION( '', ( 0.000000000000000, 0.000000000000000, -1.00000000000000 ) );
#283 = DIRECTION( '', ( 1.00000000000000, 0.000000000000000, 0.000000000000000 ) );
#284 = CARTESIAN_POINT( '', ( 5000.00000000000, 0.000000000000000, 0.000000000000000 ) );
#285 = DIRECTION( '', ( -1.00000000000000, 0.000000000000000, 0.000000000000000 ) );
#286 = DIRECTION( '', ( 0.000000000000000, 0.000000000000000, -1.00000000000000 ) );
#287 = CARTESIAN_POINT( '', ( 0.000000000000000, 0.000000000000000, 0.000000000000000 ) );
#288 = DIRECTION( '', ( 1.00000000000000, -0.000000000000000, 0.000000000000000 ) );
#289 = DIRECTION( '', ( 0.000000000000000, 0.000000000000000, -1.00000000000000 ) );
#290 = SURFACE_STYLE_FILL_AREA( #344 );
#291 = ORIENTED_EDGE( '', *, *, #71, .F. );
#292 = ORIENTED_EDGE( '', *, *, #93, .F. );
#293 = ORIENTED_EDGE( '', *, *, #91, .F. );
#294 = ORIENTED_EDGE( '', *, *, #99, .F. );
#295 = CARTESIAN_POINT( '', ( 5000.00000000000, 0.000000000000000, 0.000000000000000 ) );
#296 = DIRECTION( '', ( 1.00000000000000, 0.000000000000000, 0.000000000000000 ) );
#297 = DIRECTION( '', ( 0.000000000000000, 0.000000000000000, -1.00000000000000 ) );
#298 = SURFACE_STYLE_FILL_AREA( #345 );
#299 = CARTESIAN_POINT( '', ( 0.000000000000000, 0.000000000000000, 0.000000000000000 ) );
#300 = DIRECTION( '', ( 1.00000000000000, -0.000000000000000, 0.000000000000000 ) );
#301 = DIRECTION( '', ( 0.000000000000000, 0.000000000000000, -1.00000000000000 ) );
#302 = SURFACE_STYLE_FILL_AREA( #346 );
#303 = ORIENTED_EDGE( '', *, *, #63, .T. );
#304 = ORIENTED_EDGE( '', *, *, #91, .T. );
#305 = ORIENTED_EDGE( '', *, *, #53, .T. );
#306 = ORIENTED_EDGE( '', *, *, #79, .F. );
#307 = CARTESIAN_POINT( '', ( 0.000000000000000, 0.000000000000000, 0.000000000000000 ) );
#308 = DIRECTION( '', ( -1.00000000000000, -0.000000000000000, -0.000000000000000 ) );
#309 = DIRECTION( '', ( 0.000000000000000, 0.000000000000000, -1.00000000000000 ) );
#310 = CARTESIAN_POINT( '', ( 5000.00000000000, 0.000000000000000, 0.000000000000000 ) );
#311 = DIRECTION( '', ( 1.00000000000000, 0.000000000000000, 0.000000000000000 ) );
#312 = DIRECTION( '', ( 0.000000000000000, 0.000000000000000, -1.00000000000000 ) );
#313 = CARTESIAN_POINT( '', ( 5000.00000000000, 0.000000000000000, 0.000000000000000 ) );
#314 = DIRECTION( '', ( -1.00000000000000, 0.000000000000000, 0.000000000000000 ) );
#315 = DIRECTION( '', ( 0.000000000000000, 0.000000000000000, -1.00000000000000 ) );
#316 = SURFACE_STYLE_FILL_AREA( #347 );
#317 = ORIENTED_EDGE( '', *, *, #69, .T. );
#318 = ORIENTED_EDGE( '', *, *, #71, .T. );
#319 = ORIENTED_EDGE( '', *, *, #59, .T. );
#320 = ORIENTED_EDGE( '', *, *, #73, .T. );
#321 = CARTESIAN_POINT( '', ( 0.000000000000000, 0.000000000000000, 0.000000000000000 ) );
#322 = DIRECTION( '', ( -1.00000000000000, -0.000000000000000, -0.000000000000000 ) );
#323 = DIRECTION( '', ( 0.000000000000000, 0.000000000000000, -1.00000000000000 ) );
#324 = SURFACE_STYLE_FILL_AREA( #348 );
#325 = ORIENTED_EDGE( '', *, *, #61, .F. );
#326 = ORIENTED_EDGE( '', *, *, #73, .F. );
#327 = ORIENTED_EDGE( '', *, *, #79, .T. );
#328 = ORIENTED_EDGE( '', *, *, #65, .T. );
#329 = CARTESIAN_POINT( '', ( 0.000000000000000, 0.000000000000000, 0.000000000000000 ) );
#330 = DIRECTION( '', ( 1.00000000000000, 0.000000000000000, 0.000000000000000 ) );
#331 = DIRECTION( '', ( 0.000000000000000, 0.000000000000000, -1.00000000000000 ) );
#332 = CARTESIAN_POINT( '', ( 5000.00000000000, 0.000000000000000, 0.000000000000000 ) );
#333 = DIRECTION( '', ( 1.00000000000000, 0.000000000000000, 0.000000000000000 ) );
#334 = DIRECTION( '', ( 0.000000000000000, 0.000000000000000, -1.00000000000000 ) );
#335 = SURFACE_STYLE_FILL_AREA( #349 );
#336 = ORIENTED_EDGE( '', *, *, #69, .F. );
#337 = ORIENTED_EDGE( '', *, *, #61, .T. );
#338 = ORIENTED_EDGE( '', *, *, #59, .F. );
#339 = ORIENTED_EDGE( '', *, *, #93, .T. );
#340 = CARTESIAN_POINT( '', ( 0.000000000000000, 0.000000000000000, 0.000000000000000 ) );
#341 = DIRECTION( '', ( -1.00000000000000, -0.000000000000000, -0.000000000000000 ) );
#342 = DIRECTION( '', ( 0.000000000000000, 0.000000000000000, -1.00000000000000 ) );
#343 = FILL_AREA_STYLE( '', ( #350 ) );
#344 = FILL_AREA_STYLE( '', ( #351 ) );
#345 = FILL_AREA_STYLE( '', ( #352 ) );
#346 = FILL_AREA_STYLE( '', ( #353 ) );
#347 = FILL_AREA_STYLE( '', ( #354 ) );
#348 = FILL_AREA_STYLE( '', ( #355 ) );
#349 = FILL_AREA_STYLE( '', ( #356 ) );
#350 = FILL_AREA_STYLE_COLOUR( '', #357 );
#351 = FILL_AREA_STYLE_COLOUR( '', #358 );
#352 = FILL_AREA_STYLE_COLOUR( '', #359 );
#353 = FILL_AREA_STYLE_COLOUR( '', #360 );
#354 = FILL_AREA_STYLE_COLOUR( '', #361 );
#355 = FILL_AREA_STYLE_COLOUR( '', #362 );
#356 = FILL_AREA_STYLE_COLOUR( '', #363 );
#357 = COLOUR_RGB( '', 0.689999997615810, 0.689999997615810, 0.689999997615810 );
#358 = COLOUR_RGB( '', 0.689999997615810, 0.689999997615810, 0.689999997615810 );
#359 = COLOUR_RGB( '', 0.689999997615810, 0.689999997615810, 0.689999997615810 );
#360 = COLOUR_RGB( '', 0.689999997615810, 0.689999997615810, 0.689999997615810 );
#361 = COLOUR_RGB( '', 0.689999997615810, 0.689999997615810, 0.689999997615810 );
#362 = COLOUR_RGB( '', 0.689999997615810, 0.689999997615810, 0.689999997615810 );
#363 = COLOUR_RGB( '', 0.689999997615810, 0.689999997615810, 0.689999997615810 );
ENDSEC;
END-ISO-10303-21;
