ISO-10303-21;
HEADER;
/* Generated by software containing ST-Developer
 * from STEP Tools, Inc. (www.steptools.com) 
 */

FILE_DESCRIPTION(
/* description */ (''),
/* implementation_level */ '2;1');

FILE_NAME(
/* name */ 
'Q:\\Ric010\\FF7\\FIPlastiCAD\\FIP\\Lavoro\\PVC Fittings\\PVC Fittings
 STEP\\NFV\\NFV300.ipt.stp',
/* time_stamp */ '2013-10-01T14:48:15+02:00',
/* author */ ('bfaro'),
/* organization */ (''),
/* preprocessor_version */ 'ST-DEVELOPER v15.2',
/* originating_system */ 'Autodesk Inventor 2014',
/* authorisation */ '');

FILE_SCHEMA (('AUTOMOTIVE_DESIGN { 1 0 10303 214 3 1 1 }'));
ENDSEC;

DATA;
#10=SHAPE_REPRESENTATION_RELATIONSHIP('SRR','None',#425,#11);
#11=ADVANCED_BREP_SHAPE_REPRESENTATION($,(#256),#416);
#12=LINE($,#366,#36);
#13=LINE($,#368,#37);
#14=LINE($,#370,#38);
#15=LINE($,#372,#39);
#16=LINE($,#374,#40);
#17=LINE($,#376,#41);
#18=LINE($,#378,#42);
#19=LINE($,#379,#43);
#20=LINE($,#382,#44);
#21=LINE($,#384,#45);
#22=LINE($,#385,#46);
#23=LINE($,#388,#47);
#24=LINE($,#389,#48);
#25=LINE($,#392,#49);
#26=LINE($,#393,#50);
#27=LINE($,#396,#51);
#28=LINE($,#397,#52);
#29=LINE($,#401,#53);
#30=LINE($,#403,#54);
#31=LINE($,#404,#55);
#32=LINE($,#405,#56);
#33=LINE($,#407,#57);
#34=LINE($,#409,#58);
#35=LINE($,#411,#59);
#36=VECTOR($,#301,39.350288425444);
#37=VECTOR($,#302,39.350288425444);
#38=VECTOR($,#303,39.350288425444);
#39=VECTOR($,#304,39.350288425444);
#40=VECTOR($,#305,39.350288425444);
#41=VECTOR($,#306,39.350288425444);
#42=VECTOR($,#307,39.350288425444);
#43=VECTOR($,#308,39.350288425444);
#44=VECTOR($,#311,18.4);
#45=VECTOR($,#312,39.350288425444);
#46=VECTOR($,#313,18.4);
#47=VECTOR($,#316,18.4);
#48=VECTOR($,#317,39.350288425444);
#49=VECTOR($,#320,18.4);
#50=VECTOR($,#321,39.350288425444);
#51=VECTOR($,#324,18.4);
#52=VECTOR($,#325,39.350288425444);
#53=VECTOR($,#328,39.350288425444);
#54=VECTOR($,#329,39.350288425444);
#55=VECTOR($,#330,39.350288425444);
#56=VECTOR($,#331,39.350288425444);
#57=VECTOR($,#334,18.4);
#58=VECTOR($,#337,18.4);
#59=VECTOR($,#340,18.4);
#60=PLANE($,#267);
#61=PLANE($,#268);
#62=PLANE($,#269);
#63=PLANE($,#270);
#64=PLANE($,#271);
#65=PLANE($,#272);
#66=PLANE($,#273);
#67=PLANE($,#274);
#68=PLANE($,#275);
#69=PLANE($,#276);
#70=PLANE($,#277);
#71=PLANE($,#278);
#72=STYLED_ITEM($,(#434),#241);
#73=STYLED_ITEM($,(#434),#242);
#74=STYLED_ITEM($,(#433),#256);
#75=FACE_BOUND($,#98,.T.);
#76=FACE_BOUND($,#100,.T.);
#77=FACE_BOUND($,#102,.T.);
#78=FACE_BOUND($,#104,.T.);
#79=FACE_BOUND($,#110,.T.);
#80=FACE_BOUND($,#116,.T.);
#81=FACE_BOUND($,#118,.T.);
#82=FACE_OUTER_BOUND($,#97,.T.);
#83=FACE_OUTER_BOUND($,#99,.T.);
#84=FACE_OUTER_BOUND($,#101,.T.);
#85=FACE_OUTER_BOUND($,#103,.T.);
#86=FACE_OUTER_BOUND($,#105,.T.);
#87=FACE_OUTER_BOUND($,#106,.T.);
#88=FACE_OUTER_BOUND($,#107,.T.);
#89=FACE_OUTER_BOUND($,#108,.T.);
#90=FACE_OUTER_BOUND($,#109,.T.);
#91=FACE_OUTER_BOUND($,#111,.T.);
#92=FACE_OUTER_BOUND($,#112,.T.);
#93=FACE_OUTER_BOUND($,#113,.T.);
#94=FACE_OUTER_BOUND($,#114,.T.);
#95=FACE_OUTER_BOUND($,#115,.T.);
#96=FACE_OUTER_BOUND($,#117,.T.);
#97=EDGE_LOOP($,(#177));
#98=EDGE_LOOP($,(#178));
#99=EDGE_LOOP($,(#179));
#100=EDGE_LOOP($,(#180));
#101=EDGE_LOOP($,(#181));
#102=EDGE_LOOP($,(#182));
#103=EDGE_LOOP($,(#183,#184,#185,#186,#187,#188,#189,#190));
#104=EDGE_LOOP($,(#191));
#105=EDGE_LOOP($,(#192,#193,#194,#195));
#106=EDGE_LOOP($,(#196,#197,#198,#199));
#107=EDGE_LOOP($,(#200,#201,#202,#203));
#108=EDGE_LOOP($,(#204,#205,#206,#207));
#109=EDGE_LOOP($,(#208,#209,#210,#211,#212,#213,#214,#215));
#110=EDGE_LOOP($,(#216));
#111=EDGE_LOOP($,(#217,#218,#219,#220));
#112=EDGE_LOOP($,(#221,#222,#223,#224));
#113=EDGE_LOOP($,(#225,#226,#227,#228));
#114=EDGE_LOOP($,(#229,#230,#231,#232));
#115=EDGE_LOOP($,(#233));
#116=EDGE_LOOP($,(#234));
#117=EDGE_LOOP($,(#235));
#118=EDGE_LOOP($,(#236));
#119=CIRCLE($,#259,37.);
#120=CIRCLE($,#260,37.);
#121=CIRCLE($,#262,43.95);
#122=CIRCLE($,#263,43.95);
#123=CIRCLE($,#265,43.95);
#124=CIRCLE($,#266,43.95);
#125=VERTEX_POINT($,#349);
#126=VERTEX_POINT($,#351);
#127=VERTEX_POINT($,#354);
#128=VERTEX_POINT($,#356);
#129=VERTEX_POINT($,#359);
#130=VERTEX_POINT($,#361);
#131=VERTEX_POINT($,#364);
#132=VERTEX_POINT($,#365);
#133=VERTEX_POINT($,#367);
#134=VERTEX_POINT($,#369);
#135=VERTEX_POINT($,#371);
#136=VERTEX_POINT($,#373);
#137=VERTEX_POINT($,#375);
#138=VERTEX_POINT($,#377);
#139=VERTEX_POINT($,#381);
#140=VERTEX_POINT($,#383);
#141=VERTEX_POINT($,#387);
#142=VERTEX_POINT($,#391);
#143=VERTEX_POINT($,#395);
#144=VERTEX_POINT($,#399);
#145=VERTEX_POINT($,#400);
#146=VERTEX_POINT($,#402);
#147=EDGE_CURVE($,#125,#125,#119,.T.);
#148=EDGE_CURVE($,#126,#126,#120,.T.);
#149=EDGE_CURVE($,#127,#127,#121,.T.);
#150=EDGE_CURVE($,#128,#128,#122,.T.);
#151=EDGE_CURVE($,#129,#129,#123,.T.);
#152=EDGE_CURVE($,#130,#130,#124,.T.);
#153=EDGE_CURVE($,#131,#132,#12,.T.);
#154=EDGE_CURVE($,#133,#131,#13,.T.);
#155=EDGE_CURVE($,#134,#133,#14,.T.);
#156=EDGE_CURVE($,#135,#134,#15,.T.);
#157=EDGE_CURVE($,#136,#135,#16,.T.);
#158=EDGE_CURVE($,#137,#136,#17,.T.);
#159=EDGE_CURVE($,#138,#137,#18,.T.);
#160=EDGE_CURVE($,#132,#138,#19,.T.);
#161=EDGE_CURVE($,#139,#133,#20,.T.);
#162=EDGE_CURVE($,#139,#140,#21,.T.);
#163=EDGE_CURVE($,#140,#134,#22,.T.);
#164=EDGE_CURVE($,#141,#131,#23,.T.);
#165=EDGE_CURVE($,#141,#139,#24,.T.);
#166=EDGE_CURVE($,#142,#132,#25,.T.);
#167=EDGE_CURVE($,#142,#141,#26,.T.);
#168=EDGE_CURVE($,#143,#138,#27,.T.);
#169=EDGE_CURVE($,#143,#142,#28,.T.);
#170=EDGE_CURVE($,#144,#145,#29,.T.);
#171=EDGE_CURVE($,#146,#144,#30,.T.);
#172=EDGE_CURVE($,#140,#146,#31,.T.);
#173=EDGE_CURVE($,#145,#143,#32,.T.);
#174=EDGE_CURVE($,#146,#135,#33,.T.);
#175=EDGE_CURVE($,#144,#136,#34,.T.);
#176=EDGE_CURVE($,#145,#137,#35,.T.);
#177=ORIENTED_EDGE($,*,*,#147,.F.);
#178=ORIENTED_EDGE($,*,*,#148,.F.);
#179=ORIENTED_EDGE($,*,*,#149,.F.);
#180=ORIENTED_EDGE($,*,*,#150,.T.);
#181=ORIENTED_EDGE($,*,*,#151,.F.);
#182=ORIENTED_EDGE($,*,*,#152,.F.);
#183=ORIENTED_EDGE($,*,*,#153,.F.);
#184=ORIENTED_EDGE($,*,*,#154,.F.);
#185=ORIENTED_EDGE($,*,*,#155,.F.);
#186=ORIENTED_EDGE($,*,*,#156,.F.);
#187=ORIENTED_EDGE($,*,*,#157,.F.);
#188=ORIENTED_EDGE($,*,*,#158,.F.);
#189=ORIENTED_EDGE($,*,*,#159,.F.);
#190=ORIENTED_EDGE($,*,*,#160,.F.);
#191=ORIENTED_EDGE($,*,*,#151,.T.);
#192=ORIENTED_EDGE($,*,*,#155,.T.);
#193=ORIENTED_EDGE($,*,*,#161,.F.);
#194=ORIENTED_EDGE($,*,*,#162,.T.);
#195=ORIENTED_EDGE($,*,*,#163,.T.);
#196=ORIENTED_EDGE($,*,*,#154,.T.);
#197=ORIENTED_EDGE($,*,*,#164,.F.);
#198=ORIENTED_EDGE($,*,*,#165,.T.);
#199=ORIENTED_EDGE($,*,*,#161,.T.);
#200=ORIENTED_EDGE($,*,*,#153,.T.);
#201=ORIENTED_EDGE($,*,*,#166,.F.);
#202=ORIENTED_EDGE($,*,*,#167,.T.);
#203=ORIENTED_EDGE($,*,*,#164,.T.);
#204=ORIENTED_EDGE($,*,*,#160,.T.);
#205=ORIENTED_EDGE($,*,*,#168,.F.);
#206=ORIENTED_EDGE($,*,*,#169,.T.);
#207=ORIENTED_EDGE($,*,*,#166,.T.);
#208=ORIENTED_EDGE($,*,*,#170,.F.);
#209=ORIENTED_EDGE($,*,*,#171,.F.);
#210=ORIENTED_EDGE($,*,*,#172,.F.);
#211=ORIENTED_EDGE($,*,*,#162,.F.);
#212=ORIENTED_EDGE($,*,*,#165,.F.);
#213=ORIENTED_EDGE($,*,*,#167,.F.);
#214=ORIENTED_EDGE($,*,*,#169,.F.);
#215=ORIENTED_EDGE($,*,*,#173,.F.);
#216=ORIENTED_EDGE($,*,*,#150,.F.);
#217=ORIENTED_EDGE($,*,*,#156,.T.);
#218=ORIENTED_EDGE($,*,*,#163,.F.);
#219=ORIENTED_EDGE($,*,*,#172,.T.);
#220=ORIENTED_EDGE($,*,*,#174,.T.);
#221=ORIENTED_EDGE($,*,*,#157,.T.);
#222=ORIENTED_EDGE($,*,*,#174,.F.);
#223=ORIENTED_EDGE($,*,*,#171,.T.);
#224=ORIENTED_EDGE($,*,*,#175,.T.);
#225=ORIENTED_EDGE($,*,*,#158,.T.);
#226=ORIENTED_EDGE($,*,*,#175,.F.);
#227=ORIENTED_EDGE($,*,*,#170,.T.);
#228=ORIENTED_EDGE($,*,*,#176,.T.);
#229=ORIENTED_EDGE($,*,*,#159,.T.);
#230=ORIENTED_EDGE($,*,*,#176,.F.);
#231=ORIENTED_EDGE($,*,*,#173,.T.);
#232=ORIENTED_EDGE($,*,*,#168,.T.);
#233=ORIENTED_EDGE($,*,*,#152,.T.);
#234=ORIENTED_EDGE($,*,*,#147,.T.);
#235=ORIENTED_EDGE($,*,*,#149,.T.);
#236=ORIENTED_EDGE($,*,*,#148,.T.);
#237=CYLINDRICAL_SURFACE($,#258,37.);
#238=CYLINDRICAL_SURFACE($,#261,43.95);
#239=CYLINDRICAL_SURFACE($,#264,43.95);
#240=ADVANCED_FACE($,(#82,#75),#237,.F.);
#241=ADVANCED_FACE($,(#83,#76),#238,.T.);
#242=ADVANCED_FACE($,(#84,#77),#239,.T.);
#243=ADVANCED_FACE($,(#85,#78),#60,.T.);
#244=ADVANCED_FACE($,(#86),#61,.T.);
#245=ADVANCED_FACE($,(#87),#62,.T.);
#246=ADVANCED_FACE($,(#88),#63,.T.);
#247=ADVANCED_FACE($,(#89),#64,.T.);
#248=ADVANCED_FACE($,(#90,#79),#65,.F.);
#249=ADVANCED_FACE($,(#91),#66,.T.);
#250=ADVANCED_FACE($,(#92),#67,.T.);
#251=ADVANCED_FACE($,(#93),#68,.T.);
#252=ADVANCED_FACE($,(#94),#69,.T.);
#253=ADVANCED_FACE($,(#95,#80),#70,.T.);
#254=ADVANCED_FACE($,(#96,#81),#71,.T.);
#255=CLOSED_SHELL($,(#240,#241,#242,#243,#244,#245,#246,#247,#248,#249,
#250,#251,#252,#253,#254));
#256=MANIFOLD_SOLID_BREP('93',#255);
#257=AXIS2_PLACEMENT_3D('placement',#347,#279,#280);
#258=AXIS2_PLACEMENT_3D($,#348,#281,#282);
#259=AXIS2_PLACEMENT_3D($,#350,#283,#284);
#260=AXIS2_PLACEMENT_3D($,#352,#285,#286);
#261=AXIS2_PLACEMENT_3D($,#353,#287,#288);
#262=AXIS2_PLACEMENT_3D($,#355,#289,#290);
#263=AXIS2_PLACEMENT_3D($,#357,#291,#292);
#264=AXIS2_PLACEMENT_3D($,#358,#293,#294);
#265=AXIS2_PLACEMENT_3D($,#360,#295,#296);
#266=AXIS2_PLACEMENT_3D($,#362,#297,#298);
#267=AXIS2_PLACEMENT_3D($,#363,#299,#300);
#268=AXIS2_PLACEMENT_3D($,#380,#309,#310);
#269=AXIS2_PLACEMENT_3D($,#386,#314,#315);
#270=AXIS2_PLACEMENT_3D($,#390,#318,#319);
#271=AXIS2_PLACEMENT_3D($,#394,#322,#323);
#272=AXIS2_PLACEMENT_3D($,#398,#326,#327);
#273=AXIS2_PLACEMENT_3D($,#406,#332,#333);
#274=AXIS2_PLACEMENT_3D($,#408,#335,#336);
#275=AXIS2_PLACEMENT_3D($,#410,#338,#339);
#276=AXIS2_PLACEMENT_3D($,#412,#341,#342);
#277=AXIS2_PLACEMENT_3D($,#413,#343,#344);
#278=AXIS2_PLACEMENT_3D($,#414,#345,#346);
#279=DIRECTION('axis',(0.,0.,1.));
#280=DIRECTION('refdir',(1.,0.,0.));
#281=DIRECTION('center_axis',(1.,0.,0.));
#282=DIRECTION('ref_axis',(0.,-1.,0.));
#283=DIRECTION('center_axis',(-1.,0.,0.));
#284=DIRECTION('ref_axis',(0.,-1.,0.));
#285=DIRECTION('center_axis',(1.,0.,0.));
#286=DIRECTION('ref_axis',(0.,-1.,0.));
#287=DIRECTION('center_axis',(-1.,1.224606E-016,0.));
#288=DIRECTION('ref_axis',(1.224606E-016,1.,0.));
#289=DIRECTION('center_axis',(-1.,0.,0.));
#290=DIRECTION('ref_axis',(0.,1.,0.));
#291=DIRECTION('center_axis',(-1.,0.,0.));
#292=DIRECTION('ref_axis',(0.,1.,0.));
#293=DIRECTION('center_axis',(-1.,1.224606E-016,0.));
#294=DIRECTION('ref_axis',(1.224606E-016,1.,0.));
#295=DIRECTION('center_axis',(-1.,0.,0.));
#296=DIRECTION('ref_axis',(0.,1.,0.));
#297=DIRECTION('center_axis',(1.,0.,0.));
#298=DIRECTION('ref_axis',(0.,1.,0.));
#299=DIRECTION('center_axis',(1.,0.,0.));
#300=DIRECTION('ref_axis',(0.,0.,-1.));
#301=DIRECTION($,(0.,0.,1.));
#302=DIRECTION($,(0.,-0.707106781186547,0.707106781186548));
#303=DIRECTION($,(0.,-1.,0.));
#304=DIRECTION($,(0.,-0.707106781186548,-0.707106781186547));
#305=DIRECTION($,(0.,0.,-1.));
#306=DIRECTION($,(0.,0.707106781186547,-0.707106781186548));
#307=DIRECTION($,(0.,1.,0.));
#308=DIRECTION($,(0.,0.707106781186548,0.707106781186547));
#309=DIRECTION('center_axis',(0.,0.,-1.));
#310=DIRECTION('ref_axis',(-1.,0.,0.));
#311=DIRECTION($,(1.,0.,0.));
#312=DIRECTION($,(0.,1.,0.));
#313=DIRECTION($,(1.,0.,0.));
#314=DIRECTION('center_axis',(0.,-0.707106781186548,-0.707106781186547));
#315=DIRECTION('ref_axis',(-1.,0.,0.));
#316=DIRECTION($,(1.,0.,0.));
#317=DIRECTION($,(0.,0.707106781186547,-0.707106781186548));
#318=DIRECTION('center_axis',(0.,-1.,0.));
#319=DIRECTION('ref_axis',(0.,0.,-1.));
#320=DIRECTION($,(1.,0.,0.));
#321=DIRECTION($,(0.,0.,-1.));
#322=DIRECTION('center_axis',(0.,-0.707106781186547,0.707106781186548));
#323=DIRECTION('ref_axis',(1.,0.,0.));
#324=DIRECTION($,(1.,0.,0.));
#325=DIRECTION($,(0.,-0.707106781186548,-0.707106781186547));
#326=DIRECTION('center_axis',(1.,0.,0.));
#327=DIRECTION('ref_axis',(0.,0.,-1.));
#328=DIRECTION($,(0.,-0.707106781186547,0.707106781186548));
#329=DIRECTION($,(0.,0.,1.));
#330=DIRECTION($,(0.,0.707106781186548,0.707106781186547));
#331=DIRECTION($,(0.,-1.,0.));
#332=DIRECTION('center_axis',(0.,0.707106781186547,-0.707106781186548));
#333=DIRECTION('ref_axis',(-1.,0.,0.));
#334=DIRECTION($,(1.,0.,0.));
#335=DIRECTION('center_axis',(0.,1.,0.));
#336=DIRECTION('ref_axis',(0.,0.,1.));
#337=DIRECTION($,(1.,0.,0.));
#338=DIRECTION('center_axis',(0.,0.707106781186548,0.707106781186547));
#339=DIRECTION('ref_axis',(1.,0.,0.));
#340=DIRECTION($,(1.,0.,0.));
#341=DIRECTION('center_axis',(0.,0.,1.));
#342=DIRECTION('ref_axis',(1.,0.,0.));
#343=DIRECTION('center_axis',(1.,0.,0.));
#344=DIRECTION('ref_axis',(0.,0.,-1.));
#345=DIRECTION('center_axis',(-1.,0.,0.));
#346=DIRECTION('ref_axis',(0.,0.,1.));
#347=CARTESIAN_POINT('',(0.,0.,0.));
#348=CARTESIAN_POINT('Origin',(60.,0.,0.));
#349=CARTESIAN_POINT('',(85.,37.,-4.531044E-015));
#350=CARTESIAN_POINT('Origin',(85.,0.,0.));
#351=CARTESIAN_POINT('',(0.,37.,4.531044E-015));
#352=CARTESIAN_POINT('Origin',(0.,0.,0.));
#353=CARTESIAN_POINT('Origin',(16.65,-2.03897E-015,0.));
#354=CARTESIAN_POINT('',(-3.552714E-015,-43.95,5.382145E-015));
#355=CARTESIAN_POINT('Origin',(3.552714E-015,-3.944305E-031,0.));
#356=CARTESIAN_POINT('',(33.3,-43.95,5.382145E-015));
#357=CARTESIAN_POINT('Origin',(33.3,-4.077939E-015,0.));
#358=CARTESIAN_POINT('Origin',(68.35,2.03897E-015,0.));
#359=CARTESIAN_POINT('',(51.7,-43.95,5.382145E-015));
#360=CARTESIAN_POINT('Origin',(51.7,4.077939E-015,0.));
#361=CARTESIAN_POINT('',(85.,-43.95,5.382145E-015));
#362=CARTESIAN_POINT('Origin',(85.,-3.944305E-031,0.));
#363=CARTESIAN_POINT('Origin',(51.7,0.,-5.329071E-015));
#364=CARTESIAN_POINT('',(51.7,-47.5,-19.675144212722));
#365=CARTESIAN_POINT('',(51.7,-47.5,19.675144212722));
#366=CARTESIAN_POINT($,(51.7,-47.5,-19.675144212722));
#367=CARTESIAN_POINT('',(51.7,-19.675144212722,-47.5));
#368=CARTESIAN_POINT($,(51.7,-19.675144212722,-47.5));
#369=CARTESIAN_POINT('',(51.7,19.675144212722,-47.5));
#370=CARTESIAN_POINT($,(51.7,19.675144212722,-47.5));
#371=CARTESIAN_POINT('',(51.7,47.5,-19.675144212722));
#372=CARTESIAN_POINT($,(51.7,47.5,-19.675144212722));
#373=CARTESIAN_POINT('',(51.7,47.5,19.675144212722));
#374=CARTESIAN_POINT($,(51.7,47.5,19.675144212722));
#375=CARTESIAN_POINT('',(51.7,19.675144212722,47.5));
#376=CARTESIAN_POINT($,(51.7,19.675144212722,47.5));
#377=CARTESIAN_POINT('',(51.7,-19.675144212722,47.5));
#378=CARTESIAN_POINT($,(51.7,-19.675144212722,47.5));
#379=CARTESIAN_POINT($,(51.7,-47.5,19.675144212722));
#380=CARTESIAN_POINT('Origin',(33.,19.675144212722,-47.5));
#381=CARTESIAN_POINT('',(33.3,-19.675144212722,-47.5));
#382=CARTESIAN_POINT($,(33.3,-19.675144212722,-47.5));
#383=CARTESIAN_POINT('',(33.3,19.675144212722,-47.5));
#384=CARTESIAN_POINT($,(33.3,-19.675144212722,-47.5));
#385=CARTESIAN_POINT($,(33.3,19.675144212722,-47.5));
#386=CARTESIAN_POINT('Origin',(33.,-19.675144212722,-47.5));
#387=CARTESIAN_POINT('',(33.3,-47.5,-19.675144212722));
#388=CARTESIAN_POINT($,(33.3,-47.5,-19.675144212722));
#389=CARTESIAN_POINT($,(33.3,-47.5,-19.675144212722));
#390=CARTESIAN_POINT('Origin',(33.,-47.5,-19.675144212722));
#391=CARTESIAN_POINT('',(33.3,-47.5,19.675144212722));
#392=CARTESIAN_POINT($,(33.3,-47.5,19.675144212722));
#393=CARTESIAN_POINT($,(33.3,-47.5,19.675144212722));
#394=CARTESIAN_POINT('Origin',(33.,-47.5,19.675144212722));
#395=CARTESIAN_POINT('',(33.3,-19.675144212722,47.5));
#396=CARTESIAN_POINT($,(33.3,-19.675144212722,47.5));
#397=CARTESIAN_POINT($,(33.3,-19.675144212722,47.5));
#398=CARTESIAN_POINT('Origin',(33.3,0.,-5.329071E-015));
#399=CARTESIAN_POINT('',(33.3,47.5,19.675144212722));
#400=CARTESIAN_POINT('',(33.3,19.675144212722,47.5));
#401=CARTESIAN_POINT($,(33.3,47.5,19.675144212722));
#402=CARTESIAN_POINT('',(33.3,47.5,-19.675144212722));
#403=CARTESIAN_POINT($,(33.3,47.5,-19.675144212722));
#404=CARTESIAN_POINT($,(33.3,19.675144212722,-47.5));
#405=CARTESIAN_POINT($,(33.3,19.675144212722,47.5));
#406=CARTESIAN_POINT('Origin',(33.,47.5,-19.675144212722));
#407=CARTESIAN_POINT($,(33.3,47.5,-19.675144212722));
#408=CARTESIAN_POINT('Origin',(33.,47.5,19.675144212722));
#409=CARTESIAN_POINT($,(33.3,47.5,19.675144212722));
#410=CARTESIAN_POINT('Origin',(33.,19.675144212722,47.5));
#411=CARTESIAN_POINT($,(33.3,19.675144212722,47.5));
#412=CARTESIAN_POINT('Origin',(33.,-19.675144212722,47.5));
#413=CARTESIAN_POINT('Origin',(85.,-22.275,0.));
#414=CARTESIAN_POINT('Origin',(0.,-22.275,0.));
#415=UNCERTAINTY_MEASURE_WITH_UNIT(LENGTH_MEASURE(0.01),#417,
'DISTANCE_ACCURACY_VALUE',
'Maximum model space distance between geometric entities at asserted c
onnectivities');
#416=(
GEOMETRIC_REPRESENTATION_CONTEXT(3)
GLOBAL_UNCERTAINTY_ASSIGNED_CONTEXT((#415))
GLOBAL_UNIT_ASSIGNED_CONTEXT((#417,#420,#418))
REPRESENTATION_CONTEXT('','3D')
);
#417=(
LENGTH_UNIT()
NAMED_UNIT(*)
SI_UNIT(.MILLI.,.METRE.)
);
#418=(
NAMED_UNIT(*)
SI_UNIT($,.STERADIAN.)
SOLID_ANGLE_UNIT()
);
#419=DIMENSIONAL_EXPONENTS(0.,0.,0.,0.,0.,0.,0.);
#420=(
CONVERSION_BASED_UNIT('degree',#422)
NAMED_UNIT(#419)
PLANE_ANGLE_UNIT()
);
#421=(
NAMED_UNIT(*)
PLANE_ANGLE_UNIT()
SI_UNIT($,.RADIAN.)
);
#422=PLANE_ANGLE_MEASURE_WITH_UNIT(PLANE_ANGLE_MEASURE(0.01745329252),#421);
#423=SHAPE_DEFINITION_REPRESENTATION(#424,#425);
#424=PRODUCT_DEFINITION_SHAPE('',$,#427);
#425=SHAPE_REPRESENTATION('',(#257),#416);
#426=PRODUCT_DEFINITION_CONTEXT('3D Mechanical Parts',#430,'design');
#427=PRODUCT_DEFINITION('NFV300','NFV300',#428,#426);
#428=PRODUCT_DEFINITION_FORMATION('',$,#432);
#429=APPLICATION_PROTOCOL_DEFINITION('international standard',
'automotive_design',2009,#430);
#430=APPLICATION_CONTEXT(
'Core Data for Automotive Mechanical Design Process');
#431=PRODUCT_CONTEXT('3D Mechanical Parts',#430,'mechanical');
#432=PRODUCT('NFV300','NFV300',$,(#431));
#433=PRESENTATION_STYLE_ASSIGNMENT((#435));
#434=PRESENTATION_STYLE_ASSIGNMENT((#436));
#435=SURFACE_STYLE_USAGE(.BOTH.,#437);
#436=SURFACE_STYLE_USAGE(.BOTH.,#438);
#437=SURFACE_SIDE_STYLE($,(#439));
#438=SURFACE_SIDE_STYLE($,(#440));
#439=SURFACE_STYLE_FILL_AREA(#441);
#440=SURFACE_STYLE_FILL_AREA(#442);
#441=FILL_AREA_STYLE($,(#443));
#442=FILL_AREA_STYLE($,(#444));
#443=FILL_AREA_STYLE_COLOUR($,#445);
#444=FILL_AREA_STYLE_COLOUR($,#446);
#445=COLOUR_RGB('',0.509803921568627,0.509803921568627,0.588235294117647);
#446=COLOUR_RGB('',1.,0.,0.);
ENDSEC;
END-ISO-10303-21;
