ISO-10303-21;
HEADER;
/* Generated by software containing ST-Developer
 * from STEP Tools, Inc. (www.steptools.com) 
 */

FILE_DESCRIPTION(
/* description */ (''),
/* implementation_level */ '2;1');

FILE_NAME(
/* name */ 'C:\\Users\\Gabriele\\Desktop\\catalogo\\CA70\\CA701600.stp',

/* time_stamp */ '2016-10-18T16:02:19+02:00',
/* author */ ('Gabriele'),
/* organization */ (''),
/* preprocessor_version */ 'ST-DEVELOPER v16.5',
/* originating_system */ 'Autodesk Inventor 2017',
/* authorisation */ '');

FILE_SCHEMA (('AUTOMOTIVE_DESIGN { 1 0 10303 214 3 1 1 }'));
ENDSEC;

DATA;
#10=MECHANICAL_DESIGN_GEOMETRIC_PRESENTATION_REPRESENTATION('',(#13),#169);
#11=SHAPE_REPRESENTATION_RELATIONSHIP('SRR','None',#178,#12);
#12=ADVANCED_BREP_SHAPE_REPRESENTATION('',(#14),#168);
#13=STYLED_ITEM('',(#187),#14);
#14=MANIFOLD_SOLID_BREP('Solido1',#94);
#15=SPHERICAL_SURFACE('',#107,123.224576271186);
#16=SPHERICAL_SURFACE('',#110,133.724576271186);
#17=CYLINDRICAL_SURFACE('',#101,90.5);
#18=CYLINDRICAL_SURFACE('',#105,80.);
#19=PLANE('',#99);
#20=FACE_BOUND('',#35,.T.);
#21=FACE_BOUND('',#37,.T.);
#22=FACE_BOUND('',#39,.T.);
#23=FACE_BOUND('',#41,.T.);
#24=FACE_BOUND('',#43,.T.);
#25=FACE_BOUND('',#46,.T.);
#26=FACE_OUTER_BOUND('',#34,.T.);
#27=FACE_OUTER_BOUND('',#36,.T.);
#28=FACE_OUTER_BOUND('',#38,.T.);
#29=FACE_OUTER_BOUND('',#40,.T.);
#30=FACE_OUTER_BOUND('',#42,.T.);
#31=FACE_OUTER_BOUND('',#44,.T.);
#32=FACE_OUTER_BOUND('',#45,.T.);
#33=FACE_OUTER_BOUND('',#47,.T.);
#34=EDGE_LOOP('',(#69));
#35=EDGE_LOOP('',(#70));
#36=EDGE_LOOP('',(#71));
#37=EDGE_LOOP('',(#72));
#38=EDGE_LOOP('',(#73));
#39=EDGE_LOOP('',(#74));
#40=EDGE_LOOP('',(#75));
#41=EDGE_LOOP('',(#76));
#42=EDGE_LOOP('',(#77));
#43=EDGE_LOOP('',(#78));
#44=EDGE_LOOP('',(#79));
#45=EDGE_LOOP('',(#80));
#46=EDGE_LOOP('',(#81));
#47=EDGE_LOOP('',(#82));
#48=CIRCLE('',#97,90.);
#49=CIRCLE('',#98,90.5);
#50=CIRCLE('',#100,80.5);
#51=CIRCLE('',#102,90.5);
#52=CIRCLE('',#104,80.);
#53=CIRCLE('',#106,80.);
#54=CIRCLE('',#109,89.5080386373213);
#55=VERTEX_POINT('',#145);
#56=VERTEX_POINT('',#147);
#57=VERTEX_POINT('',#150);
#58=VERTEX_POINT('',#153);
#59=VERTEX_POINT('',#156);
#60=VERTEX_POINT('',#159);
#61=VERTEX_POINT('',#163);
#62=EDGE_CURVE('',#55,#55,#48,.T.);
#63=EDGE_CURVE('',#56,#56,#49,.T.);
#64=EDGE_CURVE('',#57,#57,#50,.T.);
#65=EDGE_CURVE('',#58,#58,#51,.T.);
#66=EDGE_CURVE('',#59,#59,#52,.T.);
#67=EDGE_CURVE('',#60,#60,#53,.T.);
#68=EDGE_CURVE('',#61,#61,#54,.T.);
#69=ORIENTED_EDGE('',*,*,#62,.T.);
#70=ORIENTED_EDGE('',*,*,#63,.T.);
#71=ORIENTED_EDGE('',*,*,#62,.F.);
#72=ORIENTED_EDGE('',*,*,#64,.F.);
#73=ORIENTED_EDGE('',*,*,#65,.F.);
#74=ORIENTED_EDGE('',*,*,#63,.F.);
#75=ORIENTED_EDGE('',*,*,#66,.T.);
#76=ORIENTED_EDGE('',*,*,#64,.T.);
#77=ORIENTED_EDGE('',*,*,#67,.T.);
#78=ORIENTED_EDGE('',*,*,#66,.F.);
#79=ORIENTED_EDGE('',*,*,#67,.F.);
#80=ORIENTED_EDGE('',*,*,#65,.T.);
#81=ORIENTED_EDGE('',*,*,#68,.F.);
#82=ORIENTED_EDGE('',*,*,#68,.T.);
#83=TOROIDAL_SURFACE('',#96,90.,0.5);
#84=TOROIDAL_SURFACE('',#103,80.5,0.5);
#85=TOROIDAL_SURFACE('',#108,87.5,3.);
#86=ADVANCED_FACE('',(#26,#20),#83,.T.);
#87=ADVANCED_FACE('',(#27,#21),#19,.T.);
#88=ADVANCED_FACE('',(#28,#22),#17,.T.);
#89=ADVANCED_FACE('',(#29,#23),#84,.T.);
#90=ADVANCED_FACE('',(#30,#24),#18,.F.);
#91=ADVANCED_FACE('',(#31),#15,.F.);
#92=ADVANCED_FACE('',(#32,#25),#85,.T.);
#93=ADVANCED_FACE('',(#33),#16,.T.);
#94=CLOSED_SHELL('',(#86,#87,#88,#89,#90,#91,#92,#93));
#95=AXIS2_PLACEMENT_3D('placement',#143,#111,#112);
#96=AXIS2_PLACEMENT_3D('',#144,#113,#114);
#97=AXIS2_PLACEMENT_3D('',#146,#115,#116);
#98=AXIS2_PLACEMENT_3D('',#148,#117,#118);
#99=AXIS2_PLACEMENT_3D('',#149,#119,#120);
#100=AXIS2_PLACEMENT_3D('',#151,#121,#122);
#101=AXIS2_PLACEMENT_3D('',#152,#123,#124);
#102=AXIS2_PLACEMENT_3D('',#154,#125,#126);
#103=AXIS2_PLACEMENT_3D('',#155,#127,#128);
#104=AXIS2_PLACEMENT_3D('',#157,#129,#130);
#105=AXIS2_PLACEMENT_3D('',#158,#131,#132);
#106=AXIS2_PLACEMENT_3D('',#160,#133,#134);
#107=AXIS2_PLACEMENT_3D('',#161,#135,#136);
#108=AXIS2_PLACEMENT_3D('',#162,#137,#138);
#109=AXIS2_PLACEMENT_3D('',#164,#139,#140);
#110=AXIS2_PLACEMENT_3D('',#165,#141,#142);
#111=DIRECTION('axis',(0.,0.,1.));
#112=DIRECTION('refdir',(1.,0.,0.));
#113=DIRECTION('center_axis',(-1.,0.,0.));
#114=DIRECTION('ref_axis',(0.,0.,1.));
#115=DIRECTION('center_axis',(-1.,0.,0.));
#116=DIRECTION('ref_axis',(0.,1.,6.12323399573677E-17));
#117=DIRECTION('center_axis',(1.,0.,0.));
#118=DIRECTION('ref_axis',(0.,1.,6.12323399573677E-17));
#119=DIRECTION('center_axis',(1.,0.,0.));
#120=DIRECTION('ref_axis',(0.,0.,-1.));
#121=DIRECTION('center_axis',(1.,0.,0.));
#122=DIRECTION('ref_axis',(0.,1.,6.12323399573677E-17));
#123=DIRECTION('center_axis',(-1.,0.,0.));
#124=DIRECTION('ref_axis',(0.,-1.,0.));
#125=DIRECTION('center_axis',(-1.,0.,0.));
#126=DIRECTION('ref_axis',(0.,0.,1.));
#127=DIRECTION('center_axis',(-1.,0.,0.));
#128=DIRECTION('ref_axis',(0.,0.,1.));
#129=DIRECTION('center_axis',(-1.,0.,0.));
#130=DIRECTION('ref_axis',(0.,1.,6.12323399573677E-17));
#131=DIRECTION('center_axis',(-1.,0.,0.));
#132=DIRECTION('ref_axis',(0.,-1.,0.));
#133=DIRECTION('center_axis',(-1.,0.,0.));
#134=DIRECTION('ref_axis',(0.,0.,1.));
#135=DIRECTION('center_axis',(5.76624207005893E-17,0.,1.));
#136=DIRECTION('ref_axis',(1.,0.,0.));
#137=DIRECTION('center_axis',(-1.,0.,0.));
#138=DIRECTION('ref_axis',(0.,0.,1.));
#139=DIRECTION('center_axis',(-1.,0.,0.));
#140=DIRECTION('ref_axis',(0.,0.,1.));
#141=DIRECTION('center_axis',(5.31347905951975E-17,0.,1.));
#142=DIRECTION('ref_axis',(1.,0.,0.));
#143=CARTESIAN_POINT('',(0.,0.,0.));
#144=CARTESIAN_POINT('Origin',(12.1667255076249,0.,0.));
#145=CARTESIAN_POINT('',(12.6667255076249,-90.,5.51091059616309E-15));
#146=CARTESIAN_POINT('Origin',(12.6667255076249,0.,0.));
#147=CARTESIAN_POINT('',(12.1667255076249,-90.5,-1.66245802984253E-14));
#148=CARTESIAN_POINT('Origin',(12.1667255076249,0.,0.));
#149=CARTESIAN_POINT('Origin',(12.6667255076249,-90.5,0.));
#150=CARTESIAN_POINT('',(12.6667255076249,-80.5,-1.47876100997043E-14));
#151=CARTESIAN_POINT('Origin',(12.6667255076249,0.,0.));
#152=CARTESIAN_POINT('Origin',(-32.0319399133206,0.,0.));
#153=CARTESIAN_POINT('',(-76.730605334266,-90.5,0.));
#154=CARTESIAN_POINT('Origin',(-76.730605334266,0.,0.));
#155=CARTESIAN_POINT('Origin',(12.1667255076249,0.,0.));
#156=CARTESIAN_POINT('',(12.1667255076249,-80.,4.89858719658941E-15));
#157=CARTESIAN_POINT('Origin',(12.1667255076249,0.,0.));
#158=CARTESIAN_POINT('Origin',(-30.3332744923751,0.,0.));
#159=CARTESIAN_POINT('',(-73.3332744923751,-80.,0.));
#160=CARTESIAN_POINT('Origin',(-73.3332744923751,0.,0.));
#161=CARTESIAN_POINT('Origin',(20.3913017788113,1.97196974664561E-15,0.));
#162=CARTESIAN_POINT('Origin',(-76.730605334266,0.,0.));
#163=CARTESIAN_POINT('',(-78.9594572429905,-89.5080386373213,0.));
#164=CARTESIAN_POINT('Origin',(-78.9594572429905,0.,0.));
#165=CARTESIAN_POINT('Origin',(20.3913017788113,1.97196974664561E-15,0.));
#166=UNCERTAINTY_MEASURE_WITH_UNIT(LENGTH_MEASURE(0.01),#170,
'DISTANCE_ACCURACY_VALUE',
'Maximum model space distance between geometric entities at asserted c
onnectivities');
#167=UNCERTAINTY_MEASURE_WITH_UNIT(LENGTH_MEASURE(1.E-6),#170,
'DISTANCE_ACCURACY_VALUE',
'Maximum model space distance between geometric entities at asserted c
onnectivities');
#168=(
GEOMETRIC_REPRESENTATION_CONTEXT(3)
GLOBAL_UNCERTAINTY_ASSIGNED_CONTEXT((#166))
GLOBAL_UNIT_ASSIGNED_CONTEXT((#170,#173,#171))
REPRESENTATION_CONTEXT('','3D')
);
#169=(
GEOMETRIC_REPRESENTATION_CONTEXT(3)
GLOBAL_UNCERTAINTY_ASSIGNED_CONTEXT((#167))
GLOBAL_UNIT_ASSIGNED_CONTEXT((#170,#173,#171))
REPRESENTATION_CONTEXT('','3D')
);
#170=(
LENGTH_UNIT()
NAMED_UNIT(*)
SI_UNIT(.MILLI.,.METRE.)
);
#171=(
NAMED_UNIT(*)
SI_UNIT($,.STERADIAN.)
SOLID_ANGLE_UNIT()
);
#172=DIMENSIONAL_EXPONENTS(0.,0.,0.,0.,0.,0.,0.);
#173=(
CONVERSION_BASED_UNIT('degree',#175)
NAMED_UNIT(#172)
PLANE_ANGLE_UNIT()
);
#174=(
NAMED_UNIT(*)
PLANE_ANGLE_UNIT()
SI_UNIT($,.RADIAN.)
);
#175=PLANE_ANGLE_MEASURE_WITH_UNIT(PLANE_ANGLE_MEASURE(0.01745329252),#174);
#176=SHAPE_DEFINITION_REPRESENTATION(#177,#178);
#177=PRODUCT_DEFINITION_SHAPE('',$,#180);
#178=SHAPE_REPRESENTATION('',(#95),#168);
#179=PRODUCT_DEFINITION_CONTEXT('part definition',#184,'design');
#180=PRODUCT_DEFINITION('CA701600','CA701600',#181,#179);
#181=PRODUCT_DEFINITION_FORMATION('',$,#186);
#182=PRODUCT_RELATED_PRODUCT_CATEGORY('CA701600','CA701600',(#186));
#183=APPLICATION_PROTOCOL_DEFINITION('international standard',
'automotive_design',2009,#184);
#184=APPLICATION_CONTEXT(
'Core Data for Automotive Mechanical Design Process');
#185=PRODUCT_CONTEXT('part definition',#184,'mechanical');
#186=PRODUCT('CA701600','CA701600',$,(#185));
#187=PRESENTATION_STYLE_ASSIGNMENT((#188));
#188=SURFACE_STYLE_USAGE(.BOTH.,#189);
#189=SURFACE_SIDE_STYLE('',(#190));
#190=SURFACE_STYLE_FILL_AREA(#191);
#191=FILL_AREA_STYLE('',(#192));
#192=FILL_AREA_STYLE_COLOUR('',#193);
#193=COLOUR_RGB('',0.8,0.8,0.8);
ENDSEC;
END-ISO-10303-21;
