ISO-10303-21;
HEADER;
FILE_DESCRIPTION( ( '' ), '1' );
FILE_NAME( '//se01002/users/anro/AGRU_12705028026_PPH_grau_Rohr__5m_280X10_7__SDR26__ISO_S-12_5_10.stp', '2018-02-07T07:52:38', ( '' ), ( '' ), ' ', ' ', ' ' );
FILE_SCHEMA( ( 'automotive_design' ) );
ENDSEC;
DATA;
#1 = MECHANICAL_DESIGN_GEOMETRIC_PRESENTATION_REPRESENTATION( ' ', ( #10, #11, #12, #13, #14, #15, #16, #17, #18, #19, #20, #21, #22, #23, #24, #25, #26, #27, #28, #29, #30, #31, #32, #33, #34, #35, #36 ), #6 );
#2 = PRODUCT_DEFINITION_CONTEXT( '', #37, 'design' );
#3 = APPLICATION_PROTOCOL_DEFINITION( 'INTERNATIONAL STANDARD', 'automotive_design', 1994, #37 );
#4 = PRODUCT_CATEGORY_RELATIONSHIP( 'NONE', 'NONE', #38, #39 );
#5 = SHAPE_DEFINITION_REPRESENTATION( #40, #41 );
#6 =  ( GEOMETRIC_REPRESENTATION_CONTEXT( 3 )GLOBAL_UNCERTAINTY_ASSIGNED_CONTEXT( ( #44 ) )GLOBAL_UNIT_ASSIGNED_CONTEXT( ( #46, #47, #48 ) )REPRESENTATION_CONTEXT( 'NONE', 'WORKSPACE' ) );
#10 = STYLED_ITEM( '', ( #50 ), #51 );
#11 = STYLED_ITEM( '', ( #52 ), #53 );
#12 = STYLED_ITEM( '', ( #54 ), #55 );
#13 = STYLED_ITEM( '', ( #56 ), #57 );
#14 = STYLED_ITEM( '', ( #58 ), #59 );
#15 = STYLED_ITEM( '', ( #60 ), #61 );
#16 = STYLED_ITEM( '', ( #62 ), #63 );
#17 = STYLED_ITEM( '', ( #64 ), #65 );
#18 = STYLED_ITEM( '', ( #66 ), #67 );
#19 = STYLED_ITEM( '', ( #68 ), #69 );
#20 = STYLED_ITEM( '', ( #70 ), #71 );
#21 = STYLED_ITEM( '', ( #72 ), #73 );
#22 = STYLED_ITEM( '', ( #74 ), #75 );
#23 = STYLED_ITEM( '', ( #76 ), #77 );
#24 = STYLED_ITEM( '', ( #78 ), #79 );
#25 = STYLED_ITEM( '', ( #80 ), #81 );
#26 = STYLED_ITEM( '', ( #82 ), #83 );
#27 = STYLED_ITEM( '', ( #84 ), #85 );
#28 = STYLED_ITEM( '', ( #86 ), #87 );
#29 = STYLED_ITEM( '', ( #88 ), #89 );
#30 = STYLED_ITEM( '', ( #90 ), #91 );
#31 = STYLED_ITEM( '', ( #92 ), #93 );
#32 = STYLED_ITEM( '', ( #94 ), #95 );
#33 = STYLED_ITEM( '', ( #96 ), #97 );
#34 = STYLED_ITEM( '', ( #98 ), #99 );
#35 = STYLED_ITEM( '', ( #100 ), #101 );
#36 = STYLED_ITEM( '', ( #102 ), #103 );
#37 = APPLICATION_CONTEXT( ' ' );
#38 = PRODUCT_CATEGORY( 'part', 'NONE' );
#39 = PRODUCT_RELATED_PRODUCT_CATEGORY( 'detail', ' ', ( #104 ) );
#40 = PRODUCT_DEFINITION_SHAPE( 'NONE', 'NONE', #105 );
#41 = ADVANCED_BREP_SHAPE_REPRESENTATION( '1', ( #99, #106 ), #6 );
#44 = UNCERTAINTY_MEASURE_WITH_UNIT( LENGTH_MEASURE( 1.00000000000000E-006 ), #46, '', '' );
#46 =  ( CONVERSION_BASED_UNIT( 'MILLIMETRE', #109 )LENGTH_UNIT(  )NAMED_UNIT( #112 ) );
#47 =  ( NAMED_UNIT( #114 )PLANE_ANGLE_UNIT(  )SI_UNIT( $, .RADIAN. ) );
#48 =  ( NAMED_UNIT( #114 )SOLID_ANGLE_UNIT(  )SI_UNIT( $, .STERADIAN. ) );
#50 = PRESENTATION_STYLE_ASSIGNMENT( ( #120 ) );
#51 = VERTEX_POINT( '', #121 );
#52 = PRESENTATION_STYLE_ASSIGNMENT( ( #122 ) );
#53 = ADVANCED_FACE( '', ( #123 ), #124, .T. );
#54 = PRESENTATION_STYLE_ASSIGNMENT( ( #125 ) );
#55 = EDGE_CURVE( '', #89, #63, #126, .T. );
#56 = PRESENTATION_STYLE_ASSIGNMENT( ( #127 ) );
#57 = ADVANCED_FACE( '', ( #128 ), #129, .F. );
#58 = PRESENTATION_STYLE_ASSIGNMENT( ( #130 ) );
#59 = EDGE_CURVE( '', #95, #103, #131, .T. );
#60 = PRESENTATION_STYLE_ASSIGNMENT( ( #132 ) );
#61 = EDGE_CURVE( '', #89, #101, #133, .T. );
#62 = PRESENTATION_STYLE_ASSIGNMENT( ( #134 ) );
#63 = VERTEX_POINT( '', #135 );
#64 = PRESENTATION_STYLE_ASSIGNMENT( ( #136 ) );
#65 = ADVANCED_FACE( '', ( #137, #138 ), #139, .F. );
#66 = PRESENTATION_STYLE_ASSIGNMENT( ( #140 ) );
#67 = EDGE_CURVE( '', #51, #91, #141, .T. );
#68 = PRESENTATION_STYLE_ASSIGNMENT( ( #142 ) );
#69 = EDGE_CURVE( '', #103, #91, #143, .T. );
#70 = PRESENTATION_STYLE_ASSIGNMENT( ( #144 ) );
#71 = EDGE_CURVE( '', #51, #95, #145, .T. );
#72 = PRESENTATION_STYLE_ASSIGNMENT( ( #146 ) );
#73 = EDGE_CURVE( '', #91, #51, #147, .T. );
#74 = PRESENTATION_STYLE_ASSIGNMENT( ( #148 ) );
#75 = ADVANCED_FACE( '', ( #149 ), #150, .T. );
#76 = PRESENTATION_STYLE_ASSIGNMENT( ( #151 ) );
#77 = EDGE_CURVE( '', #101, #85, #152, .T. );
#78 = PRESENTATION_STYLE_ASSIGNMENT( ( #153 ) );
#79 = EDGE_CURVE( '', #85, #101, #154, .T. );
#80 = PRESENTATION_STYLE_ASSIGNMENT( ( #155 ) );
#81 = ADVANCED_FACE( '', ( #156 ), #157, .F. );
#82 = PRESENTATION_STYLE_ASSIGNMENT( ( #158 ) );
#83 = EDGE_CURVE( '', #63, #89, #159, .T. );
#84 = PRESENTATION_STYLE_ASSIGNMENT( ( #160 ) );
#85 = VERTEX_POINT( '', #161 );
#86 = PRESENTATION_STYLE_ASSIGNMENT( ( #162 ) );
#87 = EDGE_CURVE( '', #103, #95, #163, .T. );
#88 = PRESENTATION_STYLE_ASSIGNMENT( ( #164 ) );
#89 = VERTEX_POINT( '', #165 );
#90 = PRESENTATION_STYLE_ASSIGNMENT( ( #166 ) );
#91 = VERTEX_POINT( '', #167 );
#92 = PRESENTATION_STYLE_ASSIGNMENT( ( #168 ) );
#93 = ADVANCED_FACE( '', ( #169, #170 ), #171, .T. );
#94 = PRESENTATION_STYLE_ASSIGNMENT( ( #172 ) );
#95 = VERTEX_POINT( '', #173 );
#96 = PRESENTATION_STYLE_ASSIGNMENT( ( #174 ) );
#97 = EDGE_CURVE( '', #85, #63, #175, .T. );
#98 = PRESENTATION_STYLE_ASSIGNMENT( ( #176 ) );
#99 = MANIFOLD_SOLID_BREP( '1', #177 );
#100 = PRESENTATION_STYLE_ASSIGNMENT( ( #178 ) );
#101 = VERTEX_POINT( '', #179 );
#102 = PRESENTATION_STYLE_ASSIGNMENT( ( #180 ) );
#103 = VERTEX_POINT( '', #181 );
#104 = PRODUCT( '1', '1', 'PART-1-DESC', ( #182 ) );
#105 = PRODUCT_DEFINITION( 'NONE', 'NONE', #183, #2 );
#106 = AXIS2_PLACEMENT_3D( '', #184, #185, #186 );
#109 = LENGTH_MEASURE_WITH_UNIT( LENGTH_MEASURE( 1.00000000000000 ), #187 );
#112 = DIMENSIONAL_EXPONENTS( 1.00000000000000, 0.000000000000000, 0.000000000000000, 0.000000000000000, 0.000000000000000, 0.000000000000000, 0.000000000000000 );
#114 = DIMENSIONAL_EXPONENTS( 0.000000000000000, 0.000000000000000, 0.000000000000000, 0.000000000000000, 0.000000000000000, 0.000000000000000, 0.000000000000000 );
#120 = POINT_STYLE( ' ', #188, POSITIVE_LENGTH_MEASURE( 1.00000000000000E-006 ), #189 );
#121 = CARTESIAN_POINT( '', ( 5000.00000000000, 1.71444889535133E-014, 140.000000000000 ) );
#122 = SURFACE_STYLE_USAGE( .BOTH., #190 );
#123 = FACE_OUTER_BOUND( '', #191, .T. );
#124 = CYLINDRICAL_SURFACE( '', #192, 140.000000000000 );
#125 = CURVE_STYLE( '', #193, POSITIVE_LENGTH_MEASURE( 1.00000000000000E-006 ), #194 );
#126 = CIRCLE( '', #195, 129.300000000000 );
#127 = SURFACE_STYLE_USAGE( .BOTH., #196 );
#128 = FACE_OUTER_BOUND( '', #197, .T. );
#129 = CYLINDRICAL_SURFACE( '', #198, 129.300000000000 );
#130 = CURVE_STYLE( '', #199, POSITIVE_LENGTH_MEASURE( 1.00000000000000E-006 ), #200 );
#131 = CIRCLE( '', #201, 140.000000000000 );
#132 = CURVE_STYLE( '', #202, POSITIVE_LENGTH_MEASURE( 1.00000000000000E-006 ), #203 );
#133 = LINE( '', #204, #205 );
#134 = POINT_STYLE( ' ', #206, POSITIVE_LENGTH_MEASURE( 1.00000000000000E-006 ), #207 );
#135 = CARTESIAN_POINT( '', ( 0.000000000000000, 1.58341601549233E-014, 129.300000000000 ) );
#136 = SURFACE_STYLE_USAGE( .BOTH., #208 );
#137 = FACE_OUTER_BOUND( '', #209, .T. );
#138 = FACE_BOUND( '', #210, .T. );
#139 = PLANE( '', #211 );
#140 = CURVE_STYLE( '', #212, POSITIVE_LENGTH_MEASURE( 1.00000000000000E-006 ), #213 );
#141 = CIRCLE( '', #214, 140.000000000000 );
#142 = CURVE_STYLE( '', #215, POSITIVE_LENGTH_MEASURE( 1.00000000000000E-006 ), #216 );
#143 = LINE( '', #217, #218 );
#144 = CURVE_STYLE( '', #219, POSITIVE_LENGTH_MEASURE( 1.00000000000000E-006 ), #220 );
#145 = LINE( '', #221, #222 );
#146 = CURVE_STYLE( '', #223, POSITIVE_LENGTH_MEASURE( 1.00000000000000E-006 ), #224 );
#147 = CIRCLE( '', #225, 140.000000000000 );
#148 = SURFACE_STYLE_USAGE( .BOTH., #226 );
#149 = FACE_OUTER_BOUND( '', #227, .T. );
#150 = CYLINDRICAL_SURFACE( '', #228, 140.000000000000 );
#151 = CURVE_STYLE( '', #229, POSITIVE_LENGTH_MEASURE( 1.00000000000000E-006 ), #230 );
#152 = CIRCLE( '', #231, 129.300000000000 );
#153 = CURVE_STYLE( '', #232, POSITIVE_LENGTH_MEASURE( 1.00000000000000E-006 ), #233 );
#154 = CIRCLE( '', #234, 129.300000000000 );
#155 = SURFACE_STYLE_USAGE( .BOTH., #235 );
#156 = FACE_OUTER_BOUND( '', #236, .T. );
#157 = CYLINDRICAL_SURFACE( '', #237, 129.300000000000 );
#158 = CURVE_STYLE( '', #238, POSITIVE_LENGTH_MEASURE( 1.00000000000000E-006 ), #239 );
#159 = CIRCLE( '', #240, 129.300000000000 );
#160 = POINT_STYLE( ' ', #241, POSITIVE_LENGTH_MEASURE( 1.00000000000000E-006 ), #242 );
#161 = CARTESIAN_POINT( '', ( 5000.00000000000, 1.58341601549233E-014, 129.300000000000 ) );
#162 = CURVE_STYLE( '', #243, POSITIVE_LENGTH_MEASURE( 1.00000000000000E-006 ), #244 );
#163 = CIRCLE( '', #245, 140.000000000000 );
#164 = POINT_STYLE( ' ', #246, POSITIVE_LENGTH_MEASURE( 1.00000000000000E-006 ), #247 );
#165 = CARTESIAN_POINT( '', ( 0.000000000000000, 0.000000000000000, -129.300000000000 ) );
#166 = POINT_STYLE( ' ', #248, POSITIVE_LENGTH_MEASURE( 1.00000000000000E-006 ), #249 );
#167 = CARTESIAN_POINT( '', ( 5000.00000000000, 0.000000000000000, -140.000000000000 ) );
#168 = SURFACE_STYLE_USAGE( .BOTH., #250 );
#169 = FACE_OUTER_BOUND( '', #251, .T. );
#170 = FACE_BOUND( '', #252, .T. );
#171 = PLANE( '', #253 );
#172 = POINT_STYLE( ' ', #254, POSITIVE_LENGTH_MEASURE( 1.00000000000000E-006 ), #255 );
#173 = CARTESIAN_POINT( '', ( 0.000000000000000, 1.71444889535133E-014, 140.000000000000 ) );
#174 = CURVE_STYLE( '', #256, POSITIVE_LENGTH_MEASURE( 1.00000000000000E-006 ), #257 );
#175 = LINE( '', #258, #259 );
#176 = SURFACE_STYLE_USAGE( .BOTH., #260 );
#177 = CLOSED_SHELL( '', ( #75, #57, #81, #53, #93, #65 ) );
#178 = POINT_STYLE( ' ', #261, POSITIVE_LENGTH_MEASURE( 1.00000000000000E-006 ), #262 );
#179 = CARTESIAN_POINT( '', ( 5000.00000000000, 0.000000000000000, -129.300000000000 ) );
#180 = POINT_STYLE( ' ', #263, POSITIVE_LENGTH_MEASURE( 1.00000000000000E-006 ), #264 );
#181 = CARTESIAN_POINT( '', ( 0.000000000000000, 0.000000000000000, -140.000000000000 ) );
#182 = PRODUCT_CONTEXT( '', #37, 'mechanical' );
#183 = PRODUCT_DEFINITION_FORMATION_WITH_SPECIFIED_SOURCE( ' ', 'NONE', #104, .NOT_KNOWN. );
#184 = CARTESIAN_POINT( '', ( 0.000000000000000, 0.000000000000000, 0.000000000000000 ) );
#185 = DIRECTION( '', ( 0.000000000000000, 0.000000000000000, 1.00000000000000 ) );
#186 = DIRECTION( '', ( 1.00000000000000, 0.000000000000000, 0.000000000000000 ) );
#187 =  ( NAMED_UNIT( #112 )LENGTH_UNIT(  )SI_UNIT( .MILLI., .METRE. ) );
#188 = PRE_DEFINED_MARKER( '' );
#189 = COLOUR_RGB( '', 0.689999997615810, 0.689999997615810, 0.689999997615810 );
#190 = SURFACE_SIDE_STYLE( '', ( #266 ) );
#191 = EDGE_LOOP( '', ( #267, #268, #269, #270 ) );
#192 = AXIS2_PLACEMENT_3D( '', #271, #272, #273 );
#193 = DRAUGHTING_PRE_DEFINED_CURVE_FONT( 'continuous' );
#194 = COLOUR_RGB( '', 0.689999997615810, 0.689999997615810, 0.689999997615810 );
#195 = AXIS2_PLACEMENT_3D( '', #274, #275, #276 );
#196 = SURFACE_SIDE_STYLE( '', ( #277 ) );
#197 = EDGE_LOOP( '', ( #278, #279, #280, #281 ) );
#198 = AXIS2_PLACEMENT_3D( '', #282, #283, #284 );
#199 = DRAUGHTING_PRE_DEFINED_CURVE_FONT( 'continuous' );
#200 = COLOUR_RGB( '', 0.689999997615810, 0.689999997615810, 0.689999997615810 );
#201 = AXIS2_PLACEMENT_3D( '', #285, #286, #287 );
#202 = DRAUGHTING_PRE_DEFINED_CURVE_FONT( 'continuous' );
#203 = COLOUR_RGB( '', 0.689999997615810, 0.689999997615810, 0.689999997615810 );
#204 = CARTESIAN_POINT( '', ( 0.000000000000000, -1.58341601549233E-014, -129.300000000000 ) );
#205 = VECTOR( '', #288, 1.00000000000000 );
#206 = PRE_DEFINED_MARKER( '' );
#207 = COLOUR_RGB( '', 0.689999997615810, 0.689999997615810, 0.689999997615810 );
#208 = SURFACE_SIDE_STYLE( '', ( #289 ) );
#209 = EDGE_LOOP( '', ( #290, #291 ) );
#210 = EDGE_LOOP( '', ( #292, #293 ) );
#211 = AXIS2_PLACEMENT_3D( '', #294, #295, #296 );
#212 = DRAUGHTING_PRE_DEFINED_CURVE_FONT( 'continuous' );
#213 = COLOUR_RGB( '', 0.689999997615810, 0.689999997615810, 0.689999997615810 );
#214 = AXIS2_PLACEMENT_3D( '', #297, #298, #299 );
#215 = DRAUGHTING_PRE_DEFINED_CURVE_FONT( 'continuous' );
#216 = COLOUR_RGB( '', 0.689999997615810, 0.689999997615810, 0.689999997615810 );
#217 = CARTESIAN_POINT( '', ( 0.000000000000000, -1.71444889535133E-014, -140.000000000000 ) );
#218 = VECTOR( '', #300, 1.00000000000000 );
#219 = DRAUGHTING_PRE_DEFINED_CURVE_FONT( 'continuous' );
#220 = COLOUR_RGB( '', 0.689999997615810, 0.689999997615810, 0.689999997615810 );
#221 = CARTESIAN_POINT( '', ( 0.000000000000000, 1.71444889535133E-014, 140.000000000000 ) );
#222 = VECTOR( '', #301, 1.00000000000000 );
#223 = DRAUGHTING_PRE_DEFINED_CURVE_FONT( 'continuous' );
#224 = COLOUR_RGB( '', 0.689999997615810, 0.689999997615810, 0.689999997615810 );
#225 = AXIS2_PLACEMENT_3D( '', #302, #303, #304 );
#226 = SURFACE_SIDE_STYLE( '', ( #305 ) );
#227 = EDGE_LOOP( '', ( #306, #307, #308, #309 ) );
#228 = AXIS2_PLACEMENT_3D( '', #310, #311, #312 );
#229 = DRAUGHTING_PRE_DEFINED_CURVE_FONT( 'continuous' );
#230 = COLOUR_RGB( '', 0.689999997615810, 0.689999997615810, 0.689999997615810 );
#231 = AXIS2_PLACEMENT_3D( '', #313, #314, #315 );
#232 = DRAUGHTING_PRE_DEFINED_CURVE_FONT( 'continuous' );
#233 = COLOUR_RGB( '', 0.689999997615810, 0.689999997615810, 0.689999997615810 );
#234 = AXIS2_PLACEMENT_3D( '', #316, #317, #318 );
#235 = SURFACE_SIDE_STYLE( '', ( #319 ) );
#236 = EDGE_LOOP( '', ( #320, #321, #322, #323 ) );
#237 = AXIS2_PLACEMENT_3D( '', #324, #325, #326 );
#238 = DRAUGHTING_PRE_DEFINED_CURVE_FONT( 'continuous' );
#239 = COLOUR_RGB( '', 0.689999997615810, 0.689999997615810, 0.689999997615810 );
#240 = AXIS2_PLACEMENT_3D( '', #327, #328, #329 );
#241 = PRE_DEFINED_MARKER( '' );
#242 = COLOUR_RGB( '', 0.689999997615810, 0.689999997615810, 0.689999997615810 );
#243 = DRAUGHTING_PRE_DEFINED_CURVE_FONT( 'continuous' );
#244 = COLOUR_RGB( '', 0.689999997615810, 0.689999997615810, 0.689999997615810 );
#245 = AXIS2_PLACEMENT_3D( '', #330, #331, #332 );
#246 = PRE_DEFINED_MARKER( '' );
#247 = COLOUR_RGB( '', 0.689999997615810, 0.689999997615810, 0.689999997615810 );
#248 = PRE_DEFINED_MARKER( '' );
#249 = COLOUR_RGB( '', 0.689999997615810, 0.689999997615810, 0.689999997615810 );
#250 = SURFACE_SIDE_STYLE( '', ( #333 ) );
#251 = EDGE_LOOP( '', ( #334, #335 ) );
#252 = EDGE_LOOP( '', ( #336, #337 ) );
#253 = AXIS2_PLACEMENT_3D( '', #338, #339, #340 );
#254 = PRE_DEFINED_MARKER( '' );
#255 = COLOUR_RGB( '', 0.689999997615810, 0.689999997615810, 0.689999997615810 );
#256 = DRAUGHTING_PRE_DEFINED_CURVE_FONT( 'continuous' );
#257 = COLOUR_RGB( '', 0.689999997615810, 0.689999997615810, 0.689999997615810 );
#258 = CARTESIAN_POINT( '', ( 0.000000000000000, 1.58341601549233E-014, 129.300000000000 ) );
#259 = VECTOR( '', #341, 1.00000000000000 );
#260 = SURFACE_SIDE_STYLE( '', ( #342 ) );
#261 = PRE_DEFINED_MARKER( '' );
#262 = COLOUR_RGB( '', 0.689999997615810, 0.689999997615810, 0.689999997615810 );
#263 = PRE_DEFINED_MARKER( '' );
#264 = COLOUR_RGB( '', 0.689999997615810, 0.689999997615810, 0.689999997615810 );
#266 = SURFACE_STYLE_FILL_AREA( #343 );
#267 = ORIENTED_EDGE( '', *, *, #69, .T. );
#268 = ORIENTED_EDGE( '', *, *, #73, .T. );
#269 = ORIENTED_EDGE( '', *, *, #71, .T. );
#270 = ORIENTED_EDGE( '', *, *, #59, .T. );
#271 = CARTESIAN_POINT( '', ( 0.000000000000000, 0.000000000000000, 0.000000000000000 ) );
#272 = DIRECTION( '', ( -1.00000000000000, -0.000000000000000, -0.000000000000000 ) );
#273 = DIRECTION( '', ( 0.000000000000000, 0.000000000000000, -1.00000000000000 ) );
#274 = CARTESIAN_POINT( '', ( 0.000000000000000, 0.000000000000000, 0.000000000000000 ) );
#275 = DIRECTION( '', ( 1.00000000000000, -0.000000000000000, 0.000000000000000 ) );
#276 = DIRECTION( '', ( 0.000000000000000, 0.000000000000000, -1.00000000000000 ) );
#277 = SURFACE_STYLE_FILL_AREA( #344 );
#278 = ORIENTED_EDGE( '', *, *, #61, .F. );
#279 = ORIENTED_EDGE( '', *, *, #83, .F. );
#280 = ORIENTED_EDGE( '', *, *, #97, .F. );
#281 = ORIENTED_EDGE( '', *, *, #79, .T. );
#282 = CARTESIAN_POINT( '', ( 0.000000000000000, 0.000000000000000, 0.000000000000000 ) );
#283 = DIRECTION( '', ( -1.00000000000000, -0.000000000000000, -0.000000000000000 ) );
#284 = DIRECTION( '', ( 0.000000000000000, 0.000000000000000, -1.00000000000000 ) );
#285 = CARTESIAN_POINT( '', ( 0.000000000000000, 0.000000000000000, 0.000000000000000 ) );
#286 = DIRECTION( '', ( 1.00000000000000, -0.000000000000000, 0.000000000000000 ) );
#287 = DIRECTION( '', ( 0.000000000000000, 0.000000000000000, -1.00000000000000 ) );
#288 = DIRECTION( '', ( 1.00000000000000, 0.000000000000000, 0.000000000000000 ) );
#289 = SURFACE_STYLE_FILL_AREA( #345 );
#290 = ORIENTED_EDGE( '', *, *, #87, .F. );
#291 = ORIENTED_EDGE( '', *, *, #59, .F. );
#292 = ORIENTED_EDGE( '', *, *, #55, .T. );
#293 = ORIENTED_EDGE( '', *, *, #83, .T. );
#294 = CARTESIAN_POINT( '', ( 0.000000000000000, 0.000000000000000, 0.000000000000000 ) );
#295 = DIRECTION( '', ( 1.00000000000000, 0.000000000000000, 0.000000000000000 ) );
#296 = DIRECTION( '', ( 0.000000000000000, 0.000000000000000, -1.00000000000000 ) );
#297 = CARTESIAN_POINT( '', ( 5000.00000000000, 0.000000000000000, 0.000000000000000 ) );
#298 = DIRECTION( '', ( -1.00000000000000, 0.000000000000000, 0.000000000000000 ) );
#299 = DIRECTION( '', ( 0.000000000000000, 0.000000000000000, -1.00000000000000 ) );
#300 = DIRECTION( '', ( 1.00000000000000, 0.000000000000000, 0.000000000000000 ) );
#301 = DIRECTION( '', ( -1.00000000000000, -0.000000000000000, -0.000000000000000 ) );
#302 = CARTESIAN_POINT( '', ( 5000.00000000000, 0.000000000000000, 0.000000000000000 ) );
#303 = DIRECTION( '', ( -1.00000000000000, 0.000000000000000, 0.000000000000000 ) );
#304 = DIRECTION( '', ( 0.000000000000000, 0.000000000000000, -1.00000000000000 ) );
#305 = SURFACE_STYLE_FILL_AREA( #346 );
#306 = ORIENTED_EDGE( '', *, *, #69, .F. );
#307 = ORIENTED_EDGE( '', *, *, #87, .T. );
#308 = ORIENTED_EDGE( '', *, *, #71, .F. );
#309 = ORIENTED_EDGE( '', *, *, #67, .T. );
#310 = CARTESIAN_POINT( '', ( 0.000000000000000, 0.000000000000000, 0.000000000000000 ) );
#311 = DIRECTION( '', ( -1.00000000000000, -0.000000000000000, -0.000000000000000 ) );
#312 = DIRECTION( '', ( 0.000000000000000, 0.000000000000000, -1.00000000000000 ) );
#313 = CARTESIAN_POINT( '', ( 5000.00000000000, 0.000000000000000, 0.000000000000000 ) );
#314 = DIRECTION( '', ( 1.00000000000000, 0.000000000000000, 0.000000000000000 ) );
#315 = DIRECTION( '', ( 0.000000000000000, 0.000000000000000, -1.00000000000000 ) );
#316 = CARTESIAN_POINT( '', ( 5000.00000000000, 0.000000000000000, 0.000000000000000 ) );
#317 = DIRECTION( '', ( 1.00000000000000, 0.000000000000000, 0.000000000000000 ) );
#318 = DIRECTION( '', ( 0.000000000000000, 0.000000000000000, -1.00000000000000 ) );
#319 = SURFACE_STYLE_FILL_AREA( #347 );
#320 = ORIENTED_EDGE( '', *, *, #61, .T. );
#321 = ORIENTED_EDGE( '', *, *, #77, .T. );
#322 = ORIENTED_EDGE( '', *, *, #97, .T. );
#323 = ORIENTED_EDGE( '', *, *, #55, .F. );
#324 = CARTESIAN_POINT( '', ( 0.000000000000000, 0.000000000000000, 0.000000000000000 ) );
#325 = DIRECTION( '', ( -1.00000000000000, -0.000000000000000, -0.000000000000000 ) );
#326 = DIRECTION( '', ( 0.000000000000000, 0.000000000000000, -1.00000000000000 ) );
#327 = CARTESIAN_POINT( '', ( 0.000000000000000, 0.000000000000000, 0.000000000000000 ) );
#328 = DIRECTION( '', ( 1.00000000000000, -0.000000000000000, 0.000000000000000 ) );
#329 = DIRECTION( '', ( 0.000000000000000, 0.000000000000000, -1.00000000000000 ) );
#330 = CARTESIAN_POINT( '', ( 0.000000000000000, 0.000000000000000, 0.000000000000000 ) );
#331 = DIRECTION( '', ( 1.00000000000000, -0.000000000000000, 0.000000000000000 ) );
#332 = DIRECTION( '', ( 0.000000000000000, 0.000000000000000, -1.00000000000000 ) );
#333 = SURFACE_STYLE_FILL_AREA( #348 );
#334 = ORIENTED_EDGE( '', *, *, #73, .F. );
#335 = ORIENTED_EDGE( '', *, *, #67, .F. );
#336 = ORIENTED_EDGE( '', *, *, #77, .F. );
#337 = ORIENTED_EDGE( '', *, *, #79, .F. );
#338 = CARTESIAN_POINT( '', ( 5000.00000000000, 0.000000000000000, 0.000000000000000 ) );
#339 = DIRECTION( '', ( 1.00000000000000, 0.000000000000000, 0.000000000000000 ) );
#340 = DIRECTION( '', ( 0.000000000000000, 0.000000000000000, -1.00000000000000 ) );
#341 = DIRECTION( '', ( -1.00000000000000, 0.000000000000000, 0.000000000000000 ) );
#342 = SURFACE_STYLE_FILL_AREA( #349 );
#343 = FILL_AREA_STYLE( '', ( #350 ) );
#344 = FILL_AREA_STYLE( '', ( #351 ) );
#345 = FILL_AREA_STYLE( '', ( #352 ) );
#346 = FILL_AREA_STYLE( '', ( #353 ) );
#347 = FILL_AREA_STYLE( '', ( #354 ) );
#348 = FILL_AREA_STYLE( '', ( #355 ) );
#349 = FILL_AREA_STYLE( '', ( #356 ) );
#350 = FILL_AREA_STYLE_COLOUR( '', #357 );
#351 = FILL_AREA_STYLE_COLOUR( '', #358 );
#352 = FILL_AREA_STYLE_COLOUR( '', #359 );
#353 = FILL_AREA_STYLE_COLOUR( '', #360 );
#354 = FILL_AREA_STYLE_COLOUR( '', #361 );
#355 = FILL_AREA_STYLE_COLOUR( '', #362 );
#356 = FILL_AREA_STYLE_COLOUR( '', #363 );
#357 = COLOUR_RGB( '', 0.689999997615810, 0.689999997615810, 0.689999997615810 );
#358 = COLOUR_RGB( '', 0.689999997615810, 0.689999997615810, 0.689999997615810 );
#359 = COLOUR_RGB( '', 0.689999997615810, 0.689999997615810, 0.689999997615810 );
#360 = COLOUR_RGB( '', 0.689999997615810, 0.689999997615810, 0.689999997615810 );
#361 = COLOUR_RGB( '', 0.689999997615810, 0.689999997615810, 0.689999997615810 );
#362 = COLOUR_RGB( '', 0.689999997615810, 0.689999997615810, 0.689999997615810 );
#363 = COLOUR_RGB( '', 0.689999997615810, 0.689999997615810, 0.689999997615810 );
ENDSEC;
END-ISO-10303-21;
