ISO-10303-21;
HEADER;
FILE_DESCRIPTION( ( 'STEP AP214' ), ' ' );
FILE_NAME( 'p:/temp/worker_11/1952_1280/app_40_02015080514452917623358192d056f_000000_00_00_000000/format_0/3.72.016.stp', '2015-08-05T12:45:29', ( '' ), ( '' ), ' ', 'PARTsolutions', ' ' );
FILE_SCHEMA( ( 'AUTOMOTIVE_DESIGN { 1 0 10303 214 1 1 1 1 }' ) );
ENDSEC;
DATA;
#1 = MECHANICAL_DESIGN_GEOMETRIC_PRESENTATION_REPRESENTATION( ' ', ( #10, #11, #12, #13, #14, #15, #16, #17 ), #6 );
#2 = PRODUCT_DEFINITION_CONTEXT( '', #18, 'design' );
#3 = APPLICATION_PROTOCOL_DEFINITION( 'international standard', 'automotive_design', 2001, #18 );
#4 = PRODUCT_CATEGORY_RELATIONSHIP( 'NONE', 'NONE', #19, #20 );
#5 = SHAPE_DEFINITION_REPRESENTATION( #21, #22 );
#6 =  ( GEOMETRIC_REPRESENTATION_CONTEXT( 3 )GLOBAL_UNCERTAINTY_ASSIGNED_CONTEXT( ( #25 ) )GLOBAL_UNIT_ASSIGNED_CONTEXT( ( #27, #28, #29 ) )REPRESENTATION_CONTEXT( 'NONE', 'WORKSPACE' ) );
#10 = STYLED_ITEM( '', ( #31 ), #32 );
#11 = STYLED_ITEM( '', ( #33 ), #34 );
#12 = STYLED_ITEM( '', ( #35 ), #36 );
#13 = STYLED_ITEM( '', ( #37 ), #38 );
#14 = STYLED_ITEM( '', ( #39 ), #40 );
#15 = STYLED_ITEM( '', ( #41 ), #42 );
#16 = STYLED_ITEM( '', ( #43 ), #44 );
#17 = STYLED_ITEM( '', ( #45 ), #46 );
#18 = APPLICATION_CONTEXT( 'core data for automotive mechanical design processes' );
#19 = PRODUCT_CATEGORY( 'part', 'NONE' );
#20 = PRODUCT_RELATED_PRODUCT_CATEGORY( 'detail', ' ', ( #47 ) );
#21 = PRODUCT_DEFINITION_SHAPE( 'NONE', 'NONE', #48 );
#22 = ADVANCED_BREP_SHAPE_REPRESENTATION( '_3.72.016', ( #49, #50 ), #6 );
#25 = UNCERTAINTY_MEASURE_WITH_UNIT( LENGTH_MEASURE( 0.00100000000000000 ), #27, '', '' );
#27 =  ( CONVERSION_BASED_UNIT( 'MILLIMETRE', #53 )LENGTH_UNIT(  )NAMED_UNIT( #56 ) );
#28 =  ( NAMED_UNIT( #58 )PLANE_ANGLE_UNIT(  )SI_UNIT( $, .RADIAN. ) );
#29 =  ( NAMED_UNIT( #58 )SI_UNIT( $, .STERADIAN. )SOLID_ANGLE_UNIT(  ) );
#31 = PRESENTATION_STYLE_ASSIGNMENT( ( #64 ) );
#32 = ADVANCED_FACE( '', ( #65, #66, #67, #68, #69, #70 ), #71, .F. );
#33 = PRESENTATION_STYLE_ASSIGNMENT( ( #72 ) );
#34 = ADVANCED_FACE( '', ( #73, #74 ), #75, .F. );
#35 = PRESENTATION_STYLE_ASSIGNMENT( ( #76 ) );
#36 = ADVANCED_FACE( '', ( #77, #78 ), #79, .F. );
#37 = PRESENTATION_STYLE_ASSIGNMENT( ( #80 ) );
#38 = ADVANCED_FACE( '', ( #81, #82 ), #83, .F. );
#39 = PRESENTATION_STYLE_ASSIGNMENT( ( #84 ) );
#40 = ADVANCED_FACE( '', ( #85, #86 ), #87, .T. );
#41 = PRESENTATION_STYLE_ASSIGNMENT( ( #88 ) );
#42 = ADVANCED_FACE( '', ( #89, #90 ), #91, .F. );
#43 = PRESENTATION_STYLE_ASSIGNMENT( ( #92 ) );
#44 = ADVANCED_FACE( '', ( #93, #94 ), #95, .F. );
#45 = PRESENTATION_STYLE_ASSIGNMENT( ( #96 ) );
#46 = ADVANCED_FACE( '', ( #97, #98, #99, #100, #101, #102 ), #103, .T. );
#47 = PRODUCT( '_3.72.016', '_3.72.016', 'PART-_3.72.016-DESC', ( #104 ) );
#48 = PRODUCT_DEFINITION( 'NONE', 'NONE', #105, #2 );
#49 = MANIFOLD_SOLID_BREP( '_3.72.016', #106 );
#50 = AXIS2_PLACEMENT_3D( '', #107, #108, #109 );
#53 = LENGTH_MEASURE_WITH_UNIT( LENGTH_MEASURE( 1.00000000000000 ), #110 );
#56 = DIMENSIONAL_EXPONENTS( 1.00000000000000, 0.000000000000000, 0.000000000000000, 0.000000000000000, 0.000000000000000, 0.000000000000000, 0.000000000000000 );
#58 = DIMENSIONAL_EXPONENTS( 0.000000000000000, 0.000000000000000, 0.000000000000000, 0.000000000000000, 0.000000000000000, 0.000000000000000, 0.000000000000000 );
#64 = SURFACE_STYLE_USAGE( .BOTH., #111 );
#65 = FACE_BOUND( '', #112, .T. );
#66 = FACE_BOUND( '', #113, .T. );
#67 = FACE_BOUND( '', #114, .T. );
#68 = FACE_BOUND( '', #115, .T. );
#69 = FACE_BOUND( '', #116, .T. );
#70 = FACE_OUTER_BOUND( '', #117, .T. );
#71 = PLANE( '', #118 );
#72 = SURFACE_STYLE_USAGE( .BOTH., #119 );
#73 = FACE_OUTER_BOUND( '', #120, .T. );
#74 = FACE_OUTER_BOUND( '', #121, .T. );
#75 = CYLINDRICAL_SURFACE( '', #122, 7.00000000000000 );
#76 = SURFACE_STYLE_USAGE( .BOTH., #123 );
#77 = FACE_OUTER_BOUND( '', #124, .T. );
#78 = FACE_OUTER_BOUND( '', #125, .T. );
#79 = CYLINDRICAL_SURFACE( '', #126, 7.00000000000000 );
#80 = SURFACE_STYLE_USAGE( .BOTH., #127 );
#81 = FACE_OUTER_BOUND( '', #128, .T. );
#82 = FACE_OUTER_BOUND( '', #129, .T. );
#83 = CYLINDRICAL_SURFACE( '', #130, 7.00000000000000 );
#84 = SURFACE_STYLE_USAGE( .BOTH., #131 );
#85 = FACE_OUTER_BOUND( '', #132, .T. );
#86 = FACE_OUTER_BOUND( '', #133, .T. );
#87 = CYLINDRICAL_SURFACE( '', #134, 45.0000000000000 );
#88 = SURFACE_STYLE_USAGE( .BOTH., #135 );
#89 = FACE_OUTER_BOUND( '', #136, .T. );
#90 = FACE_OUTER_BOUND( '', #137, .T. );
#91 = CYLINDRICAL_SURFACE( '', #138, 7.00000000000000 );
#92 = SURFACE_STYLE_USAGE( .BOTH., #139 );
#93 = FACE_OUTER_BOUND( '', #140, .T. );
#94 = FACE_OUTER_BOUND( '', #141, .T. );
#95 = CYLINDRICAL_SURFACE( '', #142, 11.5000000000000 );
#96 = SURFACE_STYLE_USAGE( .BOTH., #143 );
#97 = FACE_BOUND( '', #144, .T. );
#98 = FACE_BOUND( '', #145, .T. );
#99 = FACE_BOUND( '', #146, .T. );
#100 = FACE_BOUND( '', #147, .T. );
#101 = FACE_BOUND( '', #148, .T. );
#102 = FACE_OUTER_BOUND( '', #149, .T. );
#103 = PLANE( '', #150 );
#104 = PRODUCT_CONTEXT( '', #18, 'mechanical' );
#105 = PRODUCT_DEFINITION_FORMATION_WITH_SPECIFIED_SOURCE( ' ', 'NONE', #47, .NOT_KNOWN. );
#106 = CLOSED_SHELL( '', ( #46, #40, #44, #32, #42, #34, #38, #36 ) );
#107 = CARTESIAN_POINT( '', ( 0.000000000000000, 0.000000000000000, 0.000000000000000 ) );
#108 = DIRECTION( '', ( 0.000000000000000, 0.000000000000000, 1.00000000000000 ) );
#109 = DIRECTION( '', ( 1.00000000000000, 0.000000000000000, 0.000000000000000 ) );
#110 =  ( LENGTH_UNIT(  )NAMED_UNIT( #56 )SI_UNIT( .MILLI., .METRE. ) );
#111 = SURFACE_SIDE_STYLE( '', ( #152 ) );
#112 = EDGE_LOOP( '', ( #153 ) );
#113 = EDGE_LOOP( '', ( #154 ) );
#114 = EDGE_LOOP( '', ( #155 ) );
#115 = EDGE_LOOP( '', ( #156 ) );
#116 = EDGE_LOOP( '', ( #157 ) );
#117 = EDGE_LOOP( '', ( #158 ) );
#118 = AXIS2_PLACEMENT_3D( '', #159, #160, #161 );
#119 = SURFACE_SIDE_STYLE( '', ( #162 ) );
#120 = EDGE_LOOP( '', ( #163 ) );
#121 = EDGE_LOOP( '', ( #164 ) );
#122 = AXIS2_PLACEMENT_3D( '', #165, #166, #167 );
#123 = SURFACE_SIDE_STYLE( '', ( #168 ) );
#124 = EDGE_LOOP( '', ( #169 ) );
#125 = EDGE_LOOP( '', ( #170 ) );
#126 = AXIS2_PLACEMENT_3D( '', #171, #172, #173 );
#127 = SURFACE_SIDE_STYLE( '', ( #174 ) );
#128 = EDGE_LOOP( '', ( #175 ) );
#129 = EDGE_LOOP( '', ( #176 ) );
#130 = AXIS2_PLACEMENT_3D( '', #177, #178, #179 );
#131 = SURFACE_SIDE_STYLE( '', ( #180 ) );
#132 = EDGE_LOOP( '', ( #181 ) );
#133 = EDGE_LOOP( '', ( #182 ) );
#134 = AXIS2_PLACEMENT_3D( '', #183, #184, #185 );
#135 = SURFACE_SIDE_STYLE( '', ( #186 ) );
#136 = EDGE_LOOP( '', ( #187 ) );
#137 = EDGE_LOOP( '', ( #188 ) );
#138 = AXIS2_PLACEMENT_3D( '', #189, #190, #191 );
#139 = SURFACE_SIDE_STYLE( '', ( #192 ) );
#140 = EDGE_LOOP( '', ( #193 ) );
#141 = EDGE_LOOP( '', ( #194 ) );
#142 = AXIS2_PLACEMENT_3D( '', #195, #196, #197 );
#143 = SURFACE_SIDE_STYLE( '', ( #198 ) );
#144 = EDGE_LOOP( '', ( #199 ) );
#145 = EDGE_LOOP( '', ( #200 ) );
#146 = EDGE_LOOP( '', ( #201 ) );
#147 = EDGE_LOOP( '', ( #202 ) );
#148 = EDGE_LOOP( '', ( #203 ) );
#149 = EDGE_LOOP( '', ( #204 ) );
#150 = AXIS2_PLACEMENT_3D( '', #205, #206, #207 );
#152 = SURFACE_STYLE_FILL_AREA( #208 );
#153 = ORIENTED_EDGE( '', *, *, #209, .T. );
#154 = ORIENTED_EDGE( '', *, *, #210, .T. );
#155 = ORIENTED_EDGE( '', *, *, #211, .T. );
#156 = ORIENTED_EDGE( '', *, *, #212, .T. );
#157 = ORIENTED_EDGE( '', *, *, #213, .T. );
#158 = ORIENTED_EDGE( '', *, *, #214, .F. );
#159 = CARTESIAN_POINT( '', ( 0.000000000000000, 0.000000000000000, 0.000000000000000 ) );
#160 = DIRECTION( '', ( 0.000000000000000, 0.000000000000000, 1.00000000000000 ) );
#161 = DIRECTION( '', ( 1.00000000000000, 0.000000000000000, -0.000000000000000 ) );
#162 = SURFACE_STYLE_FILL_AREA( #215 );
#163 = ORIENTED_EDGE( '', *, *, #216, .T. );
#164 = ORIENTED_EDGE( '', *, *, #211, .F. );
#165 = CARTESIAN_POINT( '', ( 30.0000000000000, 3.46944695195361E-015, 10.0000000000000 ) );
#166 = DIRECTION( '', ( 0.000000000000000, -0.000000000000000, 1.00000000000000 ) );
#167 = DIRECTION( '', ( -1.00000000000000, 0.000000000000000, 0.000000000000000 ) );
#168 = SURFACE_STYLE_FILL_AREA( #217 );
#169 = ORIENTED_EDGE( '', *, *, #218, .T. );
#170 = ORIENTED_EDGE( '', *, *, #209, .F. );
#171 = CARTESIAN_POINT( '', ( -30.0000000000000, -6.93889390390723E-015, 10.0000000000000 ) );
#172 = DIRECTION( '', ( 0.000000000000000, -0.000000000000000, 1.00000000000000 ) );
#173 = DIRECTION( '', ( -1.00000000000000, 0.000000000000000, 0.000000000000000 ) );
#174 = SURFACE_STYLE_FILL_AREA( #219 );
#175 = ORIENTED_EDGE( '', *, *, #220, .T. );
#176 = ORIENTED_EDGE( '', *, *, #210, .F. );
#177 = CARTESIAN_POINT( '', ( 3.67394039744206E-015, -30.0000000000000, 10.0000000000000 ) );
#178 = DIRECTION( '', ( 0.000000000000000, -0.000000000000000, 1.00000000000000 ) );
#179 = DIRECTION( '', ( -1.00000000000000, 0.000000000000000, 0.000000000000000 ) );
#180 = SURFACE_STYLE_FILL_AREA( #221 );
#181 = ORIENTED_EDGE( '', *, *, #222, .F. );
#182 = ORIENTED_EDGE( '', *, *, #214, .T. );
#183 = CARTESIAN_POINT( '', ( 0.000000000000000, 0.000000000000000, 10.0000000000000 ) );
#184 = DIRECTION( '', ( 0.000000000000000, -0.000000000000000, 1.00000000000000 ) );
#185 = DIRECTION( '', ( -1.00000000000000, 0.000000000000000, 0.000000000000000 ) );
#186 = SURFACE_STYLE_FILL_AREA( #223 );
#187 = ORIENTED_EDGE( '', *, *, #224, .T. );
#188 = ORIENTED_EDGE( '', *, *, #212, .F. );
#189 = CARTESIAN_POINT( '', ( 0.000000000000000, 30.0000000000000, 10.0000000000000 ) );
#190 = DIRECTION( '', ( 0.000000000000000, -0.000000000000000, 1.00000000000000 ) );
#191 = DIRECTION( '', ( -1.00000000000000, 0.000000000000000, 0.000000000000000 ) );
#192 = SURFACE_STYLE_FILL_AREA( #225 );
#193 = ORIENTED_EDGE( '', *, *, #226, .T. );
#194 = ORIENTED_EDGE( '', *, *, #213, .F. );
#195 = CARTESIAN_POINT( '', ( 0.000000000000000, 0.000000000000000, 10.0000000000000 ) );
#196 = DIRECTION( '', ( 0.000000000000000, -0.000000000000000, 1.00000000000000 ) );
#197 = DIRECTION( '', ( -1.00000000000000, 0.000000000000000, 0.000000000000000 ) );
#198 = SURFACE_STYLE_FILL_AREA( #227 );
#199 = ORIENTED_EDGE( '', *, *, #218, .F. );
#200 = ORIENTED_EDGE( '', *, *, #220, .F. );
#201 = ORIENTED_EDGE( '', *, *, #216, .F. );
#202 = ORIENTED_EDGE( '', *, *, #224, .F. );
#203 = ORIENTED_EDGE( '', *, *, #226, .F. );
#204 = ORIENTED_EDGE( '', *, *, #222, .T. );
#205 = CARTESIAN_POINT( '', ( 0.000000000000000, 0.000000000000000, 10.0000000000000 ) );
#206 = DIRECTION( '', ( 0.000000000000000, 0.000000000000000, 1.00000000000000 ) );
#207 = DIRECTION( '', ( 1.00000000000000, 0.000000000000000, -0.000000000000000 ) );
#208 = FILL_AREA_STYLE( '', ( #228 ) );
#209 = EDGE_CURVE( '', #229, #229, #230, .T. );
#210 = EDGE_CURVE( '', #231, #231, #232, .T. );
#211 = EDGE_CURVE( '', #233, #233, #234, .T. );
#212 = EDGE_CURVE( '', #235, #235, #236, .T. );
#213 = EDGE_CURVE( '', #237, #237, #238, .T. );
#214 = EDGE_CURVE( '', #239, #239, #240, .T. );
#215 = FILL_AREA_STYLE( '', ( #241 ) );
#216 = EDGE_CURVE( '', #242, #242, #243, .T. );
#217 = FILL_AREA_STYLE( '', ( #244 ) );
#218 = EDGE_CURVE( '', #245, #245, #246, .T. );
#219 = FILL_AREA_STYLE( '', ( #247 ) );
#220 = EDGE_CURVE( '', #248, #248, #249, .T. );
#221 = FILL_AREA_STYLE( '', ( #250 ) );
#222 = EDGE_CURVE( '', #251, #251, #252, .T. );
#223 = FILL_AREA_STYLE( '', ( #253 ) );
#224 = EDGE_CURVE( '', #254, #254, #255, .T. );
#225 = FILL_AREA_STYLE( '', ( #256 ) );
#226 = EDGE_CURVE( '', #257, #257, #258, .T. );
#227 = FILL_AREA_STYLE( '', ( #259 ) );
#228 = FILL_AREA_STYLE_COLOUR( '', #260 );
#229 = VERTEX_POINT( '', #261 );
#230 = CIRCLE( '', #262, 7.00000000000000 );
#231 = VERTEX_POINT( '', #263 );
#232 = CIRCLE( '', #264, 7.00000000000000 );
#233 = VERTEX_POINT( '', #265 );
#234 = CIRCLE( '', #266, 7.00000000000000 );
#235 = VERTEX_POINT( '', #267 );
#236 = CIRCLE( '', #268, 7.00000000000000 );
#237 = VERTEX_POINT( '', #269 );
#238 = CIRCLE( '', #270, 11.5000000000000 );
#239 = VERTEX_POINT( '', #271 );
#240 = CIRCLE( '', #272, 45.0000000000000 );
#241 = FILL_AREA_STYLE_COLOUR( '', #273 );
#242 = VERTEX_POINT( '', #274 );
#243 = CIRCLE( '', #275, 7.00000000000000 );
#244 = FILL_AREA_STYLE_COLOUR( '', #276 );
#245 = VERTEX_POINT( '', #277 );
#246 = CIRCLE( '', #278, 7.00000000000000 );
#247 = FILL_AREA_STYLE_COLOUR( '', #279 );
#248 = VERTEX_POINT( '', #280 );
#249 = CIRCLE( '', #281, 7.00000000000000 );
#250 = FILL_AREA_STYLE_COLOUR( '', #282 );
#251 = VERTEX_POINT( '', #283 );
#252 = CIRCLE( '', #284, 45.0000000000000 );
#253 = FILL_AREA_STYLE_COLOUR( '', #285 );
#254 = VERTEX_POINT( '', #286 );
#255 = CIRCLE( '', #287, 7.00000000000000 );
#256 = FILL_AREA_STYLE_COLOUR( '', #288 );
#257 = VERTEX_POINT( '', #289 );
#258 = CIRCLE( '', #290, 11.5000000000000 );
#259 = FILL_AREA_STYLE_COLOUR( '', #291 );
#260 = COLOUR_RGB( '', 0.689999997615814, 0.689999997615814, 0.689999997615814 );
#261 = CARTESIAN_POINT( '', ( -23.0000000000000, -6.93889390390723E-015, 0.000000000000000 ) );
#262 = AXIS2_PLACEMENT_3D( '', #292, #293, #294 );
#263 = CARTESIAN_POINT( '', ( 7.00000000000000, -30.0000000000000, 0.000000000000000 ) );
#264 = AXIS2_PLACEMENT_3D( '', #295, #296, #297 );
#265 = CARTESIAN_POINT( '', ( 37.0000000000000, 3.46944695195361E-015, 0.000000000000000 ) );
#266 = AXIS2_PLACEMENT_3D( '', #298, #299, #300 );
#267 = CARTESIAN_POINT( '', ( 7.00000000000000, 30.0000000000000, 0.000000000000000 ) );
#268 = AXIS2_PLACEMENT_3D( '', #301, #302, #303 );
#269 = CARTESIAN_POINT( '', ( 11.5000000000000, 0.000000000000000, 0.000000000000000 ) );
#270 = AXIS2_PLACEMENT_3D( '', #304, #305, #306 );
#271 = CARTESIAN_POINT( '', ( 45.0000000000000, 0.000000000000000, 0.000000000000000 ) );
#272 = AXIS2_PLACEMENT_3D( '', #307, #308, #309 );
#273 = COLOUR_RGB( '', 0.689999997615814, 0.689999997615814, 0.689999997615814 );
#274 = CARTESIAN_POINT( '', ( 37.0000000000000, 3.46944695195361E-015, 10.0000000000000 ) );
#275 = AXIS2_PLACEMENT_3D( '', #310, #311, #312 );
#276 = COLOUR_RGB( '', 0.689999997615814, 0.689999997615814, 0.689999997615814 );
#277 = CARTESIAN_POINT( '', ( -23.0000000000000, -6.93889390390723E-015, 10.0000000000000 ) );
#278 = AXIS2_PLACEMENT_3D( '', #313, #314, #315 );
#279 = COLOUR_RGB( '', 0.689999997615814, 0.689999997615814, 0.689999997615814 );
#280 = CARTESIAN_POINT( '', ( 7.00000000000000, -30.0000000000000, 10.0000000000000 ) );
#281 = AXIS2_PLACEMENT_3D( '', #316, #317, #318 );
#282 = COLOUR_RGB( '', 0.689999997615814, 0.689999997615814, 0.689999997615814 );
#283 = CARTESIAN_POINT( '', ( 45.0000000000000, 0.000000000000000, 10.0000000000000 ) );
#284 = AXIS2_PLACEMENT_3D( '', #319, #320, #321 );
#285 = COLOUR_RGB( '', 0.689999997615814, 0.689999997615814, 0.689999997615814 );
#286 = CARTESIAN_POINT( '', ( 7.00000000000000, 30.0000000000000, 10.0000000000000 ) );
#287 = AXIS2_PLACEMENT_3D( '', #322, #323, #324 );
#288 = COLOUR_RGB( '', 0.689999997615814, 0.689999997615814, 0.689999997615814 );
#289 = CARTESIAN_POINT( '', ( 11.5000000000000, 0.000000000000000, 10.0000000000000 ) );
#290 = AXIS2_PLACEMENT_3D( '', #325, #326, #327 );
#291 = COLOUR_RGB( '', 0.689999997615814, 0.689999997615814, 0.689999997615814 );
#292 = CARTESIAN_POINT( '', ( -30.0000000000000, -6.93889390390723E-015, 0.000000000000000 ) );
#293 = DIRECTION( '', ( 0.000000000000000, 0.000000000000000, 1.00000000000000 ) );
#294 = DIRECTION( '', ( 1.00000000000000, 0.000000000000000, 0.000000000000000 ) );
#295 = CARTESIAN_POINT( '', ( 3.67394039744206E-015, -30.0000000000000, 0.000000000000000 ) );
#296 = DIRECTION( '', ( 0.000000000000000, 0.000000000000000, 1.00000000000000 ) );
#297 = DIRECTION( '', ( 1.00000000000000, 0.000000000000000, 0.000000000000000 ) );
#298 = CARTESIAN_POINT( '', ( 30.0000000000000, 3.46944695195361E-015, 0.000000000000000 ) );
#299 = DIRECTION( '', ( 0.000000000000000, 0.000000000000000, 1.00000000000000 ) );
#300 = DIRECTION( '', ( 1.00000000000000, 0.000000000000000, 0.000000000000000 ) );
#301 = CARTESIAN_POINT( '', ( 0.000000000000000, 30.0000000000000, 0.000000000000000 ) );
#302 = DIRECTION( '', ( 0.000000000000000, 0.000000000000000, 1.00000000000000 ) );
#303 = DIRECTION( '', ( 1.00000000000000, 0.000000000000000, 0.000000000000000 ) );
#304 = CARTESIAN_POINT( '', ( 0.000000000000000, 0.000000000000000, 0.000000000000000 ) );
#305 = DIRECTION( '', ( 0.000000000000000, 0.000000000000000, 1.00000000000000 ) );
#306 = DIRECTION( '', ( 1.00000000000000, 0.000000000000000, 0.000000000000000 ) );
#307 = CARTESIAN_POINT( '', ( 0.000000000000000, 0.000000000000000, 0.000000000000000 ) );
#308 = DIRECTION( '', ( 0.000000000000000, 0.000000000000000, 1.00000000000000 ) );
#309 = DIRECTION( '', ( 1.00000000000000, 0.000000000000000, 0.000000000000000 ) );
#310 = CARTESIAN_POINT( '', ( 30.0000000000000, 3.46944695195361E-015, 10.0000000000000 ) );
#311 = DIRECTION( '', ( 0.000000000000000, 0.000000000000000, 1.00000000000000 ) );
#312 = DIRECTION( '', ( 1.00000000000000, 0.000000000000000, 0.000000000000000 ) );
#313 = CARTESIAN_POINT( '', ( -30.0000000000000, -6.93889390390723E-015, 10.0000000000000 ) );
#314 = DIRECTION( '', ( 0.000000000000000, 0.000000000000000, 1.00000000000000 ) );
#315 = DIRECTION( '', ( 1.00000000000000, 0.000000000000000, 0.000000000000000 ) );
#316 = CARTESIAN_POINT( '', ( 3.67394039744206E-015, -30.0000000000000, 10.0000000000000 ) );
#317 = DIRECTION( '', ( 0.000000000000000, 0.000000000000000, 1.00000000000000 ) );
#318 = DIRECTION( '', ( 1.00000000000000, 0.000000000000000, 0.000000000000000 ) );
#319 = CARTESIAN_POINT( '', ( 0.000000000000000, 0.000000000000000, 10.0000000000000 ) );
#320 = DIRECTION( '', ( 0.000000000000000, 0.000000000000000, 1.00000000000000 ) );
#321 = DIRECTION( '', ( 1.00000000000000, 0.000000000000000, 0.000000000000000 ) );
#322 = CARTESIAN_POINT( '', ( 0.000000000000000, 30.0000000000000, 10.0000000000000 ) );
#323 = DIRECTION( '', ( 0.000000000000000, 0.000000000000000, 1.00000000000000 ) );
#324 = DIRECTION( '', ( 1.00000000000000, 0.000000000000000, 0.000000000000000 ) );
#325 = CARTESIAN_POINT( '', ( 0.000000000000000, 0.000000000000000, 10.0000000000000 ) );
#326 = DIRECTION( '', ( 0.000000000000000, 0.000000000000000, 1.00000000000000 ) );
#327 = DIRECTION( '', ( 1.00000000000000, 0.000000000000000, 0.000000000000000 ) );
ENDSEC;
END-ISO-10303-21;
