ISO-10303-21;
HEADER;
FILE_DESCRIPTION( ( '' ), '1' );
FILE_NAME( '//se01002/users/anro/AGRU_12705004026_PPH_grau_Rohr__5m_40X1_8__SDR26__ISO_S-12_5_10.stp', '2018-02-07T07:50:34', ( '' ), ( '' ), ' ', ' ', ' ' );
FILE_SCHEMA( ( 'automotive_design' ) );
ENDSEC;
DATA;
#1 = MECHANICAL_DESIGN_GEOMETRIC_PRESENTATION_REPRESENTATION( ' ', ( #10, #11, #12, #13, #14, #15, #16, #17, #18, #19, #20, #21, #22, #23, #24, #25, #26, #27, #28, #29, #30, #31, #32, #33, #34, #35, #36 ), #6 );
#2 = PRODUCT_DEFINITION_CONTEXT( '', #37, 'design' );
#3 = APPLICATION_PROTOCOL_DEFINITION( 'INTERNATIONAL STANDARD', 'automotive_design', 1994, #37 );
#4 = PRODUCT_CATEGORY_RELATIONSHIP( 'NONE', 'NONE', #38, #39 );
#5 = SHAPE_DEFINITION_REPRESENTATION( #40, #41 );
#6 =  ( GEOMETRIC_REPRESENTATION_CONTEXT( 3 )GLOBAL_UNCERTAINTY_ASSIGNED_CONTEXT( ( #44 ) )GLOBAL_UNIT_ASSIGNED_CONTEXT( ( #46, #47, #48 ) )REPRESENTATION_CONTEXT( 'NONE', 'WORKSPACE' ) );
#10 = STYLED_ITEM( '', ( #50 ), #51 );
#11 = STYLED_ITEM( '', ( #52 ), #53 );
#12 = STYLED_ITEM( '', ( #54 ), #55 );
#13 = STYLED_ITEM( '', ( #56 ), #57 );
#14 = STYLED_ITEM( '', ( #58 ), #59 );
#15 = STYLED_ITEM( '', ( #60 ), #61 );
#16 = STYLED_ITEM( '', ( #62 ), #63 );
#17 = STYLED_ITEM( '', ( #64 ), #65 );
#18 = STYLED_ITEM( '', ( #66 ), #67 );
#19 = STYLED_ITEM( '', ( #68 ), #69 );
#20 = STYLED_ITEM( '', ( #70 ), #71 );
#21 = STYLED_ITEM( '', ( #72 ), #73 );
#22 = STYLED_ITEM( '', ( #74 ), #75 );
#23 = STYLED_ITEM( '', ( #76 ), #77 );
#24 = STYLED_ITEM( '', ( #78 ), #79 );
#25 = STYLED_ITEM( '', ( #80 ), #81 );
#26 = STYLED_ITEM( '', ( #82 ), #83 );
#27 = STYLED_ITEM( '', ( #84 ), #85 );
#28 = STYLED_ITEM( '', ( #86 ), #87 );
#29 = STYLED_ITEM( '', ( #88 ), #89 );
#30 = STYLED_ITEM( '', ( #90 ), #91 );
#31 = STYLED_ITEM( '', ( #92 ), #93 );
#32 = STYLED_ITEM( '', ( #94 ), #95 );
#33 = STYLED_ITEM( '', ( #96 ), #97 );
#34 = STYLED_ITEM( '', ( #98 ), #99 );
#35 = STYLED_ITEM( '', ( #100 ), #101 );
#36 = STYLED_ITEM( '', ( #102 ), #103 );
#37 = APPLICATION_CONTEXT( ' ' );
#38 = PRODUCT_CATEGORY( 'part', 'NONE' );
#39 = PRODUCT_RELATED_PRODUCT_CATEGORY( 'detail', ' ', ( #104 ) );
#40 = PRODUCT_DEFINITION_SHAPE( 'NONE', 'NONE', #105 );
#41 = ADVANCED_BREP_SHAPE_REPRESENTATION( '1', ( #69, #106 ), #6 );
#44 = UNCERTAINTY_MEASURE_WITH_UNIT( LENGTH_MEASURE( 1.00000000000000E-006 ), #46, '', '' );
#46 =  ( CONVERSION_BASED_UNIT( 'MILLIMETRE', #109 )LENGTH_UNIT(  )NAMED_UNIT( #112 ) );
#47 =  ( NAMED_UNIT( #114 )PLANE_ANGLE_UNIT(  )SI_UNIT( $, .RADIAN. ) );
#48 =  ( NAMED_UNIT( #114 )SOLID_ANGLE_UNIT(  )SI_UNIT( $, .STERADIAN. ) );
#50 = PRESENTATION_STYLE_ASSIGNMENT( ( #120 ) );
#51 = VERTEX_POINT( '', #121 );
#52 = PRESENTATION_STYLE_ASSIGNMENT( ( #122 ) );
#53 = VERTEX_POINT( '', #123 );
#54 = PRESENTATION_STYLE_ASSIGNMENT( ( #124 ) );
#55 = EDGE_CURVE( '', #51, #101, #125, .T. );
#56 = PRESENTATION_STYLE_ASSIGNMENT( ( #126 ) );
#57 = EDGE_CURVE( '', #65, #101, #127, .T. );
#58 = PRESENTATION_STYLE_ASSIGNMENT( ( #128 ) );
#59 = ADVANCED_FACE( '', ( #129 ), #130, .F. );
#60 = PRESENTATION_STYLE_ASSIGNMENT( ( #131 ) );
#61 = EDGE_CURVE( '', #53, #95, #132, .T. );
#62 = PRESENTATION_STYLE_ASSIGNMENT( ( #133 ) );
#63 = VERTEX_POINT( '', #134 );
#64 = PRESENTATION_STYLE_ASSIGNMENT( ( #135 ) );
#65 = VERTEX_POINT( '', #136 );
#66 = PRESENTATION_STYLE_ASSIGNMENT( ( #137 ) );
#67 = ADVANCED_FACE( '', ( #138 ), #139, .T. );
#68 = PRESENTATION_STYLE_ASSIGNMENT( ( #140 ) );
#69 = MANIFOLD_SOLID_BREP( '1', #141 );
#70 = PRESENTATION_STYLE_ASSIGNMENT( ( #142 ) );
#71 = ADVANCED_FACE( '', ( #143, #144 ), #145, .F. );
#72 = PRESENTATION_STYLE_ASSIGNMENT( ( #146 ) );
#73 = EDGE_CURVE( '', #83, #77, #147, .T. );
#74 = PRESENTATION_STYLE_ASSIGNMENT( ( #148 ) );
#75 = EDGE_CURVE( '', #95, #53, #149, .T. );
#76 = PRESENTATION_STYLE_ASSIGNMENT( ( #150 ) );
#77 = VERTEX_POINT( '', #151 );
#78 = PRESENTATION_STYLE_ASSIGNMENT( ( #152 ) );
#79 = EDGE_CURVE( '', #77, #53, #153, .T. );
#80 = PRESENTATION_STYLE_ASSIGNMENT( ( #154 ) );
#81 = ADVANCED_FACE( '', ( #155 ), #156, .F. );
#82 = PRESENTATION_STYLE_ASSIGNMENT( ( #157 ) );
#83 = VERTEX_POINT( '', #158 );
#84 = PRESENTATION_STYLE_ASSIGNMENT( ( #159 ) );
#85 = ADVANCED_FACE( '', ( #160, #161 ), #162, .T. );
#86 = PRESENTATION_STYLE_ASSIGNMENT( ( #163 ) );
#87 = EDGE_CURVE( '', #65, #63, #164, .T. );
#88 = PRESENTATION_STYLE_ASSIGNMENT( ( #165 ) );
#89 = EDGE_CURVE( '', #77, #83, #166, .T. );
#90 = PRESENTATION_STYLE_ASSIGNMENT( ( #167 ) );
#91 = ADVANCED_FACE( '', ( #168 ), #169, .T. );
#92 = PRESENTATION_STYLE_ASSIGNMENT( ( #170 ) );
#93 = EDGE_CURVE( '', #63, #51, #171, .T. );
#94 = PRESENTATION_STYLE_ASSIGNMENT( ( #172 ) );
#95 = VERTEX_POINT( '', #173 );
#96 = PRESENTATION_STYLE_ASSIGNMENT( ( #174 ) );
#97 = EDGE_CURVE( '', #101, #65, #175, .T. );
#98 = PRESENTATION_STYLE_ASSIGNMENT( ( #176 ) );
#99 = EDGE_CURVE( '', #51, #63, #177, .T. );
#100 = PRESENTATION_STYLE_ASSIGNMENT( ( #178 ) );
#101 = VERTEX_POINT( '', #179 );
#102 = PRESENTATION_STYLE_ASSIGNMENT( ( #180 ) );
#103 = EDGE_CURVE( '', #95, #83, #181, .T. );
#104 = PRODUCT( '1', '1', 'PART-1-DESC', ( #182 ) );
#105 = PRODUCT_DEFINITION( 'NONE', 'NONE', #183, #2 );
#106 = AXIS2_PLACEMENT_3D( '', #184, #185, #186 );
#109 = LENGTH_MEASURE_WITH_UNIT( LENGTH_MEASURE( 1.00000000000000 ), #187 );
#112 = DIMENSIONAL_EXPONENTS( 1.00000000000000, 0.000000000000000, 0.000000000000000, 0.000000000000000, 0.000000000000000, 0.000000000000000, 0.000000000000000 );
#114 = DIMENSIONAL_EXPONENTS( 0.000000000000000, 0.000000000000000, 0.000000000000000, 0.000000000000000, 0.000000000000000, 0.000000000000000, 0.000000000000000 );
#120 = POINT_STYLE( ' ', #188, POSITIVE_LENGTH_MEASURE( 1.00000000000000E-006 ), #189 );
#121 = CARTESIAN_POINT( '', ( 5000.00000000000, 2.44921270764475E-015, 20.0000000000000 ) );
#122 = POINT_STYLE( ' ', #190, POSITIVE_LENGTH_MEASURE( 1.00000000000000E-006 ), #191 );
#123 = CARTESIAN_POINT( '', ( 5000.00000000000, 0.000000000000000, -18.2000000000000 ) );
#124 = CURVE_STYLE( '', #192, POSITIVE_LENGTH_MEASURE( 1.00000000000000E-006 ), #193 );
#125 = LINE( '', #194, #195 );
#126 = CURVE_STYLE( '', #196, POSITIVE_LENGTH_MEASURE( 1.00000000000000E-006 ), #197 );
#127 = CIRCLE( '', #198, 20.0000000000000 );
#128 = SURFACE_STYLE_USAGE( .BOTH., #199 );
#129 = FACE_OUTER_BOUND( '', #200, .T. );
#130 = CYLINDRICAL_SURFACE( '', #201, 18.2000000000000 );
#131 = CURVE_STYLE( '', #202, POSITIVE_LENGTH_MEASURE( 1.00000000000000E-006 ), #203 );
#132 = CIRCLE( '', #204, 18.2000000000000 );
#133 = POINT_STYLE( ' ', #205, POSITIVE_LENGTH_MEASURE( 1.00000000000000E-006 ), #206 );
#134 = CARTESIAN_POINT( '', ( 5000.00000000000, 0.000000000000000, -20.0000000000000 ) );
#135 = POINT_STYLE( ' ', #207, POSITIVE_LENGTH_MEASURE( 1.00000000000000E-006 ), #208 );
#136 = CARTESIAN_POINT( '', ( 0.000000000000000, 0.000000000000000, -20.0000000000000 ) );
#137 = SURFACE_STYLE_USAGE( .BOTH., #209 );
#138 = FACE_OUTER_BOUND( '', #210, .T. );
#139 = CYLINDRICAL_SURFACE( '', #211, 20.0000000000000 );
#140 = SURFACE_STYLE_USAGE( .BOTH., #212 );
#141 = CLOSED_SHELL( '', ( #91, #81, #59, #67, #85, #71 ) );
#142 = SURFACE_STYLE_USAGE( .BOTH., #213 );
#143 = FACE_OUTER_BOUND( '', #214, .T. );
#144 = FACE_BOUND( '', #215, .T. );
#145 = PLANE( '', #216 );
#146 = CURVE_STYLE( '', #217, POSITIVE_LENGTH_MEASURE( 1.00000000000000E-006 ), #218 );
#147 = CIRCLE( '', #219, 18.2000000000000 );
#148 = CURVE_STYLE( '', #220, POSITIVE_LENGTH_MEASURE( 1.00000000000000E-006 ), #221 );
#149 = CIRCLE( '', #222, 18.2000000000000 );
#150 = POINT_STYLE( ' ', #223, POSITIVE_LENGTH_MEASURE( 1.00000000000000E-006 ), #224 );
#151 = CARTESIAN_POINT( '', ( 0.000000000000000, 0.000000000000000, -18.2000000000000 ) );
#152 = CURVE_STYLE( '', #225, POSITIVE_LENGTH_MEASURE( 1.00000000000000E-006 ), #226 );
#153 = LINE( '', #227, #228 );
#154 = SURFACE_STYLE_USAGE( .BOTH., #229 );
#155 = FACE_OUTER_BOUND( '', #230, .T. );
#156 = CYLINDRICAL_SURFACE( '', #231, 18.2000000000000 );
#157 = POINT_STYLE( ' ', #232, POSITIVE_LENGTH_MEASURE( 1.00000000000000E-006 ), #233 );
#158 = CARTESIAN_POINT( '', ( 0.000000000000000, 2.22878356395673E-015, 18.2000000000000 ) );
#159 = SURFACE_STYLE_USAGE( .BOTH., #234 );
#160 = FACE_OUTER_BOUND( '', #235, .T. );
#161 = FACE_BOUND( '', #236, .T. );
#162 = PLANE( '', #237 );
#163 = CURVE_STYLE( '', #238, POSITIVE_LENGTH_MEASURE( 1.00000000000000E-006 ), #239 );
#164 = LINE( '', #240, #241 );
#165 = CURVE_STYLE( '', #242, POSITIVE_LENGTH_MEASURE( 1.00000000000000E-006 ), #243 );
#166 = CIRCLE( '', #244, 18.2000000000000 );
#167 = SURFACE_STYLE_USAGE( .BOTH., #245 );
#168 = FACE_OUTER_BOUND( '', #246, .T. );
#169 = CYLINDRICAL_SURFACE( '', #247, 20.0000000000000 );
#170 = CURVE_STYLE( '', #248, POSITIVE_LENGTH_MEASURE( 1.00000000000000E-006 ), #249 );
#171 = CIRCLE( '', #250, 20.0000000000000 );
#172 = POINT_STYLE( ' ', #251, POSITIVE_LENGTH_MEASURE( 1.00000000000000E-006 ), #252 );
#173 = CARTESIAN_POINT( '', ( 5000.00000000000, 2.22878356395673E-015, 18.2000000000000 ) );
#174 = CURVE_STYLE( '', #253, POSITIVE_LENGTH_MEASURE( 1.00000000000000E-006 ), #254 );
#175 = CIRCLE( '', #255, 20.0000000000000 );
#176 = CURVE_STYLE( '', #256, POSITIVE_LENGTH_MEASURE( 1.00000000000000E-006 ), #257 );
#177 = CIRCLE( '', #258, 20.0000000000000 );
#178 = POINT_STYLE( ' ', #259, POSITIVE_LENGTH_MEASURE( 1.00000000000000E-006 ), #260 );
#179 = CARTESIAN_POINT( '', ( 0.000000000000000, 2.44921270764475E-015, 20.0000000000000 ) );
#180 = CURVE_STYLE( '', #261, POSITIVE_LENGTH_MEASURE( 1.00000000000000E-006 ), #262 );
#181 = LINE( '', #263, #264 );
#182 = PRODUCT_CONTEXT( '', #37, 'mechanical' );
#183 = PRODUCT_DEFINITION_FORMATION_WITH_SPECIFIED_SOURCE( ' ', 'NONE', #104, .NOT_KNOWN. );
#184 = CARTESIAN_POINT( '', ( 0.000000000000000, 0.000000000000000, 0.000000000000000 ) );
#185 = DIRECTION( '', ( 0.000000000000000, 0.000000000000000, 1.00000000000000 ) );
#186 = DIRECTION( '', ( 1.00000000000000, 0.000000000000000, 0.000000000000000 ) );
#187 =  ( NAMED_UNIT( #112 )LENGTH_UNIT(  )SI_UNIT( .MILLI., .METRE. ) );
#188 = PRE_DEFINED_MARKER( '' );
#189 = COLOUR_RGB( '', 0.689999997615810, 0.689999997615810, 0.689999997615810 );
#190 = PRE_DEFINED_MARKER( '' );
#191 = COLOUR_RGB( '', 0.689999997615810, 0.689999997615810, 0.689999997615810 );
#192 = DRAUGHTING_PRE_DEFINED_CURVE_FONT( 'continuous' );
#193 = COLOUR_RGB( '', 0.689999997615810, 0.689999997615810, 0.689999997615810 );
#194 = CARTESIAN_POINT( '', ( 0.000000000000000, 2.44921270764475E-015, 20.0000000000000 ) );
#195 = VECTOR( '', #266, 1.00000000000000 );
#196 = DRAUGHTING_PRE_DEFINED_CURVE_FONT( 'continuous' );
#197 = COLOUR_RGB( '', 0.689999997615810, 0.689999997615810, 0.689999997615810 );
#198 = AXIS2_PLACEMENT_3D( '', #267, #268, #269 );
#199 = SURFACE_SIDE_STYLE( '', ( #270 ) );
#200 = EDGE_LOOP( '', ( #271, #272, #273, #274 ) );
#201 = AXIS2_PLACEMENT_3D( '', #275, #276, #277 );
#202 = DRAUGHTING_PRE_DEFINED_CURVE_FONT( 'continuous' );
#203 = COLOUR_RGB( '', 0.689999997615810, 0.689999997615810, 0.689999997615810 );
#204 = AXIS2_PLACEMENT_3D( '', #278, #279, #280 );
#205 = PRE_DEFINED_MARKER( '' );
#206 = COLOUR_RGB( '', 0.689999997615810, 0.689999997615810, 0.689999997615810 );
#207 = PRE_DEFINED_MARKER( '' );
#208 = COLOUR_RGB( '', 0.689999997615810, 0.689999997615810, 0.689999997615810 );
#209 = SURFACE_SIDE_STYLE( '', ( #281 ) );
#210 = EDGE_LOOP( '', ( #282, #283, #284, #285 ) );
#211 = AXIS2_PLACEMENT_3D( '', #286, #287, #288 );
#212 = SURFACE_SIDE_STYLE( '', ( #289 ) );
#213 = SURFACE_SIDE_STYLE( '', ( #290 ) );
#214 = EDGE_LOOP( '', ( #291, #292 ) );
#215 = EDGE_LOOP( '', ( #293, #294 ) );
#216 = AXIS2_PLACEMENT_3D( '', #295, #296, #297 );
#217 = DRAUGHTING_PRE_DEFINED_CURVE_FONT( 'continuous' );
#218 = COLOUR_RGB( '', 0.689999997615810, 0.689999997615810, 0.689999997615810 );
#219 = AXIS2_PLACEMENT_3D( '', #298, #299, #300 );
#220 = DRAUGHTING_PRE_DEFINED_CURVE_FONT( 'continuous' );
#221 = COLOUR_RGB( '', 0.689999997615810, 0.689999997615810, 0.689999997615810 );
#222 = AXIS2_PLACEMENT_3D( '', #301, #302, #303 );
#223 = PRE_DEFINED_MARKER( '' );
#224 = COLOUR_RGB( '', 0.689999997615810, 0.689999997615810, 0.689999997615810 );
#225 = DRAUGHTING_PRE_DEFINED_CURVE_FONT( 'continuous' );
#226 = COLOUR_RGB( '', 0.689999997615810, 0.689999997615810, 0.689999997615810 );
#227 = CARTESIAN_POINT( '', ( 0.000000000000000, -2.22878356395673E-015, -18.2000000000000 ) );
#228 = VECTOR( '', #304, 1.00000000000000 );
#229 = SURFACE_SIDE_STYLE( '', ( #305 ) );
#230 = EDGE_LOOP( '', ( #306, #307, #308, #309 ) );
#231 = AXIS2_PLACEMENT_3D( '', #310, #311, #312 );
#232 = PRE_DEFINED_MARKER( '' );
#233 = COLOUR_RGB( '', 0.689999997615810, 0.689999997615810, 0.689999997615810 );
#234 = SURFACE_SIDE_STYLE( '', ( #313 ) );
#235 = EDGE_LOOP( '', ( #314, #315 ) );
#236 = EDGE_LOOP( '', ( #316, #317 ) );
#237 = AXIS2_PLACEMENT_3D( '', #318, #319, #320 );
#238 = DRAUGHTING_PRE_DEFINED_CURVE_FONT( 'continuous' );
#239 = COLOUR_RGB( '', 0.689999997615810, 0.689999997615810, 0.689999997615810 );
#240 = CARTESIAN_POINT( '', ( 0.000000000000000, -2.44921270764475E-015, -20.0000000000000 ) );
#241 = VECTOR( '', #321, 1.00000000000000 );
#242 = DRAUGHTING_PRE_DEFINED_CURVE_FONT( 'continuous' );
#243 = COLOUR_RGB( '', 0.689999997615810, 0.689999997615810, 0.689999997615810 );
#244 = AXIS2_PLACEMENT_3D( '', #322, #323, #324 );
#245 = SURFACE_SIDE_STYLE( '', ( #325 ) );
#246 = EDGE_LOOP( '', ( #326, #327, #328, #329 ) );
#247 = AXIS2_PLACEMENT_3D( '', #330, #331, #332 );
#248 = DRAUGHTING_PRE_DEFINED_CURVE_FONT( 'continuous' );
#249 = COLOUR_RGB( '', 0.689999997615810, 0.689999997615810, 0.689999997615810 );
#250 = AXIS2_PLACEMENT_3D( '', #333, #334, #335 );
#251 = PRE_DEFINED_MARKER( '' );
#252 = COLOUR_RGB( '', 0.689999997615810, 0.689999997615810, 0.689999997615810 );
#253 = DRAUGHTING_PRE_DEFINED_CURVE_FONT( 'continuous' );
#254 = COLOUR_RGB( '', 0.689999997615810, 0.689999997615810, 0.689999997615810 );
#255 = AXIS2_PLACEMENT_3D( '', #336, #337, #338 );
#256 = DRAUGHTING_PRE_DEFINED_CURVE_FONT( 'continuous' );
#257 = COLOUR_RGB( '', 0.689999997615810, 0.689999997615810, 0.689999997615810 );
#258 = AXIS2_PLACEMENT_3D( '', #339, #340, #341 );
#259 = PRE_DEFINED_MARKER( '' );
#260 = COLOUR_RGB( '', 0.689999997615810, 0.689999997615810, 0.689999997615810 );
#261 = DRAUGHTING_PRE_DEFINED_CURVE_FONT( 'continuous' );
#262 = COLOUR_RGB( '', 0.689999997615810, 0.689999997615810, 0.689999997615810 );
#263 = CARTESIAN_POINT( '', ( 0.000000000000000, 2.22878356395673E-015, 18.2000000000000 ) );
#264 = VECTOR( '', #342, 1.00000000000000 );
#266 = DIRECTION( '', ( -1.00000000000000, -0.000000000000000, -0.000000000000000 ) );
#267 = CARTESIAN_POINT( '', ( 0.000000000000000, 0.000000000000000, 0.000000000000000 ) );
#268 = DIRECTION( '', ( 1.00000000000000, -0.000000000000000, 0.000000000000000 ) );
#269 = DIRECTION( '', ( 0.000000000000000, 0.000000000000000, -1.00000000000000 ) );
#270 = SURFACE_STYLE_FILL_AREA( #343 );
#271 = ORIENTED_EDGE( '', *, *, #79, .T. );
#272 = ORIENTED_EDGE( '', *, *, #61, .T. );
#273 = ORIENTED_EDGE( '', *, *, #103, .T. );
#274 = ORIENTED_EDGE( '', *, *, #89, .F. );
#275 = CARTESIAN_POINT( '', ( 0.000000000000000, 0.000000000000000, 0.000000000000000 ) );
#276 = DIRECTION( '', ( -1.00000000000000, -0.000000000000000, -0.000000000000000 ) );
#277 = DIRECTION( '', ( 0.000000000000000, 0.000000000000000, -1.00000000000000 ) );
#278 = CARTESIAN_POINT( '', ( 5000.00000000000, 0.000000000000000, 0.000000000000000 ) );
#279 = DIRECTION( '', ( 1.00000000000000, 0.000000000000000, 0.000000000000000 ) );
#280 = DIRECTION( '', ( 0.000000000000000, 0.000000000000000, -1.00000000000000 ) );
#281 = SURFACE_STYLE_FILL_AREA( #344 );
#282 = ORIENTED_EDGE( '', *, *, #87, .T. );
#283 = ORIENTED_EDGE( '', *, *, #93, .T. );
#284 = ORIENTED_EDGE( '', *, *, #55, .T. );
#285 = ORIENTED_EDGE( '', *, *, #97, .T. );
#286 = CARTESIAN_POINT( '', ( 0.000000000000000, 0.000000000000000, 0.000000000000000 ) );
#287 = DIRECTION( '', ( -1.00000000000000, -0.000000000000000, -0.000000000000000 ) );
#288 = DIRECTION( '', ( 0.000000000000000, 0.000000000000000, -1.00000000000000 ) );
#289 = SURFACE_STYLE_FILL_AREA( #345 );
#290 = SURFACE_STYLE_FILL_AREA( #346 );
#291 = ORIENTED_EDGE( '', *, *, #57, .F. );
#292 = ORIENTED_EDGE( '', *, *, #97, .F. );
#293 = ORIENTED_EDGE( '', *, *, #89, .T. );
#294 = ORIENTED_EDGE( '', *, *, #73, .T. );
#295 = CARTESIAN_POINT( '', ( 0.000000000000000, 0.000000000000000, 0.000000000000000 ) );
#296 = DIRECTION( '', ( 1.00000000000000, 0.000000000000000, 0.000000000000000 ) );
#297 = DIRECTION( '', ( 0.000000000000000, 0.000000000000000, -1.00000000000000 ) );
#298 = CARTESIAN_POINT( '', ( 0.000000000000000, 0.000000000000000, 0.000000000000000 ) );
#299 = DIRECTION( '', ( 1.00000000000000, -0.000000000000000, 0.000000000000000 ) );
#300 = DIRECTION( '', ( 0.000000000000000, 0.000000000000000, -1.00000000000000 ) );
#301 = CARTESIAN_POINT( '', ( 5000.00000000000, 0.000000000000000, 0.000000000000000 ) );
#302 = DIRECTION( '', ( 1.00000000000000, 0.000000000000000, 0.000000000000000 ) );
#303 = DIRECTION( '', ( 0.000000000000000, 0.000000000000000, -1.00000000000000 ) );
#304 = DIRECTION( '', ( 1.00000000000000, 0.000000000000000, 0.000000000000000 ) );
#305 = SURFACE_STYLE_FILL_AREA( #347 );
#306 = ORIENTED_EDGE( '', *, *, #79, .F. );
#307 = ORIENTED_EDGE( '', *, *, #73, .F. );
#308 = ORIENTED_EDGE( '', *, *, #103, .F. );
#309 = ORIENTED_EDGE( '', *, *, #75, .T. );
#310 = CARTESIAN_POINT( '', ( 0.000000000000000, 0.000000000000000, 0.000000000000000 ) );
#311 = DIRECTION( '', ( -1.00000000000000, -0.000000000000000, -0.000000000000000 ) );
#312 = DIRECTION( '', ( 0.000000000000000, 0.000000000000000, -1.00000000000000 ) );
#313 = SURFACE_STYLE_FILL_AREA( #348 );
#314 = ORIENTED_EDGE( '', *, *, #93, .F. );
#315 = ORIENTED_EDGE( '', *, *, #99, .F. );
#316 = ORIENTED_EDGE( '', *, *, #61, .F. );
#317 = ORIENTED_EDGE( '', *, *, #75, .F. );
#318 = CARTESIAN_POINT( '', ( 5000.00000000000, 0.000000000000000, 0.000000000000000 ) );
#319 = DIRECTION( '', ( 1.00000000000000, 0.000000000000000, 0.000000000000000 ) );
#320 = DIRECTION( '', ( 0.000000000000000, 0.000000000000000, -1.00000000000000 ) );
#321 = DIRECTION( '', ( 1.00000000000000, 0.000000000000000, 0.000000000000000 ) );
#322 = CARTESIAN_POINT( '', ( 0.000000000000000, 0.000000000000000, 0.000000000000000 ) );
#323 = DIRECTION( '', ( 1.00000000000000, -0.000000000000000, 0.000000000000000 ) );
#324 = DIRECTION( '', ( 0.000000000000000, 0.000000000000000, -1.00000000000000 ) );
#325 = SURFACE_STYLE_FILL_AREA( #349 );
#326 = ORIENTED_EDGE( '', *, *, #87, .F. );
#327 = ORIENTED_EDGE( '', *, *, #57, .T. );
#328 = ORIENTED_EDGE( '', *, *, #55, .F. );
#329 = ORIENTED_EDGE( '', *, *, #99, .T. );
#330 = CARTESIAN_POINT( '', ( 0.000000000000000, 0.000000000000000, 0.000000000000000 ) );
#331 = DIRECTION( '', ( -1.00000000000000, -0.000000000000000, -0.000000000000000 ) );
#332 = DIRECTION( '', ( 0.000000000000000, 0.000000000000000, -1.00000000000000 ) );
#333 = CARTESIAN_POINT( '', ( 5000.00000000000, 0.000000000000000, 0.000000000000000 ) );
#334 = DIRECTION( '', ( -1.00000000000000, 0.000000000000000, 0.000000000000000 ) );
#335 = DIRECTION( '', ( 0.000000000000000, 0.000000000000000, -1.00000000000000 ) );
#336 = CARTESIAN_POINT( '', ( 0.000000000000000, 0.000000000000000, 0.000000000000000 ) );
#337 = DIRECTION( '', ( 1.00000000000000, -0.000000000000000, 0.000000000000000 ) );
#338 = DIRECTION( '', ( 0.000000000000000, 0.000000000000000, -1.00000000000000 ) );
#339 = CARTESIAN_POINT( '', ( 5000.00000000000, 0.000000000000000, 0.000000000000000 ) );
#340 = DIRECTION( '', ( -1.00000000000000, 0.000000000000000, 0.000000000000000 ) );
#341 = DIRECTION( '', ( 0.000000000000000, 0.000000000000000, -1.00000000000000 ) );
#342 = DIRECTION( '', ( -1.00000000000000, 0.000000000000000, 0.000000000000000 ) );
#343 = FILL_AREA_STYLE( '', ( #350 ) );
#344 = FILL_AREA_STYLE( '', ( #351 ) );
#345 = FILL_AREA_STYLE( '', ( #352 ) );
#346 = FILL_AREA_STYLE( '', ( #353 ) );
#347 = FILL_AREA_STYLE( '', ( #354 ) );
#348 = FILL_AREA_STYLE( '', ( #355 ) );
#349 = FILL_AREA_STYLE( '', ( #356 ) );
#350 = FILL_AREA_STYLE_COLOUR( '', #357 );
#351 = FILL_AREA_STYLE_COLOUR( '', #358 );
#352 = FILL_AREA_STYLE_COLOUR( '', #359 );
#353 = FILL_AREA_STYLE_COLOUR( '', #360 );
#354 = FILL_AREA_STYLE_COLOUR( '', #361 );
#355 = FILL_AREA_STYLE_COLOUR( '', #362 );
#356 = FILL_AREA_STYLE_COLOUR( '', #363 );
#357 = COLOUR_RGB( '', 0.689999997615810, 0.689999997615810, 0.689999997615810 );
#358 = COLOUR_RGB( '', 0.689999997615810, 0.689999997615810, 0.689999997615810 );
#359 = COLOUR_RGB( '', 0.689999997615810, 0.689999997615810, 0.689999997615810 );
#360 = COLOUR_RGB( '', 0.689999997615810, 0.689999997615810, 0.689999997615810 );
#361 = COLOUR_RGB( '', 0.689999997615810, 0.689999997615810, 0.689999997615810 );
#362 = COLOUR_RGB( '', 0.689999997615810, 0.689999997615810, 0.689999997615810 );
#363 = COLOUR_RGB( '', 0.689999997615810, 0.689999997615810, 0.689999997615810 );
ENDSEC;
END-ISO-10303-21;
