ISO-10303-21;
HEADER;
/* Generated by software containing ST-Developer
 * from STEP Tools, Inc. (www.steptools.com) 
 */

FILE_DESCRIPTION(
/* description */ (''),
/* implementation_level */ '2;1');

FILE_NAME(
/* name */ 
'Q:\\Ric010\\FF7\\FIPlastiCAD\\FIP\\Lavoro\\PVC Fittings\\PVC Fittings
 STEP\\AFV\\AFV038016018.ipt.stp',
/* time_stamp */ '2013-10-01T14:35:16+02:00',
/* author */ ('bfaro'),
/* organization */ (''),
/* preprocessor_version */ 'ST-DEVELOPER v15.2',
/* originating_system */ 'Autodesk Inventor 2014',
/* authorisation */ '');

FILE_SCHEMA (('AUTOMOTIVE_DESIGN { 1 0 10303 214 3 1 1 }'));
ENDSEC;

DATA;
#10=SHAPE_REPRESENTATION_RELATIONSHIP('SRR','None',#697,#11);
#11=ADVANCED_BREP_SHAPE_REPRESENTATION($,(#399),#688);
#12=STYLED_ITEM($,(#705),#399);
#13=LINE($,#652,#31);
#14=LINE($,#654,#32);
#15=LINE($,#656,#33);
#16=LINE($,#658,#34);
#17=LINE($,#660,#35);
#18=LINE($,#661,#36);
#19=LINE($,#665,#37);
#20=LINE($,#667,#38);
#21=LINE($,#669,#39);
#22=LINE($,#671,#40);
#23=LINE($,#673,#41);
#24=LINE($,#674,#42);
#25=LINE($,#676,#43);
#26=LINE($,#677,#44);
#27=LINE($,#679,#45);
#28=LINE($,#681,#46);
#29=LINE($,#683,#47);
#30=LINE($,#685,#48);
#31=VECTOR($,#548,8.6602540378444);
#32=VECTOR($,#549,8.66025403784439);
#33=VECTOR($,#550,8.66025403784438);
#34=VECTOR($,#551,8.66025403784438);
#35=VECTOR($,#552,8.66025403784438);
#36=VECTOR($,#553,8.66025403784438);
#37=VECTOR($,#556,8.66025403784439);
#38=VECTOR($,#557,8.6602540378444);
#39=VECTOR($,#558,8.66025403784438);
#40=VECTOR($,#559,8.66025403784438);
#41=VECTOR($,#560,8.66025403784438);
#42=VECTOR($,#561,8.66025403784438);
#43=VECTOR($,#564,3.5);
#44=VECTOR($,#565,3.5);
#45=VECTOR($,#568,3.5);
#46=VECTOR($,#571,3.5);
#47=VECTOR($,#574,3.5);
#48=VECTOR($,#577,3.5);
#49=PLANE($,#444);
#50=PLANE($,#445);
#51=PLANE($,#446);
#52=PLANE($,#447);
#53=PLANE($,#448);
#54=PLANE($,#449);
#55=PLANE($,#450);
#56=PLANE($,#451);
#57=PLANE($,#452);
#58=PLANE($,#453);
#59=CYLINDRICAL_SURFACE($,#418,6.);
#60=CYLINDRICAL_SURFACE($,#436,6.59999999999997);
#61=CYLINDRICAL_SURFACE($,#439,7.00000000000006);
#62=CYLINDRICAL_SURFACE($,#441,3.5);
#63=CONICAL_SURFACE($,#404,5.64772592093084,14.9999999999994);
#64=CONICAL_SURFACE($,#406,5.616209056223,80.0000000000055);
#65=CONICAL_SURFACE($,#408,5.616209056223,14.9999999999988);
#66=CONICAL_SURFACE($,#410,5.616209056223,80.0000000000059);
#67=CONICAL_SURFACE($,#412,5.616209056223,15.0000000000004);
#68=CONICAL_SURFACE($,#414,5.61620905622306,80.0000000000038);
#69=CONICAL_SURFACE($,#416,5.61620905622303,14.9999999999984);
#70=CONICAL_SURFACE($,#422,6.61793609518432,15.0000000000011);
#71=CONICAL_SURFACE($,#424,6.74348489250576,80.0000000000078);
#72=CONICAL_SURFACE($,#426,6.61620905622294,14.9999999999989);
#73=CONICAL_SURFACE($,#428,6.74348489250571,80.0000000000031);
#74=CONICAL_SURFACE($,#430,6.616209056223,15.0000000000001);
#75=CONICAL_SURFACE($,#432,6.616209056223,79.9999999999985);
#76=CONICAL_SURFACE($,#434,6.616209056223,15.0000000000016);
#77=FACE_BOUND($,#132,.T.);
#78=FACE_BOUND($,#134,.T.);
#79=FACE_BOUND($,#136,.T.);
#80=FACE_BOUND($,#138,.T.);
#81=FACE_BOUND($,#140,.T.);
#82=FACE_BOUND($,#142,.T.);
#83=FACE_BOUND($,#144,.T.);
#84=FACE_BOUND($,#146,.T.);
#85=FACE_BOUND($,#148,.T.);
#86=FACE_BOUND($,#150,.T.);
#87=FACE_BOUND($,#152,.T.);
#88=FACE_BOUND($,#154,.T.);
#89=FACE_BOUND($,#156,.T.);
#90=FACE_BOUND($,#158,.T.);
#91=FACE_BOUND($,#160,.T.);
#92=FACE_BOUND($,#162,.T.);
#93=FACE_BOUND($,#164,.T.);
#94=FACE_BOUND($,#166,.T.);
#95=FACE_BOUND($,#168,.T.);
#96=FACE_BOUND($,#170,.T.);
#97=FACE_BOUND($,#172,.T.);
#98=FACE_BOUND($,#174,.T.);
#99=FACE_BOUND($,#176,.T.);
#100=FACE_BOUND($,#178,.T.);
#101=FACE_OUTER_BOUND($,#131,.T.);
#102=FACE_OUTER_BOUND($,#133,.T.);
#103=FACE_OUTER_BOUND($,#135,.T.);
#104=FACE_OUTER_BOUND($,#137,.T.);
#105=FACE_OUTER_BOUND($,#139,.T.);
#106=FACE_OUTER_BOUND($,#141,.T.);
#107=FACE_OUTER_BOUND($,#143,.T.);
#108=FACE_OUTER_BOUND($,#145,.T.);
#109=FACE_OUTER_BOUND($,#147,.T.);
#110=FACE_OUTER_BOUND($,#149,.T.);
#111=FACE_OUTER_BOUND($,#151,.T.);
#112=FACE_OUTER_BOUND($,#153,.T.);
#113=FACE_OUTER_BOUND($,#155,.T.);
#114=FACE_OUTER_BOUND($,#157,.T.);
#115=FACE_OUTER_BOUND($,#159,.T.);
#116=FACE_OUTER_BOUND($,#161,.T.);
#117=FACE_OUTER_BOUND($,#163,.T.);
#118=FACE_OUTER_BOUND($,#165,.T.);
#119=FACE_OUTER_BOUND($,#167,.T.);
#120=FACE_OUTER_BOUND($,#169,.T.);
#121=FACE_OUTER_BOUND($,#171,.T.);
#122=FACE_OUTER_BOUND($,#173,.T.);
#123=FACE_OUTER_BOUND($,#175,.T.);
#124=FACE_OUTER_BOUND($,#177,.T.);
#125=FACE_OUTER_BOUND($,#179,.T.);
#126=FACE_OUTER_BOUND($,#180,.T.);
#127=FACE_OUTER_BOUND($,#181,.T.);
#128=FACE_OUTER_BOUND($,#182,.T.);
#129=FACE_OUTER_BOUND($,#183,.T.);
#130=FACE_OUTER_BOUND($,#184,.T.);
#131=EDGE_LOOP($,(#284));
#132=EDGE_LOOP($,(#285));
#133=EDGE_LOOP($,(#286));
#134=EDGE_LOOP($,(#287));
#135=EDGE_LOOP($,(#288));
#136=EDGE_LOOP($,(#289));
#137=EDGE_LOOP($,(#290));
#138=EDGE_LOOP($,(#291));
#139=EDGE_LOOP($,(#292));
#140=EDGE_LOOP($,(#293));
#141=EDGE_LOOP($,(#294));
#142=EDGE_LOOP($,(#295));
#143=EDGE_LOOP($,(#296));
#144=EDGE_LOOP($,(#297));
#145=EDGE_LOOP($,(#298));
#146=EDGE_LOOP($,(#299));
#147=EDGE_LOOP($,(#300));
#148=EDGE_LOOP($,(#301));
#149=EDGE_LOOP($,(#302));
#150=EDGE_LOOP($,(#303));
#151=EDGE_LOOP($,(#304));
#152=EDGE_LOOP($,(#305));
#153=EDGE_LOOP($,(#306));
#154=EDGE_LOOP($,(#307));
#155=EDGE_LOOP($,(#308));
#156=EDGE_LOOP($,(#309));
#157=EDGE_LOOP($,(#310));
#158=EDGE_LOOP($,(#311));
#159=EDGE_LOOP($,(#312));
#160=EDGE_LOOP($,(#313));
#161=EDGE_LOOP($,(#314));
#162=EDGE_LOOP($,(#315));
#163=EDGE_LOOP($,(#316));
#164=EDGE_LOOP($,(#317));
#165=EDGE_LOOP($,(#318));
#166=EDGE_LOOP($,(#319));
#167=EDGE_LOOP($,(#320));
#168=EDGE_LOOP($,(#321));
#169=EDGE_LOOP($,(#322));
#170=EDGE_LOOP($,(#323));
#171=EDGE_LOOP($,(#324));
#172=EDGE_LOOP($,(#325));
#173=EDGE_LOOP($,(#326));
#174=EDGE_LOOP($,(#327));
#175=EDGE_LOOP($,(#328,#329,#330,#331,#332,#333));
#176=EDGE_LOOP($,(#334));
#177=EDGE_LOOP($,(#335,#336,#337,#338,#339,#340));
#178=EDGE_LOOP($,(#341));
#179=EDGE_LOOP($,(#342,#343,#344,#345));
#180=EDGE_LOOP($,(#346,#347,#348,#349));
#181=EDGE_LOOP($,(#350,#351,#352,#353));
#182=EDGE_LOOP($,(#354,#355,#356,#357));
#183=EDGE_LOOP($,(#358,#359,#360,#361));
#184=EDGE_LOOP($,(#362,#363,#364,#365));
#185=CIRCLE($,#402,5.29545184186168);
#186=CIRCLE($,#403,4.81248892871713);
#187=CIRCLE($,#405,5.99999999999997);
#188=CIRCLE($,#407,5.23241811244603);
#189=CIRCLE($,#409,5.99999999999997);
#190=CIRCLE($,#411,5.232418112446);
#191=CIRCLE($,#413,6.00000000000003);
#192=CIRCLE($,#415,5.23241811244606);
#193=CIRCLE($,#417,6.);
#194=CIRCLE($,#419,6.);
#195=CIRCLE($,#421,6.23587219036861);
#196=CIRCLE($,#423,7.00000000000003);
#197=CIRCLE($,#425,6.23241811244597);
#198=CIRCLE($,#427,6.99999999999994);
#199=CIRCLE($,#429,6.23241811244597);
#200=CIRCLE($,#431,7.);
#201=CIRCLE($,#433,6.23241811244597);
#202=CIRCLE($,#435,7.00000000000003);
#203=CIRCLE($,#437,6.59999999999999);
#204=CIRCLE($,#438,6.59999999999997);
#205=CIRCLE($,#440,7.00000000000006);
#206=CIRCLE($,#442,3.49999999999997);
#207=CIRCLE($,#443,3.5);
#208=VERTEX_POINT($,#582);
#209=VERTEX_POINT($,#584);
#210=VERTEX_POINT($,#587);
#211=VERTEX_POINT($,#590);
#212=VERTEX_POINT($,#593);
#213=VERTEX_POINT($,#596);
#214=VERTEX_POINT($,#599);
#215=VERTEX_POINT($,#602);
#216=VERTEX_POINT($,#605);
#217=VERTEX_POINT($,#608);
#218=VERTEX_POINT($,#611);
#219=VERTEX_POINT($,#614);
#220=VERTEX_POINT($,#617);
#221=VERTEX_POINT($,#620);
#222=VERTEX_POINT($,#623);
#223=VERTEX_POINT($,#626);
#224=VERTEX_POINT($,#629);
#225=VERTEX_POINT($,#632);
#226=VERTEX_POINT($,#635);
#227=VERTEX_POINT($,#637);
#228=VERTEX_POINT($,#640);
#229=VERTEX_POINT($,#643);
#230=VERTEX_POINT($,#645);
#231=VERTEX_POINT($,#650);
#232=VERTEX_POINT($,#651);
#233=VERTEX_POINT($,#653);
#234=VERTEX_POINT($,#655);
#235=VERTEX_POINT($,#657);
#236=VERTEX_POINT($,#659);
#237=VERTEX_POINT($,#663);
#238=VERTEX_POINT($,#664);
#239=VERTEX_POINT($,#666);
#240=VERTEX_POINT($,#668);
#241=VERTEX_POINT($,#670);
#242=VERTEX_POINT($,#672);
#243=EDGE_CURVE($,#208,#208,#185,.T.);
#244=EDGE_CURVE($,#209,#209,#186,.T.);
#245=EDGE_CURVE($,#210,#210,#187,.T.);
#246=EDGE_CURVE($,#211,#211,#188,.T.);
#247=EDGE_CURVE($,#212,#212,#189,.T.);
#248=EDGE_CURVE($,#213,#213,#190,.T.);
#249=EDGE_CURVE($,#214,#214,#191,.T.);
#250=EDGE_CURVE($,#215,#215,#192,.T.);
#251=EDGE_CURVE($,#216,#216,#193,.T.);
#252=EDGE_CURVE($,#217,#217,#194,.T.);
#253=EDGE_CURVE($,#218,#218,#195,.T.);
#254=EDGE_CURVE($,#219,#219,#196,.T.);
#255=EDGE_CURVE($,#220,#220,#197,.T.);
#256=EDGE_CURVE($,#221,#221,#198,.T.);
#257=EDGE_CURVE($,#222,#222,#199,.T.);
#258=EDGE_CURVE($,#223,#223,#200,.T.);
#259=EDGE_CURVE($,#224,#224,#201,.T.);
#260=EDGE_CURVE($,#225,#225,#202,.T.);
#261=EDGE_CURVE($,#226,#226,#203,.T.);
#262=EDGE_CURVE($,#227,#227,#204,.T.);
#263=EDGE_CURVE($,#228,#228,#205,.T.);
#264=EDGE_CURVE($,#229,#229,#206,.T.);
#265=EDGE_CURVE($,#230,#230,#207,.T.);
#266=EDGE_CURVE($,#231,#232,#13,.T.);
#267=EDGE_CURVE($,#233,#231,#14,.T.);
#268=EDGE_CURVE($,#234,#233,#15,.T.);
#269=EDGE_CURVE($,#235,#234,#16,.T.);
#270=EDGE_CURVE($,#236,#235,#17,.T.);
#271=EDGE_CURVE($,#232,#236,#18,.T.);
#272=EDGE_CURVE($,#237,#238,#19,.T.);
#273=EDGE_CURVE($,#239,#237,#20,.T.);
#274=EDGE_CURVE($,#240,#239,#21,.T.);
#275=EDGE_CURVE($,#241,#240,#22,.T.);
#276=EDGE_CURVE($,#242,#241,#23,.T.);
#277=EDGE_CURVE($,#238,#242,#24,.T.);
#278=EDGE_CURVE($,#239,#232,#25,.T.);
#279=EDGE_CURVE($,#237,#231,#26,.T.);
#280=EDGE_CURVE($,#240,#236,#27,.T.);
#281=EDGE_CURVE($,#241,#235,#28,.T.);
#282=EDGE_CURVE($,#242,#234,#29,.T.);
#283=EDGE_CURVE($,#238,#233,#30,.T.);
#284=ORIENTED_EDGE($,*,*,#243,.T.);
#285=ORIENTED_EDGE($,*,*,#244,.F.);
#286=ORIENTED_EDGE($,*,*,#245,.T.);
#287=ORIENTED_EDGE($,*,*,#243,.F.);
#288=ORIENTED_EDGE($,*,*,#246,.T.);
#289=ORIENTED_EDGE($,*,*,#245,.F.);
#290=ORIENTED_EDGE($,*,*,#247,.T.);
#291=ORIENTED_EDGE($,*,*,#246,.F.);
#292=ORIENTED_EDGE($,*,*,#248,.T.);
#293=ORIENTED_EDGE($,*,*,#247,.F.);
#294=ORIENTED_EDGE($,*,*,#249,.T.);
#295=ORIENTED_EDGE($,*,*,#248,.F.);
#296=ORIENTED_EDGE($,*,*,#250,.T.);
#297=ORIENTED_EDGE($,*,*,#249,.F.);
#298=ORIENTED_EDGE($,*,*,#251,.T.);
#299=ORIENTED_EDGE($,*,*,#250,.F.);
#300=ORIENTED_EDGE($,*,*,#252,.T.);
#301=ORIENTED_EDGE($,*,*,#251,.F.);
#302=ORIENTED_EDGE($,*,*,#253,.T.);
#303=ORIENTED_EDGE($,*,*,#252,.F.);
#304=ORIENTED_EDGE($,*,*,#254,.T.);
#305=ORIENTED_EDGE($,*,*,#253,.F.);
#306=ORIENTED_EDGE($,*,*,#255,.T.);
#307=ORIENTED_EDGE($,*,*,#254,.F.);
#308=ORIENTED_EDGE($,*,*,#256,.T.);
#309=ORIENTED_EDGE($,*,*,#255,.F.);
#310=ORIENTED_EDGE($,*,*,#257,.T.);
#311=ORIENTED_EDGE($,*,*,#256,.F.);
#312=ORIENTED_EDGE($,*,*,#258,.T.);
#313=ORIENTED_EDGE($,*,*,#257,.F.);
#314=ORIENTED_EDGE($,*,*,#259,.T.);
#315=ORIENTED_EDGE($,*,*,#258,.F.);
#316=ORIENTED_EDGE($,*,*,#260,.T.);
#317=ORIENTED_EDGE($,*,*,#259,.F.);
#318=ORIENTED_EDGE($,*,*,#261,.T.);
#319=ORIENTED_EDGE($,*,*,#262,.F.);
#320=ORIENTED_EDGE($,*,*,#263,.F.);
#321=ORIENTED_EDGE($,*,*,#260,.F.);
#322=ORIENTED_EDGE($,*,*,#264,.F.);
#323=ORIENTED_EDGE($,*,*,#265,.T.);
#324=ORIENTED_EDGE($,*,*,#244,.T.);
#325=ORIENTED_EDGE($,*,*,#265,.F.);
#326=ORIENTED_EDGE($,*,*,#261,.F.);
#327=ORIENTED_EDGE($,*,*,#264,.T.);
#328=ORIENTED_EDGE($,*,*,#266,.F.);
#329=ORIENTED_EDGE($,*,*,#267,.F.);
#330=ORIENTED_EDGE($,*,*,#268,.F.);
#331=ORIENTED_EDGE($,*,*,#269,.F.);
#332=ORIENTED_EDGE($,*,*,#270,.F.);
#333=ORIENTED_EDGE($,*,*,#271,.F.);
#334=ORIENTED_EDGE($,*,*,#263,.T.);
#335=ORIENTED_EDGE($,*,*,#272,.F.);
#336=ORIENTED_EDGE($,*,*,#273,.F.);
#337=ORIENTED_EDGE($,*,*,#274,.F.);
#338=ORIENTED_EDGE($,*,*,#275,.F.);
#339=ORIENTED_EDGE($,*,*,#276,.F.);
#340=ORIENTED_EDGE($,*,*,#277,.F.);
#341=ORIENTED_EDGE($,*,*,#262,.T.);
#342=ORIENTED_EDGE($,*,*,#266,.T.);
#343=ORIENTED_EDGE($,*,*,#278,.F.);
#344=ORIENTED_EDGE($,*,*,#273,.T.);
#345=ORIENTED_EDGE($,*,*,#279,.T.);
#346=ORIENTED_EDGE($,*,*,#271,.T.);
#347=ORIENTED_EDGE($,*,*,#280,.F.);
#348=ORIENTED_EDGE($,*,*,#274,.T.);
#349=ORIENTED_EDGE($,*,*,#278,.T.);
#350=ORIENTED_EDGE($,*,*,#270,.T.);
#351=ORIENTED_EDGE($,*,*,#281,.F.);
#352=ORIENTED_EDGE($,*,*,#275,.T.);
#353=ORIENTED_EDGE($,*,*,#280,.T.);
#354=ORIENTED_EDGE($,*,*,#269,.T.);
#355=ORIENTED_EDGE($,*,*,#282,.F.);
#356=ORIENTED_EDGE($,*,*,#276,.T.);
#357=ORIENTED_EDGE($,*,*,#281,.T.);
#358=ORIENTED_EDGE($,*,*,#268,.T.);
#359=ORIENTED_EDGE($,*,*,#283,.F.);
#360=ORIENTED_EDGE($,*,*,#277,.T.);
#361=ORIENTED_EDGE($,*,*,#282,.T.);
#362=ORIENTED_EDGE($,*,*,#267,.T.);
#363=ORIENTED_EDGE($,*,*,#279,.F.);
#364=ORIENTED_EDGE($,*,*,#272,.T.);
#365=ORIENTED_EDGE($,*,*,#283,.T.);
#366=TOROIDAL_SURFACE($,#401,4.81248892871716,0.499999999999992);
#367=TOROIDAL_SURFACE($,#420,6.04268702511081,0.199999999999984);
#368=ADVANCED_FACE($,(#101,#77),#366,.T.);
#369=ADVANCED_FACE($,(#102,#78),#63,.T.);
#370=ADVANCED_FACE($,(#103,#79),#64,.T.);
#371=ADVANCED_FACE($,(#104,#80),#65,.T.);
#372=ADVANCED_FACE($,(#105,#81),#66,.T.);
#373=ADVANCED_FACE($,(#106,#82),#67,.T.);
#374=ADVANCED_FACE($,(#107,#83),#68,.T.);
#375=ADVANCED_FACE($,(#108,#84),#69,.T.);
#376=ADVANCED_FACE($,(#109,#85),#59,.T.);
#377=ADVANCED_FACE($,(#110,#86),#367,.T.);
#378=ADVANCED_FACE($,(#111,#87),#70,.T.);
#379=ADVANCED_FACE($,(#112,#88),#71,.T.);
#380=ADVANCED_FACE($,(#113,#89),#72,.T.);
#381=ADVANCED_FACE($,(#114,#90),#73,.T.);
#382=ADVANCED_FACE($,(#115,#91),#74,.T.);
#383=ADVANCED_FACE($,(#116,#92),#75,.T.);
#384=ADVANCED_FACE($,(#117,#93),#76,.T.);
#385=ADVANCED_FACE($,(#118,#94),#60,.T.);
#386=ADVANCED_FACE($,(#119,#95),#61,.T.);
#387=ADVANCED_FACE($,(#120,#96),#62,.F.);
#388=ADVANCED_FACE($,(#121,#97),#49,.T.);
#389=ADVANCED_FACE($,(#122,#98),#50,.T.);
#390=ADVANCED_FACE($,(#123,#99),#51,.T.);
#391=ADVANCED_FACE($,(#124,#100),#52,.F.);
#392=ADVANCED_FACE($,(#125),#53,.T.);
#393=ADVANCED_FACE($,(#126),#54,.T.);
#394=ADVANCED_FACE($,(#127),#55,.T.);
#395=ADVANCED_FACE($,(#128),#56,.T.);
#396=ADVANCED_FACE($,(#129),#57,.T.);
#397=ADVANCED_FACE($,(#130),#58,.T.);
#398=CLOSED_SHELL($,(#368,#369,#370,#371,#372,#373,#374,#375,#376,#377,
#378,#379,#380,#381,#382,#383,#384,#385,#386,#387,#388,#389,#390,#391,#392,
#393,#394,#395,#396,#397));
#399=MANIFOLD_SOLID_BREP('166',#398);
#400=AXIS2_PLACEMENT_3D('placement',#580,#454,#455);
#401=AXIS2_PLACEMENT_3D($,#581,#456,#457);
#402=AXIS2_PLACEMENT_3D($,#583,#458,#459);
#403=AXIS2_PLACEMENT_3D($,#585,#460,#461);
#404=AXIS2_PLACEMENT_3D($,#586,#462,#463);
#405=AXIS2_PLACEMENT_3D($,#588,#464,#465);
#406=AXIS2_PLACEMENT_3D($,#589,#466,#467);
#407=AXIS2_PLACEMENT_3D($,#591,#468,#469);
#408=AXIS2_PLACEMENT_3D($,#592,#470,#471);
#409=AXIS2_PLACEMENT_3D($,#594,#472,#473);
#410=AXIS2_PLACEMENT_3D($,#595,#474,#475);
#411=AXIS2_PLACEMENT_3D($,#597,#476,#477);
#412=AXIS2_PLACEMENT_3D($,#598,#478,#479);
#413=AXIS2_PLACEMENT_3D($,#600,#480,#481);
#414=AXIS2_PLACEMENT_3D($,#601,#482,#483);
#415=AXIS2_PLACEMENT_3D($,#603,#484,#485);
#416=AXIS2_PLACEMENT_3D($,#604,#486,#487);
#417=AXIS2_PLACEMENT_3D($,#606,#488,#489);
#418=AXIS2_PLACEMENT_3D($,#607,#490,#491);
#419=AXIS2_PLACEMENT_3D($,#609,#492,#493);
#420=AXIS2_PLACEMENT_3D($,#610,#494,#495);
#421=AXIS2_PLACEMENT_3D($,#612,#496,#497);
#422=AXIS2_PLACEMENT_3D($,#613,#498,#499);
#423=AXIS2_PLACEMENT_3D($,#615,#500,#501);
#424=AXIS2_PLACEMENT_3D($,#616,#502,#503);
#425=AXIS2_PLACEMENT_3D($,#618,#504,#505);
#426=AXIS2_PLACEMENT_3D($,#619,#506,#507);
#427=AXIS2_PLACEMENT_3D($,#621,#508,#509);
#428=AXIS2_PLACEMENT_3D($,#622,#510,#511);
#429=AXIS2_PLACEMENT_3D($,#624,#512,#513);
#430=AXIS2_PLACEMENT_3D($,#625,#514,#515);
#431=AXIS2_PLACEMENT_3D($,#627,#516,#517);
#432=AXIS2_PLACEMENT_3D($,#628,#518,#519);
#433=AXIS2_PLACEMENT_3D($,#630,#520,#521);
#434=AXIS2_PLACEMENT_3D($,#631,#522,#523);
#435=AXIS2_PLACEMENT_3D($,#633,#524,#525);
#436=AXIS2_PLACEMENT_3D($,#634,#526,#527);
#437=AXIS2_PLACEMENT_3D($,#636,#528,#529);
#438=AXIS2_PLACEMENT_3D($,#638,#530,#531);
#439=AXIS2_PLACEMENT_3D($,#639,#532,#533);
#440=AXIS2_PLACEMENT_3D($,#641,#534,#535);
#441=AXIS2_PLACEMENT_3D($,#642,#536,#537);
#442=AXIS2_PLACEMENT_3D($,#644,#538,#539);
#443=AXIS2_PLACEMENT_3D($,#646,#540,#541);
#444=AXIS2_PLACEMENT_3D($,#647,#542,#543);
#445=AXIS2_PLACEMENT_3D($,#648,#544,#545);
#446=AXIS2_PLACEMENT_3D($,#649,#546,#547);
#447=AXIS2_PLACEMENT_3D($,#662,#554,#555);
#448=AXIS2_PLACEMENT_3D($,#675,#562,#563);
#449=AXIS2_PLACEMENT_3D($,#678,#566,#567);
#450=AXIS2_PLACEMENT_3D($,#680,#569,#570);
#451=AXIS2_PLACEMENT_3D($,#682,#572,#573);
#452=AXIS2_PLACEMENT_3D($,#684,#575,#576);
#453=AXIS2_PLACEMENT_3D($,#686,#578,#579);
#454=DIRECTION('axis',(0.,0.,1.));
#455=DIRECTION('refdir',(1.,0.,0.));
#456=DIRECTION('center_axis',(1.,0.,0.));
#457=DIRECTION('ref_axis',(0.,0.,-1.));
#458=DIRECTION('center_axis',(1.,0.,0.));
#459=DIRECTION('ref_axis',(0.,1.,0.));
#460=DIRECTION('center_axis',(1.,0.,0.));
#461=DIRECTION('ref_axis',(0.,1.,0.));
#462=DIRECTION('center_axis',(-1.,0.,0.));
#463=DIRECTION('ref_axis',(0.,1.,0.));
#464=DIRECTION('center_axis',(1.,0.,0.));
#465=DIRECTION('ref_axis',(0.,1.,0.));
#466=DIRECTION('center_axis',(1.,0.,0.));
#467=DIRECTION('ref_axis',(0.,1.,0.));
#468=DIRECTION('center_axis',(1.,0.,0.));
#469=DIRECTION('ref_axis',(0.,1.,0.));
#470=DIRECTION('center_axis',(-1.,0.,0.));
#471=DIRECTION('ref_axis',(0.,1.,0.));
#472=DIRECTION('center_axis',(1.,0.,0.));
#473=DIRECTION('ref_axis',(0.,1.,0.));
#474=DIRECTION('center_axis',(1.,0.,0.));
#475=DIRECTION('ref_axis',(0.,1.,0.));
#476=DIRECTION('center_axis',(1.,0.,0.));
#477=DIRECTION('ref_axis',(0.,1.,0.));
#478=DIRECTION('center_axis',(-1.,0.,0.));
#479=DIRECTION('ref_axis',(0.,1.,0.));
#480=DIRECTION('center_axis',(1.,0.,0.));
#481=DIRECTION('ref_axis',(0.,1.,0.));
#482=DIRECTION('center_axis',(1.,0.,0.));
#483=DIRECTION('ref_axis',(0.,1.,0.));
#484=DIRECTION('center_axis',(1.,0.,0.));
#485=DIRECTION('ref_axis',(0.,1.,0.));
#486=DIRECTION('center_axis',(-1.,0.,0.));
#487=DIRECTION('ref_axis',(0.,1.,0.));
#488=DIRECTION('center_axis',(1.,0.,0.));
#489=DIRECTION('ref_axis',(0.,1.,0.));
#490=DIRECTION('center_axis',(1.,0.,0.));
#491=DIRECTION('ref_axis',(0.,1.,0.));
#492=DIRECTION('center_axis',(1.,0.,0.));
#493=DIRECTION('ref_axis',(0.,1.,0.));
#494=DIRECTION('center_axis',(1.,0.,0.));
#495=DIRECTION('ref_axis',(0.,0.,-1.));
#496=DIRECTION('center_axis',(1.,0.,0.));
#497=DIRECTION('ref_axis',(0.,1.,0.));
#498=DIRECTION('center_axis',(-1.,0.,0.));
#499=DIRECTION('ref_axis',(0.,1.,0.));
#500=DIRECTION('center_axis',(1.,0.,0.));
#501=DIRECTION('ref_axis',(0.,1.,0.));
#502=DIRECTION('center_axis',(1.,0.,0.));
#503=DIRECTION('ref_axis',(0.,1.,0.));
#504=DIRECTION('center_axis',(1.,0.,0.));
#505=DIRECTION('ref_axis',(0.,1.,0.));
#506=DIRECTION('center_axis',(-1.,0.,0.));
#507=DIRECTION('ref_axis',(0.,1.,0.));
#508=DIRECTION('center_axis',(1.,0.,0.));
#509=DIRECTION('ref_axis',(0.,1.,0.));
#510=DIRECTION('center_axis',(1.,0.,0.));
#511=DIRECTION('ref_axis',(0.,1.,0.));
#512=DIRECTION('center_axis',(1.,0.,0.));
#513=DIRECTION('ref_axis',(0.,1.,0.));
#514=DIRECTION('center_axis',(-1.,0.,0.));
#515=DIRECTION('ref_axis',(0.,1.,0.));
#516=DIRECTION('center_axis',(1.,0.,0.));
#517=DIRECTION('ref_axis',(0.,1.,0.));
#518=DIRECTION('center_axis',(1.,0.,0.));
#519=DIRECTION('ref_axis',(0.,1.,0.));
#520=DIRECTION('center_axis',(1.,0.,0.));
#521=DIRECTION('ref_axis',(0.,1.,0.));
#522=DIRECTION('center_axis',(-1.,0.,0.));
#523=DIRECTION('ref_axis',(0.,1.,0.));
#524=DIRECTION('center_axis',(1.,0.,0.));
#525=DIRECTION('ref_axis',(0.,1.,0.));
#526=DIRECTION('center_axis',(1.,0.,0.));
#527=DIRECTION('ref_axis',(0.,1.,0.));
#528=DIRECTION('center_axis',(1.,0.,0.));
#529=DIRECTION('ref_axis',(0.,1.,0.));
#530=DIRECTION('center_axis',(1.,0.,0.));
#531=DIRECTION('ref_axis',(0.,1.,0.));
#532=DIRECTION('center_axis',(1.,0.,0.));
#533=DIRECTION('ref_axis',(0.,1.,0.));
#534=DIRECTION('center_axis',(-1.,0.,0.));
#535=DIRECTION('ref_axis',(0.,1.,0.));
#536=DIRECTION('center_axis',(1.,0.,0.));
#537=DIRECTION('ref_axis',(0.,1.,0.));
#538=DIRECTION('center_axis',(1.,0.,0.));
#539=DIRECTION('ref_axis',(0.,1.,0.));
#540=DIRECTION('center_axis',(1.,0.,0.));
#541=DIRECTION('ref_axis',(0.,1.,0.));
#542=DIRECTION('center_axis',(1.,0.,0.));
#543=DIRECTION('ref_axis',(0.,0.,-1.));
#544=DIRECTION('center_axis',(-1.,0.,0.));
#545=DIRECTION('ref_axis',(0.,0.,1.));
#546=DIRECTION('center_axis',(1.,0.,0.));
#547=DIRECTION('ref_axis',(0.,0.,-1.));
#548=DIRECTION($,(0.,1.,0.));
#549=DIRECTION($,(0.,0.5,0.866025403784438));
#550=DIRECTION($,(0.,-0.5,0.866025403784439));
#551=DIRECTION($,(0.,-1.,0.));
#552=DIRECTION($,(0.,-0.500000000000001,-0.866025403784438));
#553=DIRECTION($,(0.,0.499999999999999,-0.866025403784439));
#554=DIRECTION('center_axis',(1.,0.,0.));
#555=DIRECTION('ref_axis',(0.,0.,-1.));
#556=DIRECTION($,(0.,-0.5,-0.866025403784438));
#557=DIRECTION($,(0.,-1.,0.));
#558=DIRECTION($,(0.,-0.499999999999999,0.866025403784439));
#559=DIRECTION($,(0.,0.500000000000001,0.866025403784438));
#560=DIRECTION($,(0.,1.,0.));
#561=DIRECTION($,(0.,0.5,-0.866025403784439));
#562=DIRECTION('center_axis',(0.,0.,1.));
#563=DIRECTION('ref_axis',(1.,0.,0.));
#564=DIRECTION($,(1.,0.,0.));
#565=DIRECTION($,(1.,0.,0.));
#566=DIRECTION('center_axis',(0.,0.866025403784439,0.499999999999999));
#567=DIRECTION('ref_axis',(0.,-0.499999999999999,0.866025403784439));
#568=DIRECTION($,(1.,0.,0.));
#569=DIRECTION('center_axis',(0.,0.866025403784438,-0.500000000000001));
#570=DIRECTION('ref_axis',(-1.,0.,0.));
#571=DIRECTION($,(1.,0.,0.));
#572=DIRECTION('center_axis',(0.,0.,-1.));
#573=DIRECTION('ref_axis',(-1.,0.,0.));
#574=DIRECTION($,(1.,0.,0.));
#575=DIRECTION('center_axis',(0.,-0.866025403784439,-0.5));
#576=DIRECTION('ref_axis',(0.,0.5,-0.866025403784439));
#577=DIRECTION($,(1.,0.,0.));
#578=DIRECTION('center_axis',(0.,-0.866025403784439,0.5));
#579=DIRECTION('ref_axis',(1.,0.,0.));
#580=CARTESIAN_POINT('',(0.,0.,0.));
#581=CARTESIAN_POINT('Origin',(55.5,0.,0.));
#582=CARTESIAN_POINT('',(55.6294095225513,-5.29545184186169,-6.484844E-016));
#583=CARTESIAN_POINT('Origin',(55.6294095225513,0.,0.));
#584=CARTESIAN_POINT('',(56.,4.81248892871713,0.));
#585=CARTESIAN_POINT('Origin',(56.,0.,0.));
#586=CARTESIAN_POINT('Origin',(54.3147047612756,0.,0.));
#587=CARTESIAN_POINT('',(53.,-5.99999999999997,-7.347638E-016));
#588=CARTESIAN_POINT('Origin',(53.,0.,0.));
#589=CARTESIAN_POINT('Origin',(52.9323273016606,0.,0.));
#590=CARTESIAN_POINT('',(52.8646546033212,-5.23241811244603,-6.407652E-016));
#591=CARTESIAN_POINT('Origin',(52.8646546033212,0.,0.));
#592=CARTESIAN_POINT('Origin',(51.4323273016606,0.,0.));
#593=CARTESIAN_POINT('',(50.,-5.99999999999997,-7.347638E-016));
#594=CARTESIAN_POINT('Origin',(50.,0.,0.));
#595=CARTESIAN_POINT('Origin',(49.9323273016606,0.,0.));
#596=CARTESIAN_POINT('',(49.8646546033212,-5.23241811244599,-6.407652E-016));
#597=CARTESIAN_POINT('Origin',(49.8646546033212,0.,0.));
#598=CARTESIAN_POINT('Origin',(48.4323273016606,0.,0.));
#599=CARTESIAN_POINT('',(47.,-6.00000000000003,-7.347638E-016));
#600=CARTESIAN_POINT('Origin',(47.,0.,0.));
#601=CARTESIAN_POINT('Origin',(46.9323273016606,0.,0.));
#602=CARTESIAN_POINT('',(46.8646546033211,-5.23241811244606,-6.407652E-016));
#603=CARTESIAN_POINT('Origin',(46.8646546033211,0.,0.));
#604=CARTESIAN_POINT('Origin',(45.4323273016605,0.,0.));
#605=CARTESIAN_POINT('',(43.9999999999999,-6.,-7.347638E-016));
#606=CARTESIAN_POINT('Origin',(43.9999999999999,0.,0.));
#607=CARTESIAN_POINT('Origin',(41.4976957239176,0.,0.));
#608=CARTESIAN_POINT('',(38.9953914478353,-7.347638E-016,6.));
#609=CARTESIAN_POINT('Origin',(38.9953914478353,0.,0.));
#610=CARTESIAN_POINT('Origin',(38.8,0.,0.));
#611=CARTESIAN_POINT('',(38.8517638090205,-6.23587219036861,-7.636489E-016));
#612=CARTESIAN_POINT('Origin',(38.8517638090205,0.,0.));
#613=CARTESIAN_POINT('Origin',(37.4258819045102,0.,0.));
#614=CARTESIAN_POINT('',(35.9999999999999,-7.00000000000003,-8.572244E-016));
#615=CARTESIAN_POINT('Origin',(35.9999999999999,0.,0.));
#616=CARTESIAN_POINT('Origin',(35.9547694655894,0.,0.));
#617=CARTESIAN_POINT('',(35.8646546033212,-6.23241811244596,-7.632259E-016));
#618=CARTESIAN_POINT('Origin',(35.8646546033212,0.,0.));
#619=CARTESIAN_POINT('Origin',(34.4323273016606,0.,0.));
#620=CARTESIAN_POINT('',(33.,-6.99999999999994,-8.572244E-016));
#621=CARTESIAN_POINT('Origin',(33.,0.,0.));
#622=CARTESIAN_POINT('Origin',(32.9547694655894,0.,0.));
#623=CARTESIAN_POINT('',(32.8646546033212,-6.23241811244598,-7.632259E-016));
#624=CARTESIAN_POINT('Origin',(32.8646546033212,0.,0.));
#625=CARTESIAN_POINT('Origin',(31.4323273016606,0.,0.));
#626=CARTESIAN_POINT('',(30.,-7.,-8.572244E-016));
#627=CARTESIAN_POINT('Origin',(30.,0.,0.));
#628=CARTESIAN_POINT('Origin',(29.9323273016605,0.,0.));
#629=CARTESIAN_POINT('',(29.8646546033211,-6.23241811244597,-7.632259E-016));
#630=CARTESIAN_POINT('Origin',(29.8646546033211,0.,0.));
#631=CARTESIAN_POINT('Origin',(28.4323273016606,0.,0.));
#632=CARTESIAN_POINT('',(27.,-7.00000000000006,-8.572244E-016));
#633=CARTESIAN_POINT('Origin',(27.,0.,0.));
#634=CARTESIAN_POINT('Origin',(6.,0.,0.));
#635=CARTESIAN_POINT('',(0.,-6.59999999999997,-8.082402E-016));
#636=CARTESIAN_POINT('Origin',(0.,0.,0.));
#637=CARTESIAN_POINT('',(12.,-6.59999999999997,-8.082402E-016));
#638=CARTESIAN_POINT('Origin',(12.,0.,0.));
#639=CARTESIAN_POINT('Origin',(21.25,0.,0.));
#640=CARTESIAN_POINT('',(15.5,-7.00000000000006,8.572244E-016));
#641=CARTESIAN_POINT('Origin',(15.5,0.,0.));
#642=CARTESIAN_POINT('Origin',(28.,0.,0.));
#643=CARTESIAN_POINT('',(0.,-3.5,-4.286122E-016));
#644=CARTESIAN_POINT('Origin',(0.,0.,0.));
#645=CARTESIAN_POINT('',(56.,-3.5,-4.286122E-016));
#646=CARTESIAN_POINT('Origin',(56.,0.,0.));
#647=CARTESIAN_POINT('Origin',(56.,4.15624446435857,0.));
#648=CARTESIAN_POINT('Origin',(0.,5.04999999999998,0.));
#649=CARTESIAN_POINT('Origin',(15.5,3.552714E-015,1.554312E-015));
#650=CARTESIAN_POINT('',(15.5,-4.33012701892219,7.5));
#651=CARTESIAN_POINT('',(15.5,4.33012701892221,7.5));
#652=CARTESIAN_POINT($,(15.5,-4.33012701892219,7.5));
#653=CARTESIAN_POINT('',(15.5,-8.66025403784439,3.996803E-015));
#654=CARTESIAN_POINT($,(15.5,-8.66025403784439,3.996803E-015));
#655=CARTESIAN_POINT('',(15.5,-4.3301270189222,-7.5));
#656=CARTESIAN_POINT($,(15.5,-4.3301270189222,-7.5));
#657=CARTESIAN_POINT('',(15.5,4.33012701892219,-7.5));
#658=CARTESIAN_POINT($,(15.5,4.33012701892219,-7.5));
#659=CARTESIAN_POINT('',(15.5,8.66025403784439,-6.883383E-015));
#660=CARTESIAN_POINT($,(15.5,8.66025403784439,-6.883383E-015));
#661=CARTESIAN_POINT($,(15.5,4.33012701892221,7.5));
#662=CARTESIAN_POINT('Origin',(12.,3.552714E-015,1.554312E-015));
#663=CARTESIAN_POINT('',(12.,-4.33012701892219,7.5));
#664=CARTESIAN_POINT('',(12.,-8.66025403784439,3.996803E-015));
#665=CARTESIAN_POINT($,(12.,-4.33012701892219,7.5));
#666=CARTESIAN_POINT('',(12.,4.33012701892221,7.5));
#667=CARTESIAN_POINT($,(12.,4.33012701892221,7.5));
#668=CARTESIAN_POINT('',(12.,8.66025403784439,-6.883383E-015));
#669=CARTESIAN_POINT($,(12.,8.66025403784439,-6.883383E-015));
#670=CARTESIAN_POINT('',(12.,4.33012701892219,-7.5));
#671=CARTESIAN_POINT($,(12.,4.33012701892219,-7.5));
#672=CARTESIAN_POINT('',(12.,-4.3301270189222,-7.5));
#673=CARTESIAN_POINT($,(12.,-4.3301270189222,-7.5));
#674=CARTESIAN_POINT($,(12.,-8.66025403784439,3.996803E-015));
#675=CARTESIAN_POINT('Origin',(12.,-4.33012701892219,7.5));
#676=CARTESIAN_POINT($,(12.,4.33012701892221,7.5));
#677=CARTESIAN_POINT($,(12.,-4.33012701892219,7.5));
#678=CARTESIAN_POINT('Origin',(12.,4.33012701892221,7.5));
#679=CARTESIAN_POINT($,(12.,8.66025403784439,-6.883383E-015));
#680=CARTESIAN_POINT('Origin',(12.,8.66025403784439,-6.883383E-015));
#681=CARTESIAN_POINT($,(12.,4.33012701892219,-7.5));
#682=CARTESIAN_POINT('Origin',(12.,4.33012701892219,-7.5));
#683=CARTESIAN_POINT($,(12.,-4.3301270189222,-7.5));
#684=CARTESIAN_POINT('Origin',(12.,-4.3301270189222,-7.5));
#685=CARTESIAN_POINT($,(12.,-8.66025403784439,3.996803E-015));
#686=CARTESIAN_POINT('Origin',(12.,-8.66025403784439,3.996803E-015));
#687=UNCERTAINTY_MEASURE_WITH_UNIT(LENGTH_MEASURE(0.01),#689,
'DISTANCE_ACCURACY_VALUE',
'Maximum model space distance between geometric entities at asserted c
onnectivities');
#688=(
GEOMETRIC_REPRESENTATION_CONTEXT(3)
GLOBAL_UNCERTAINTY_ASSIGNED_CONTEXT((#687))
GLOBAL_UNIT_ASSIGNED_CONTEXT((#689,#692,#690))
REPRESENTATION_CONTEXT('','3D')
);
#689=(
LENGTH_UNIT()
NAMED_UNIT(*)
SI_UNIT(.MILLI.,.METRE.)
);
#690=(
NAMED_UNIT(*)
SI_UNIT($,.STERADIAN.)
SOLID_ANGLE_UNIT()
);
#691=DIMENSIONAL_EXPONENTS(0.,0.,0.,0.,0.,0.,0.);
#692=(
CONVERSION_BASED_UNIT('degree',#694)
NAMED_UNIT(#691)
PLANE_ANGLE_UNIT()
);
#693=(
NAMED_UNIT(*)
PLANE_ANGLE_UNIT()
SI_UNIT($,.RADIAN.)
);
#694=PLANE_ANGLE_MEASURE_WITH_UNIT(PLANE_ANGLE_MEASURE(0.01745329252),#693);
#695=SHAPE_DEFINITION_REPRESENTATION(#696,#697);
#696=PRODUCT_DEFINITION_SHAPE('',$,#699);
#697=SHAPE_REPRESENTATION('',(#400),#688);
#698=PRODUCT_DEFINITION_CONTEXT('3D Mechanical Parts',#702,'design');
#699=PRODUCT_DEFINITION('AFV038016018','AFV038016018',#700,#698);
#700=PRODUCT_DEFINITION_FORMATION('',$,#704);
#701=APPLICATION_PROTOCOL_DEFINITION('international standard',
'automotive_design',2009,#702);
#702=APPLICATION_CONTEXT(
'Core Data for Automotive Mechanical Design Process');
#703=PRODUCT_CONTEXT('3D Mechanical Parts',#702,'mechanical');
#704=PRODUCT('AFV038016018','AFV038016018',$,(#703));
#705=PRESENTATION_STYLE_ASSIGNMENT((#706));
#706=SURFACE_STYLE_USAGE(.BOTH.,#707);
#707=SURFACE_SIDE_STYLE($,(#708));
#708=SURFACE_STYLE_FILL_AREA(#709);
#709=FILL_AREA_STYLE($,(#710));
#710=FILL_AREA_STYLE_COLOUR($,#711);
#711=COLOUR_RGB('',0.509803921568627,0.509803921568627,0.588235294117647);
ENDSEC;
END-ISO-10303-21;
