ISO-10303-21;
HEADER;
FILE_DESCRIPTION( ( '' ), '1' );
FILE_NAME( '//se01002/users/anro/AGRU_12705071000_PPH_grau_Rohr__5m_710X12_0__Ventilation_10.stp', '2018-02-07T08:12:52', ( '' ), ( '' ), ' ', ' ', ' ' );
FILE_SCHEMA( ( 'automotive_design' ) );
ENDSEC;
DATA;
#1 = MECHANICAL_DESIGN_GEOMETRIC_PRESENTATION_REPRESENTATION( ' ', ( #10, #11, #12, #13, #14, #15, #16, #17, #18, #19, #20, #21, #22, #23, #24, #25, #26, #27, #28, #29, #30, #31, #32, #33, #34, #35, #36 ), #6 );
#2 = PRODUCT_DEFINITION_CONTEXT( '', #37, 'design' );
#3 = APPLICATION_PROTOCOL_DEFINITION( 'INTERNATIONAL STANDARD', 'automotive_design', 1994, #37 );
#4 = PRODUCT_CATEGORY_RELATIONSHIP( 'NONE', 'NONE', #38, #39 );
#5 = SHAPE_DEFINITION_REPRESENTATION( #40, #41 );
#6 =  ( GEOMETRIC_REPRESENTATION_CONTEXT( 3 )GLOBAL_UNCERTAINTY_ASSIGNED_CONTEXT( ( #44 ) )GLOBAL_UNIT_ASSIGNED_CONTEXT( ( #46, #47, #48 ) )REPRESENTATION_CONTEXT( 'NONE', 'WORKSPACE' ) );
#10 = STYLED_ITEM( '', ( #50 ), #51 );
#11 = STYLED_ITEM( '', ( #52 ), #53 );
#12 = STYLED_ITEM( '', ( #54 ), #55 );
#13 = STYLED_ITEM( '', ( #56 ), #57 );
#14 = STYLED_ITEM( '', ( #58 ), #59 );
#15 = STYLED_ITEM( '', ( #60 ), #61 );
#16 = STYLED_ITEM( '', ( #62 ), #63 );
#17 = STYLED_ITEM( '', ( #64 ), #65 );
#18 = STYLED_ITEM( '', ( #66 ), #67 );
#19 = STYLED_ITEM( '', ( #68 ), #69 );
#20 = STYLED_ITEM( '', ( #70 ), #71 );
#21 = STYLED_ITEM( '', ( #72 ), #73 );
#22 = STYLED_ITEM( '', ( #74 ), #75 );
#23 = STYLED_ITEM( '', ( #76 ), #77 );
#24 = STYLED_ITEM( '', ( #78 ), #79 );
#25 = STYLED_ITEM( '', ( #80 ), #81 );
#26 = STYLED_ITEM( '', ( #82 ), #83 );
#27 = STYLED_ITEM( '', ( #84 ), #85 );
#28 = STYLED_ITEM( '', ( #86 ), #87 );
#29 = STYLED_ITEM( '', ( #88 ), #89 );
#30 = STYLED_ITEM( '', ( #90 ), #91 );
#31 = STYLED_ITEM( '', ( #92 ), #93 );
#32 = STYLED_ITEM( '', ( #94 ), #95 );
#33 = STYLED_ITEM( '', ( #96 ), #97 );
#34 = STYLED_ITEM( '', ( #98 ), #99 );
#35 = STYLED_ITEM( '', ( #100 ), #101 );
#36 = STYLED_ITEM( '', ( #102 ), #103 );
#37 = APPLICATION_CONTEXT( ' ' );
#38 = PRODUCT_CATEGORY( 'part', 'NONE' );
#39 = PRODUCT_RELATED_PRODUCT_CATEGORY( 'detail', ' ', ( #104 ) );
#40 = PRODUCT_DEFINITION_SHAPE( 'NONE', 'NONE', #105 );
#41 = ADVANCED_BREP_SHAPE_REPRESENTATION( '1', ( #65, #106 ), #6 );
#44 = UNCERTAINTY_MEASURE_WITH_UNIT( LENGTH_MEASURE( 1.00000000000000E-006 ), #46, '', '' );
#46 =  ( CONVERSION_BASED_UNIT( 'MILLIMETRE', #109 )LENGTH_UNIT(  )NAMED_UNIT( #112 ) );
#47 =  ( NAMED_UNIT( #114 )PLANE_ANGLE_UNIT(  )SI_UNIT( $, .RADIAN. ) );
#48 =  ( NAMED_UNIT( #114 )SOLID_ANGLE_UNIT(  )SI_UNIT( $, .STERADIAN. ) );
#50 = PRESENTATION_STYLE_ASSIGNMENT( ( #120 ) );
#51 = ADVANCED_FACE( '', ( #121, #122 ), #123, .T. );
#52 = PRESENTATION_STYLE_ASSIGNMENT( ( #124 ) );
#53 = ADVANCED_FACE( '', ( #125 ), #126, .T. );
#54 = PRESENTATION_STYLE_ASSIGNMENT( ( #127 ) );
#55 = EDGE_CURVE( '', #83, #99, #128, .T. );
#56 = PRESENTATION_STYLE_ASSIGNMENT( ( #129 ) );
#57 = VERTEX_POINT( '', #130 );
#58 = PRESENTATION_STYLE_ASSIGNMENT( ( #131 ) );
#59 = EDGE_CURVE( '', #95, #99, #132, .T. );
#60 = PRESENTATION_STYLE_ASSIGNMENT( ( #133 ) );
#61 = VERTEX_POINT( '', #134 );
#62 = PRESENTATION_STYLE_ASSIGNMENT( ( #135 ) );
#63 = VERTEX_POINT( '', #136 );
#64 = PRESENTATION_STYLE_ASSIGNMENT( ( #137 ) );
#65 = MANIFOLD_SOLID_BREP( '1', #138 );
#66 = PRESENTATION_STYLE_ASSIGNMENT( ( #139 ) );
#67 = EDGE_CURVE( '', #83, #89, #140, .T. );
#68 = PRESENTATION_STYLE_ASSIGNMENT( ( #141 ) );
#69 = EDGE_CURVE( '', #61, #63, #142, .T. );
#70 = PRESENTATION_STYLE_ASSIGNMENT( ( #143 ) );
#71 = VERTEX_POINT( '', #144 );
#72 = PRESENTATION_STYLE_ASSIGNMENT( ( #145 ) );
#73 = EDGE_CURVE( '', #63, #61, #146, .T. );
#74 = PRESENTATION_STYLE_ASSIGNMENT( ( #147 ) );
#75 = EDGE_CURVE( '', #99, #83, #148, .T. );
#76 = PRESENTATION_STYLE_ASSIGNMENT( ( #149 ) );
#77 = ADVANCED_FACE( '', ( #150, #151 ), #152, .F. );
#78 = PRESENTATION_STYLE_ASSIGNMENT( ( #153 ) );
#79 = EDGE_CURVE( '', #57, #71, #154, .T. );
#80 = PRESENTATION_STYLE_ASSIGNMENT( ( #155 ) );
#81 = ADVANCED_FACE( '', ( #156 ), #157, .T. );
#82 = PRESENTATION_STYLE_ASSIGNMENT( ( #158 ) );
#83 = VERTEX_POINT( '', #159 );
#84 = PRESENTATION_STYLE_ASSIGNMENT( ( #160 ) );
#85 = ADVANCED_FACE( '', ( #161 ), #162, .F. );
#86 = PRESENTATION_STYLE_ASSIGNMENT( ( #163 ) );
#87 = EDGE_CURVE( '', #71, #57, #164, .T. );
#88 = PRESENTATION_STYLE_ASSIGNMENT( ( #165 ) );
#89 = VERTEX_POINT( '', #166 );
#90 = PRESENTATION_STYLE_ASSIGNMENT( ( #167 ) );
#91 = EDGE_CURVE( '', #57, #63, #168, .T. );
#92 = PRESENTATION_STYLE_ASSIGNMENT( ( #169 ) );
#93 = ADVANCED_FACE( '', ( #170 ), #171, .F. );
#94 = PRESENTATION_STYLE_ASSIGNMENT( ( #172 ) );
#95 = VERTEX_POINT( '', #173 );
#96 = PRESENTATION_STYLE_ASSIGNMENT( ( #174 ) );
#97 = EDGE_CURVE( '', #61, #71, #175, .T. );
#98 = PRESENTATION_STYLE_ASSIGNMENT( ( #176 ) );
#99 = VERTEX_POINT( '', #177 );
#100 = PRESENTATION_STYLE_ASSIGNMENT( ( #178 ) );
#101 = EDGE_CURVE( '', #89, #95, #179, .T. );
#102 = PRESENTATION_STYLE_ASSIGNMENT( ( #180 ) );
#103 = EDGE_CURVE( '', #95, #89, #181, .T. );
#104 = PRODUCT( '1', '1', 'PART-1-DESC', ( #182 ) );
#105 = PRODUCT_DEFINITION( 'NONE', 'NONE', #183, #2 );
#106 = AXIS2_PLACEMENT_3D( '', #184, #185, #186 );
#109 = LENGTH_MEASURE_WITH_UNIT( LENGTH_MEASURE( 1.00000000000000 ), #187 );
#112 = DIMENSIONAL_EXPONENTS( 1.00000000000000, 0.000000000000000, 0.000000000000000, 0.000000000000000, 0.000000000000000, 0.000000000000000, 0.000000000000000 );
#114 = DIMENSIONAL_EXPONENTS( 0.000000000000000, 0.000000000000000, 0.000000000000000, 0.000000000000000, 0.000000000000000, 0.000000000000000, 0.000000000000000 );
#120 = SURFACE_STYLE_USAGE( .BOTH., #188 );
#121 = FACE_OUTER_BOUND( '', #189, .T. );
#122 = FACE_BOUND( '', #190, .T. );
#123 = PLANE( '', #191 );
#124 = SURFACE_STYLE_USAGE( .BOTH., #192 );
#125 = FACE_OUTER_BOUND( '', #193, .T. );
#126 = CYLINDRICAL_SURFACE( '', #194, 355.000000000000 );
#127 = CURVE_STYLE( '', #195, POSITIVE_LENGTH_MEASURE( 1.00000000000000E-006 ), #196 );
#128 = CIRCLE( '', #197, 343.000000000000 );
#129 = POINT_STYLE( ' ', #198, POSITIVE_LENGTH_MEASURE( 1.00000000000000E-006 ), #199 );
#130 = CARTESIAN_POINT( '', ( 0.000000000000000, 0.000000000000000, -355.000000000000 ) );
#131 = CURVE_STYLE( '', #200, POSITIVE_LENGTH_MEASURE( 1.00000000000000E-006 ), #201 );
#132 = LINE( '', #202, #203 );
#133 = POINT_STYLE( ' ', #204, POSITIVE_LENGTH_MEASURE( 1.00000000000000E-006 ), #205 );
#134 = CARTESIAN_POINT( '', ( 5000.00000000000, 4.34735255606944E-014, 355.000000000000 ) );
#135 = POINT_STYLE( ' ', #206, POSITIVE_LENGTH_MEASURE( 1.00000000000000E-006 ), #207 );
#136 = CARTESIAN_POINT( '', ( 5000.00000000000, 0.000000000000000, -355.000000000000 ) );
#137 = SURFACE_STYLE_USAGE( .BOTH., #208 );
#138 = CLOSED_SHELL( '', ( #53, #93, #85, #81, #51, #77 ) );
#139 = CURVE_STYLE( '', #209, POSITIVE_LENGTH_MEASURE( 1.00000000000000E-006 ), #210 );
#140 = LINE( '', #211, #212 );
#141 = CURVE_STYLE( '', #213, POSITIVE_LENGTH_MEASURE( 1.00000000000000E-006 ), #214 );
#142 = CIRCLE( '', #215, 355.000000000000 );
#143 = POINT_STYLE( ' ', #216, POSITIVE_LENGTH_MEASURE( 1.00000000000000E-006 ), #217 );
#144 = CARTESIAN_POINT( '', ( 0.000000000000000, 4.34735255606944E-014, 355.000000000000 ) );
#145 = CURVE_STYLE( '', #218, POSITIVE_LENGTH_MEASURE( 1.00000000000000E-006 ), #219 );
#146 = CIRCLE( '', #220, 355.000000000000 );
#147 = CURVE_STYLE( '', #221, POSITIVE_LENGTH_MEASURE( 1.00000000000000E-006 ), #222 );
#148 = CIRCLE( '', #223, 343.000000000000 );
#149 = SURFACE_STYLE_USAGE( .BOTH., #224 );
#150 = FACE_OUTER_BOUND( '', #225, .T. );
#151 = FACE_BOUND( '', #226, .T. );
#152 = PLANE( '', #227 );
#153 = CURVE_STYLE( '', #228, POSITIVE_LENGTH_MEASURE( 1.00000000000000E-006 ), #229 );
#154 = CIRCLE( '', #230, 355.000000000000 );
#155 = SURFACE_STYLE_USAGE( .BOTH., #231 );
#156 = FACE_OUTER_BOUND( '', #232, .T. );
#157 = CYLINDRICAL_SURFACE( '', #233, 355.000000000000 );
#158 = POINT_STYLE( ' ', #234, POSITIVE_LENGTH_MEASURE( 1.00000000000000E-006 ), #235 );
#159 = CARTESIAN_POINT( '', ( 5000.00000000000, 4.20039979361075E-014, 343.000000000000 ) );
#160 = SURFACE_STYLE_USAGE( .BOTH., #236 );
#161 = FACE_OUTER_BOUND( '', #237, .T. );
#162 = CYLINDRICAL_SURFACE( '', #238, 343.000000000000 );
#163 = CURVE_STYLE( '', #239, POSITIVE_LENGTH_MEASURE( 1.00000000000000E-006 ), #240 );
#164 = CIRCLE( '', #241, 355.000000000000 );
#165 = POINT_STYLE( ' ', #242, POSITIVE_LENGTH_MEASURE( 1.00000000000000E-006 ), #243 );
#166 = CARTESIAN_POINT( '', ( 0.000000000000000, 4.20039979361075E-014, 343.000000000000 ) );
#167 = CURVE_STYLE( '', #244, POSITIVE_LENGTH_MEASURE( 1.00000000000000E-006 ), #245 );
#168 = LINE( '', #246, #247 );
#169 = SURFACE_STYLE_USAGE( .BOTH., #248 );
#170 = FACE_OUTER_BOUND( '', #249, .T. );
#171 = CYLINDRICAL_SURFACE( '', #250, 343.000000000000 );
#172 = POINT_STYLE( ' ', #251, POSITIVE_LENGTH_MEASURE( 1.00000000000000E-006 ), #252 );
#173 = CARTESIAN_POINT( '', ( 0.000000000000000, 0.000000000000000, -343.000000000000 ) );
#174 = CURVE_STYLE( '', #253, POSITIVE_LENGTH_MEASURE( 1.00000000000000E-006 ), #254 );
#175 = LINE( '', #255, #256 );
#176 = POINT_STYLE( ' ', #257, POSITIVE_LENGTH_MEASURE( 1.00000000000000E-006 ), #258 );
#177 = CARTESIAN_POINT( '', ( 5000.00000000000, 0.000000000000000, -343.000000000000 ) );
#178 = CURVE_STYLE( '', #259, POSITIVE_LENGTH_MEASURE( 1.00000000000000E-006 ), #260 );
#179 = CIRCLE( '', #261, 343.000000000000 );
#180 = CURVE_STYLE( '', #262, POSITIVE_LENGTH_MEASURE( 1.00000000000000E-006 ), #263 );
#181 = CIRCLE( '', #264, 343.000000000000 );
#182 = PRODUCT_CONTEXT( '', #37, 'mechanical' );
#183 = PRODUCT_DEFINITION_FORMATION_WITH_SPECIFIED_SOURCE( ' ', 'NONE', #104, .NOT_KNOWN. );
#184 = CARTESIAN_POINT( '', ( 0.000000000000000, 0.000000000000000, 0.000000000000000 ) );
#185 = DIRECTION( '', ( 0.000000000000000, 0.000000000000000, 1.00000000000000 ) );
#186 = DIRECTION( '', ( 1.00000000000000, 0.000000000000000, 0.000000000000000 ) );
#187 =  ( NAMED_UNIT( #112 )LENGTH_UNIT(  )SI_UNIT( .MILLI., .METRE. ) );
#188 = SURFACE_SIDE_STYLE( '', ( #266 ) );
#189 = EDGE_LOOP( '', ( #267, #268 ) );
#190 = EDGE_LOOP( '', ( #269, #270 ) );
#191 = AXIS2_PLACEMENT_3D( '', #271, #272, #273 );
#192 = SURFACE_SIDE_STYLE( '', ( #274 ) );
#193 = EDGE_LOOP( '', ( #275, #276, #277, #278 ) );
#194 = AXIS2_PLACEMENT_3D( '', #279, #280, #281 );
#195 = DRAUGHTING_PRE_DEFINED_CURVE_FONT( 'continuous' );
#196 = COLOUR_RGB( '', 0.689999997615810, 0.689999997615810, 0.689999997615810 );
#197 = AXIS2_PLACEMENT_3D( '', #282, #283, #284 );
#198 = PRE_DEFINED_MARKER( '' );
#199 = COLOUR_RGB( '', 0.689999997615810, 0.689999997615810, 0.689999997615810 );
#200 = DRAUGHTING_PRE_DEFINED_CURVE_FONT( 'continuous' );
#201 = COLOUR_RGB( '', 0.689999997615810, 0.689999997615810, 0.689999997615810 );
#202 = CARTESIAN_POINT( '', ( 0.000000000000000, -4.20039979361075E-014, -343.000000000000 ) );
#203 = VECTOR( '', #285, 1.00000000000000 );
#204 = PRE_DEFINED_MARKER( '' );
#205 = COLOUR_RGB( '', 0.689999997615810, 0.689999997615810, 0.689999997615810 );
#206 = PRE_DEFINED_MARKER( '' );
#207 = COLOUR_RGB( '', 0.689999997615810, 0.689999997615810, 0.689999997615810 );
#208 = SURFACE_SIDE_STYLE( '', ( #286 ) );
#209 = DRAUGHTING_PRE_DEFINED_CURVE_FONT( 'continuous' );
#210 = COLOUR_RGB( '', 0.689999997615810, 0.689999997615810, 0.689999997615810 );
#211 = CARTESIAN_POINT( '', ( 0.000000000000000, 4.20039979361075E-014, 343.000000000000 ) );
#212 = VECTOR( '', #287, 1.00000000000000 );
#213 = DRAUGHTING_PRE_DEFINED_CURVE_FONT( 'continuous' );
#214 = COLOUR_RGB( '', 0.689999997615810, 0.689999997615810, 0.689999997615810 );
#215 = AXIS2_PLACEMENT_3D( '', #288, #289, #290 );
#216 = PRE_DEFINED_MARKER( '' );
#217 = COLOUR_RGB( '', 0.689999997615810, 0.689999997615810, 0.689999997615810 );
#218 = DRAUGHTING_PRE_DEFINED_CURVE_FONT( 'continuous' );
#219 = COLOUR_RGB( '', 0.689999997615810, 0.689999997615810, 0.689999997615810 );
#220 = AXIS2_PLACEMENT_3D( '', #291, #292, #293 );
#221 = DRAUGHTING_PRE_DEFINED_CURVE_FONT( 'continuous' );
#222 = COLOUR_RGB( '', 0.689999997615810, 0.689999997615810, 0.689999997615810 );
#223 = AXIS2_PLACEMENT_3D( '', #294, #295, #296 );
#224 = SURFACE_SIDE_STYLE( '', ( #297 ) );
#225 = EDGE_LOOP( '', ( #298, #299 ) );
#226 = EDGE_LOOP( '', ( #300, #301 ) );
#227 = AXIS2_PLACEMENT_3D( '', #302, #303, #304 );
#228 = DRAUGHTING_PRE_DEFINED_CURVE_FONT( 'continuous' );
#229 = COLOUR_RGB( '', 0.689999997615810, 0.689999997615810, 0.689999997615810 );
#230 = AXIS2_PLACEMENT_3D( '', #305, #306, #307 );
#231 = SURFACE_SIDE_STYLE( '', ( #308 ) );
#232 = EDGE_LOOP( '', ( #309, #310, #311, #312 ) );
#233 = AXIS2_PLACEMENT_3D( '', #313, #314, #315 );
#234 = PRE_DEFINED_MARKER( '' );
#235 = COLOUR_RGB( '', 0.689999997615810, 0.689999997615810, 0.689999997615810 );
#236 = SURFACE_SIDE_STYLE( '', ( #316 ) );
#237 = EDGE_LOOP( '', ( #317, #318, #319, #320 ) );
#238 = AXIS2_PLACEMENT_3D( '', #321, #322, #323 );
#239 = DRAUGHTING_PRE_DEFINED_CURVE_FONT( 'continuous' );
#240 = COLOUR_RGB( '', 0.689999997615810, 0.689999997615810, 0.689999997615810 );
#241 = AXIS2_PLACEMENT_3D( '', #324, #325, #326 );
#242 = PRE_DEFINED_MARKER( '' );
#243 = COLOUR_RGB( '', 0.689999997615810, 0.689999997615810, 0.689999997615810 );
#244 = DRAUGHTING_PRE_DEFINED_CURVE_FONT( 'continuous' );
#245 = COLOUR_RGB( '', 0.689999997615810, 0.689999997615810, 0.689999997615810 );
#246 = CARTESIAN_POINT( '', ( 0.000000000000000, -4.34735255606944E-014, -355.000000000000 ) );
#247 = VECTOR( '', #327, 1.00000000000000 );
#248 = SURFACE_SIDE_STYLE( '', ( #328 ) );
#249 = EDGE_LOOP( '', ( #329, #330, #331, #332 ) );
#250 = AXIS2_PLACEMENT_3D( '', #333, #334, #335 );
#251 = PRE_DEFINED_MARKER( '' );
#252 = COLOUR_RGB( '', 0.689999997615810, 0.689999997615810, 0.689999997615810 );
#253 = DRAUGHTING_PRE_DEFINED_CURVE_FONT( 'continuous' );
#254 = COLOUR_RGB( '', 0.689999997615810, 0.689999997615810, 0.689999997615810 );
#255 = CARTESIAN_POINT( '', ( 0.000000000000000, 4.34735255606944E-014, 355.000000000000 ) );
#256 = VECTOR( '', #336, 1.00000000000000 );
#257 = PRE_DEFINED_MARKER( '' );
#258 = COLOUR_RGB( '', 0.689999997615810, 0.689999997615810, 0.689999997615810 );
#259 = DRAUGHTING_PRE_DEFINED_CURVE_FONT( 'continuous' );
#260 = COLOUR_RGB( '', 0.689999997615810, 0.689999997615810, 0.689999997615810 );
#261 = AXIS2_PLACEMENT_3D( '', #337, #338, #339 );
#262 = DRAUGHTING_PRE_DEFINED_CURVE_FONT( 'continuous' );
#263 = COLOUR_RGB( '', 0.689999997615810, 0.689999997615810, 0.689999997615810 );
#264 = AXIS2_PLACEMENT_3D( '', #340, #341, #342 );
#266 = SURFACE_STYLE_FILL_AREA( #343 );
#267 = ORIENTED_EDGE( '', *, *, #73, .F. );
#268 = ORIENTED_EDGE( '', *, *, #69, .F. );
#269 = ORIENTED_EDGE( '', *, *, #75, .F. );
#270 = ORIENTED_EDGE( '', *, *, #55, .F. );
#271 = CARTESIAN_POINT( '', ( 5000.00000000000, 0.000000000000000, 0.000000000000000 ) );
#272 = DIRECTION( '', ( 1.00000000000000, 0.000000000000000, 0.000000000000000 ) );
#273 = DIRECTION( '', ( 0.000000000000000, 0.000000000000000, -1.00000000000000 ) );
#274 = SURFACE_STYLE_FILL_AREA( #344 );
#275 = ORIENTED_EDGE( '', *, *, #91, .F. );
#276 = ORIENTED_EDGE( '', *, *, #79, .T. );
#277 = ORIENTED_EDGE( '', *, *, #97, .F. );
#278 = ORIENTED_EDGE( '', *, *, #69, .T. );
#279 = CARTESIAN_POINT( '', ( 0.000000000000000, 0.000000000000000, 0.000000000000000 ) );
#280 = DIRECTION( '', ( -1.00000000000000, -0.000000000000000, -0.000000000000000 ) );
#281 = DIRECTION( '', ( 0.000000000000000, 0.000000000000000, -1.00000000000000 ) );
#282 = CARTESIAN_POINT( '', ( 5000.00000000000, 0.000000000000000, 0.000000000000000 ) );
#283 = DIRECTION( '', ( 1.00000000000000, 0.000000000000000, 0.000000000000000 ) );
#284 = DIRECTION( '', ( 0.000000000000000, 0.000000000000000, -1.00000000000000 ) );
#285 = DIRECTION( '', ( 1.00000000000000, 0.000000000000000, 0.000000000000000 ) );
#286 = SURFACE_STYLE_FILL_AREA( #345 );
#287 = DIRECTION( '', ( -1.00000000000000, 0.000000000000000, 0.000000000000000 ) );
#288 = CARTESIAN_POINT( '', ( 5000.00000000000, 0.000000000000000, 0.000000000000000 ) );
#289 = DIRECTION( '', ( -1.00000000000000, 0.000000000000000, 0.000000000000000 ) );
#290 = DIRECTION( '', ( 0.000000000000000, 0.000000000000000, -1.00000000000000 ) );
#291 = CARTESIAN_POINT( '', ( 5000.00000000000, 0.000000000000000, 0.000000000000000 ) );
#292 = DIRECTION( '', ( -1.00000000000000, 0.000000000000000, 0.000000000000000 ) );
#293 = DIRECTION( '', ( 0.000000000000000, 0.000000000000000, -1.00000000000000 ) );
#294 = CARTESIAN_POINT( '', ( 5000.00000000000, 0.000000000000000, 0.000000000000000 ) );
#295 = DIRECTION( '', ( 1.00000000000000, 0.000000000000000, 0.000000000000000 ) );
#296 = DIRECTION( '', ( 0.000000000000000, 0.000000000000000, -1.00000000000000 ) );
#297 = SURFACE_STYLE_FILL_AREA( #346 );
#298 = ORIENTED_EDGE( '', *, *, #79, .F. );
#299 = ORIENTED_EDGE( '', *, *, #87, .F. );
#300 = ORIENTED_EDGE( '', *, *, #103, .T. );
#301 = ORIENTED_EDGE( '', *, *, #101, .T. );
#302 = CARTESIAN_POINT( '', ( 0.000000000000000, 0.000000000000000, 0.000000000000000 ) );
#303 = DIRECTION( '', ( 1.00000000000000, 0.000000000000000, 0.000000000000000 ) );
#304 = DIRECTION( '', ( 0.000000000000000, 0.000000000000000, -1.00000000000000 ) );
#305 = CARTESIAN_POINT( '', ( 0.000000000000000, 0.000000000000000, 0.000000000000000 ) );
#306 = DIRECTION( '', ( 1.00000000000000, -0.000000000000000, 0.000000000000000 ) );
#307 = DIRECTION( '', ( 0.000000000000000, 0.000000000000000, -1.00000000000000 ) );
#308 = SURFACE_STYLE_FILL_AREA( #347 );
#309 = ORIENTED_EDGE( '', *, *, #91, .T. );
#310 = ORIENTED_EDGE( '', *, *, #73, .T. );
#311 = ORIENTED_EDGE( '', *, *, #97, .T. );
#312 = ORIENTED_EDGE( '', *, *, #87, .T. );
#313 = CARTESIAN_POINT( '', ( 0.000000000000000, 0.000000000000000, 0.000000000000000 ) );
#314 = DIRECTION( '', ( -1.00000000000000, -0.000000000000000, -0.000000000000000 ) );
#315 = DIRECTION( '', ( 0.000000000000000, 0.000000000000000, -1.00000000000000 ) );
#316 = SURFACE_STYLE_FILL_AREA( #348 );
#317 = ORIENTED_EDGE( '', *, *, #59, .T. );
#318 = ORIENTED_EDGE( '', *, *, #75, .T. );
#319 = ORIENTED_EDGE( '', *, *, #67, .T. );
#320 = ORIENTED_EDGE( '', *, *, #103, .F. );
#321 = CARTESIAN_POINT( '', ( 0.000000000000000, 0.000000000000000, 0.000000000000000 ) );
#322 = DIRECTION( '', ( -1.00000000000000, -0.000000000000000, -0.000000000000000 ) );
#323 = DIRECTION( '', ( 0.000000000000000, 0.000000000000000, -1.00000000000000 ) );
#324 = CARTESIAN_POINT( '', ( 0.000000000000000, 0.000000000000000, 0.000000000000000 ) );
#325 = DIRECTION( '', ( 1.00000000000000, -0.000000000000000, 0.000000000000000 ) );
#326 = DIRECTION( '', ( 0.000000000000000, 0.000000000000000, -1.00000000000000 ) );
#327 = DIRECTION( '', ( 1.00000000000000, 0.000000000000000, 0.000000000000000 ) );
#328 = SURFACE_STYLE_FILL_AREA( #349 );
#329 = ORIENTED_EDGE( '', *, *, #59, .F. );
#330 = ORIENTED_EDGE( '', *, *, #101, .F. );
#331 = ORIENTED_EDGE( '', *, *, #67, .F. );
#332 = ORIENTED_EDGE( '', *, *, #55, .T. );
#333 = CARTESIAN_POINT( '', ( 0.000000000000000, 0.000000000000000, 0.000000000000000 ) );
#334 = DIRECTION( '', ( -1.00000000000000, -0.000000000000000, -0.000000000000000 ) );
#335 = DIRECTION( '', ( 0.000000000000000, 0.000000000000000, -1.00000000000000 ) );
#336 = DIRECTION( '', ( -1.00000000000000, -0.000000000000000, -0.000000000000000 ) );
#337 = CARTESIAN_POINT( '', ( 0.000000000000000, 0.000000000000000, 0.000000000000000 ) );
#338 = DIRECTION( '', ( 1.00000000000000, -0.000000000000000, 0.000000000000000 ) );
#339 = DIRECTION( '', ( 0.000000000000000, 0.000000000000000, -1.00000000000000 ) );
#340 = CARTESIAN_POINT( '', ( 0.000000000000000, 0.000000000000000, 0.000000000000000 ) );
#341 = DIRECTION( '', ( 1.00000000000000, -0.000000000000000, 0.000000000000000 ) );
#342 = DIRECTION( '', ( 0.000000000000000, 0.000000000000000, -1.00000000000000 ) );
#343 = FILL_AREA_STYLE( '', ( #350 ) );
#344 = FILL_AREA_STYLE( '', ( #351 ) );
#345 = FILL_AREA_STYLE( '', ( #352 ) );
#346 = FILL_AREA_STYLE( '', ( #353 ) );
#347 = FILL_AREA_STYLE( '', ( #354 ) );
#348 = FILL_AREA_STYLE( '', ( #355 ) );
#349 = FILL_AREA_STYLE( '', ( #356 ) );
#350 = FILL_AREA_STYLE_COLOUR( '', #357 );
#351 = FILL_AREA_STYLE_COLOUR( '', #358 );
#352 = FILL_AREA_STYLE_COLOUR( '', #359 );
#353 = FILL_AREA_STYLE_COLOUR( '', #360 );
#354 = FILL_AREA_STYLE_COLOUR( '', #361 );
#355 = FILL_AREA_STYLE_COLOUR( '', #362 );
#356 = FILL_AREA_STYLE_COLOUR( '', #363 );
#357 = COLOUR_RGB( '', 0.689999997615810, 0.689999997615810, 0.689999997615810 );
#358 = COLOUR_RGB( '', 0.689999997615810, 0.689999997615810, 0.689999997615810 );
#359 = COLOUR_RGB( '', 0.689999997615810, 0.689999997615810, 0.689999997615810 );
#360 = COLOUR_RGB( '', 0.689999997615810, 0.689999997615810, 0.689999997615810 );
#361 = COLOUR_RGB( '', 0.689999997615810, 0.689999997615810, 0.689999997615810 );
#362 = COLOUR_RGB( '', 0.689999997615810, 0.689999997615810, 0.689999997615810 );
#363 = COLOUR_RGB( '', 0.689999997615810, 0.689999997615810, 0.689999997615810 );
ENDSEC;
END-ISO-10303-21;
