ISO-10303-21;
HEADER;
FILE_DESCRIPTION( ( 'STEP AP214' ), '1' );
FILE_NAME( 'p:/temp/worker_18/temp/exporttempdir_8_296_8KrOY/format_0/70066006307(architecture400).stp', '2021-11-25T10:27:19', ( 'License CC BY-ND 4.0' ), ( 'CADENAS' ), ' ', 'PARTsolutions', ' ' );
FILE_SCHEMA( ( 'AUTOMOTIVE_DESIGN { 1 0 10303 214 1 1 1 1 }' ) );
ENDSEC;
DATA;
#1 = MECHANICAL_DESIGN_GEOMETRIC_PRESENTATION_REPRESENTATION( ' ', ( #10, #11, #12, #13, #14, #15, #16, #17, #18, #19, #20, #21, #22 ), #6 );
#2 = PRODUCT_DEFINITION_CONTEXT( '', #23, 'design' );
#3 = APPLICATION_PROTOCOL_DEFINITION( 'international standard', 'automotive_design', 2001, #23 );
#4 = PRODUCT_CATEGORY_RELATIONSHIP( 'NONE', 'NONE', #24, #25 );
#5 = SHAPE_DEFINITION_REPRESENTATION( #26, #27 );
#6 =  ( GEOMETRIC_REPRESENTATION_CONTEXT( 3 )GLOBAL_UNCERTAINTY_ASSIGNED_CONTEXT( ( #30 ) )GLOBAL_UNIT_ASSIGNED_CONTEXT( ( #32, #33, #34 ) )REPRESENTATION_CONTEXT( 'NONE', 'WORKSPACE' ) );
#10 = STYLED_ITEM( '', ( #36 ), #37 );
#11 = STYLED_ITEM( '', ( #38 ), #39 );
#12 = STYLED_ITEM( '', ( #40 ), #41 );
#13 = STYLED_ITEM( '', ( #42 ), #43 );
#14 = STYLED_ITEM( '', ( #44 ), #45 );
#15 = STYLED_ITEM( '', ( #46 ), #47 );
#16 = STYLED_ITEM( '', ( #48 ), #49 );
#17 = STYLED_ITEM( '', ( #50 ), #51 );
#18 = STYLED_ITEM( '', ( #52 ), #53 );
#19 = STYLED_ITEM( '', ( #54 ), #55 );
#20 = STYLED_ITEM( '', ( #56 ), #57 );
#21 = STYLED_ITEM( '', ( #58 ), #59 );
#22 = STYLED_ITEM( '', ( #60 ), #61 );
#23 = APPLICATION_CONTEXT( 'core data for automotive mechanical design processes' );
#24 = PRODUCT_CATEGORY( 'part', 'NONE' );
#25 = PRODUCT_RELATED_PRODUCT_CATEGORY( 'detail', ' ', ( #62 ) );
#26 = PRODUCT_DEFINITION_SHAPE( 'NONE', 'NONE', #63 );
#27 = ADVANCED_BREP_SHAPE_REPRESENTATION( '_70066006307(architecture400)', ( #64, #65 ), #6 );
#30 = UNCERTAINTY_MEASURE_WITH_UNIT( LENGTH_MEASURE( 0.00100000000000000 ), #32, '', '' );
#32 =  ( CONVERSION_BASED_UNIT( 'MILLIMETRE', #68 )LENGTH_UNIT(  )NAMED_UNIT( #71 ) );
#33 =  ( NAMED_UNIT( #73 )PLANE_ANGLE_UNIT(  )SI_UNIT( $, .RADIAN. ) );
#34 =  ( NAMED_UNIT( #73 )SI_UNIT( $, .STERADIAN. )SOLID_ANGLE_UNIT(  ) );
#36 = PRESENTATION_STYLE_ASSIGNMENT( ( #79 ) );
#37 = ADVANCED_FACE( '', ( #80, #81 ), #82, .F. );
#38 = PRESENTATION_STYLE_ASSIGNMENT( ( #83 ) );
#39 = ADVANCED_FACE( '', ( #84, #85 ), #86, .F. );
#40 = PRESENTATION_STYLE_ASSIGNMENT( ( #87 ) );
#41 = ADVANCED_FACE( '', ( #88, #89 ), #90, .T. );
#42 = PRESENTATION_STYLE_ASSIGNMENT( ( #91 ) );
#43 = ADVANCED_FACE( '', ( #92, #93 ), #94, .F. );
#44 = PRESENTATION_STYLE_ASSIGNMENT( ( #95 ) );
#45 = ADVANCED_FACE( '', ( #96, #97 ), #98, .T. );
#46 = PRESENTATION_STYLE_ASSIGNMENT( ( #99 ) );
#47 = ADVANCED_FACE( '', ( #100, #101, #102 ), #103, .T. );
#48 = PRESENTATION_STYLE_ASSIGNMENT( ( #104 ) );
#49 = ADVANCED_FACE( '', ( #105, #106 ), #107, .T. );
#50 = PRESENTATION_STYLE_ASSIGNMENT( ( #108 ) );
#51 = ADVANCED_FACE( '', ( #109, #110 ), #111, .T. );
#52 = PRESENTATION_STYLE_ASSIGNMENT( ( #112 ) );
#53 = ADVANCED_FACE( '', ( #113, #114 ), #115, .T. );
#54 = PRESENTATION_STYLE_ASSIGNMENT( ( #116 ) );
#55 = ADVANCED_FACE( '', ( #117, #118, #119 ), #120, .F. );
#56 = PRESENTATION_STYLE_ASSIGNMENT( ( #121 ) );
#57 = ADVANCED_FACE( '', ( #122, #123 ), #124, .F. );
#58 = PRESENTATION_STYLE_ASSIGNMENT( ( #125 ) );
#59 = ADVANCED_FACE( '', ( #126, #127 ), #128, .T. );
#60 = PRESENTATION_STYLE_ASSIGNMENT( ( #129 ) );
#61 = ADVANCED_FACE( '', ( #130, #131 ), #132, .T. );
#62 = PRODUCT( '_70066006307(architecture400)', '_70066006307(architecture400)', 'PART-_70066006307(architecture400)-DESC', ( #133 ) );
#63 = PRODUCT_DEFINITION( 'NONE', 'NONE', #134, #2 );
#64 = MANIFOLD_SOLID_BREP( '_70066006307(architecture400)', #135 );
#65 = AXIS2_PLACEMENT_3D( '', #136, #137, #138 );
#68 = LENGTH_MEASURE_WITH_UNIT( LENGTH_MEASURE( 1.00000000000000 ), #139 );
#71 = DIMENSIONAL_EXPONENTS( 1.00000000000000, 0.000000000000000, 0.000000000000000, 0.000000000000000, 0.000000000000000, 0.000000000000000, 0.000000000000000 );
#73 = DIMENSIONAL_EXPONENTS( 0.000000000000000, 0.000000000000000, 0.000000000000000, 0.000000000000000, 0.000000000000000, 0.000000000000000, 0.000000000000000 );
#79 = SURFACE_STYLE_USAGE( .BOTH., #140 );
#80 = FACE_OUTER_BOUND( '', #141, .T. );
#81 = FACE_OUTER_BOUND( '', #142, .T. );
#82 = CYLINDRICAL_SURFACE( '', #143, 22.9000000000000 );
#83 = SURFACE_STYLE_USAGE( .BOTH., #144 );
#84 = FACE_OUTER_BOUND( '', #145, .T. );
#85 = FACE_BOUND( '', #146, .T. );
#86 = PLANE( '', #147 );
#87 = SURFACE_STYLE_USAGE( .BOTH., #148 );
#88 = FACE_OUTER_BOUND( '', #149, .T. );
#89 = FACE_OUTER_BOUND( '', #150, .T. );
#90 = CYLINDRICAL_SURFACE( '', #151, 31.5000000000000 );
#91 = SURFACE_STYLE_USAGE( .BOTH., #152 );
#92 = FACE_OUTER_BOUND( '', #153, .T. );
#93 = FACE_BOUND( '', #154, .T. );
#94 = PLANE( '', #155 );
#95 = SURFACE_STYLE_USAGE( .BOTH., #156 );
#96 = FACE_OUTER_BOUND( '', #157, .T. );
#97 = FACE_BOUND( '', #158, .T. );
#98 = CONICAL_SURFACE( '', #159, 31.5000000000000, 0.785398163400000 );
#99 = SURFACE_STYLE_USAGE( .BOTH., #160 );
#100 = FACE_OUTER_BOUND( '', #161, .T. );
#101 = FACE_BOUND( '', #162, .T. );
#102 = FACE_OUTER_BOUND( '', #163, .T. );
#103 = CYLINDRICAL_SURFACE( '', #164, 35.8000000000000 );
#104 = SURFACE_STYLE_USAGE( .BOTH., #165 );
#105 = FACE_OUTER_BOUND( '', #166, .T. );
#106 = FACE_OUTER_BOUND( '', #167, .T. );
#107 = CYLINDRICAL_SURFACE( '', #168, 35.8000000000000 );
#108 = SURFACE_STYLE_USAGE( .BOTH., #169 );
#109 = FACE_OUTER_BOUND( '', #170, .T. );
#110 = FACE_OUTER_BOUND( '', #171, .T. );
#111 = CYLINDRICAL_SURFACE( '', #172, 31.5000000000000 );
#112 = SURFACE_STYLE_USAGE( .BOTH., #173 );
#113 = FACE_OUTER_BOUND( '', #174, .T. );
#114 = FACE_BOUND( '', #175, .T. );
#115 = CONICAL_SURFACE( '', #176, 31.5000000000000, 0.785398163400000 );
#116 = SURFACE_STYLE_USAGE( .BOTH., #177 );
#117 = FACE_OUTER_BOUND( '', #178, .T. );
#118 = FACE_OUTER_BOUND( '', #179, .T. );
#119 = FACE_BOUND( '', #180, .T. );
#120 = CYLINDRICAL_SURFACE( '', #181, 22.9000000000000 );
#121 = SURFACE_STYLE_USAGE( .BOTH., #182 );
#122 = FACE_BOUND( '', #183, .T. );
#123 = FACE_OUTER_BOUND( '', #184, .T. );
#124 = PLANE( '', #185 );
#125 = SURFACE_STYLE_USAGE( .BOTH., #186 );
#126 = FACE_OUTER_BOUND( '', #187, .T. );
#127 = FACE_OUTER_BOUND( '', #188, .T. );
#128 = CYLINDRICAL_SURFACE( '', #189, 31.5000000000000 );
#129 = SURFACE_STYLE_USAGE( .BOTH., #190 );
#130 = FACE_BOUND( '', #191, .T. );
#131 = FACE_OUTER_BOUND( '', #192, .T. );
#132 = CONICAL_SURFACE( '', #193, 35.8000000000000, 0.785398163400000 );
#133 = PRODUCT_CONTEXT( '', #23, 'mechanical' );
#134 = PRODUCT_DEFINITION_FORMATION_WITH_SPECIFIED_SOURCE( ' ', 'NONE', #62, .NOT_KNOWN. );
#135 = CLOSED_SHELL( '', ( #55, #47, #49, #53, #41, #39, #57, #51, #61, #45, #59, #43, #37 ) );
#136 = CARTESIAN_POINT( '', ( 0.000000000000000, 0.000000000000000, 0.000000000000000 ) );
#137 = DIRECTION( '', ( 0.000000000000000, 0.000000000000000, 1.00000000000000 ) );
#138 = DIRECTION( '', ( 1.00000000000000, 0.000000000000000, 0.000000000000000 ) );
#139 =  ( LENGTH_UNIT(  )NAMED_UNIT( #71 )SI_UNIT( .MILLI., .METRE. ) );
#140 = SURFACE_SIDE_STYLE( '', ( #195 ) );
#141 = EDGE_LOOP( '', ( #196, #197 ) );
#142 = EDGE_LOOP( '', ( #198 ) );
#143 = AXIS2_PLACEMENT_3D( '', #199, #200, #201 );
#144 = SURFACE_SIDE_STYLE( '', ( #202 ) );
#145 = EDGE_LOOP( '', ( #203 ) );
#146 = EDGE_LOOP( '', ( #204 ) );
#147 = AXIS2_PLACEMENT_3D( '', #205, #206, #207 );
#148 = SURFACE_SIDE_STYLE( '', ( #208 ) );
#149 = EDGE_LOOP( '', ( #209 ) );
#150 = EDGE_LOOP( '', ( #210 ) );
#151 = AXIS2_PLACEMENT_3D( '', #211, #212, #213 );
#152 = SURFACE_SIDE_STYLE( '', ( #214 ) );
#153 = EDGE_LOOP( '', ( #215 ) );
#154 = EDGE_LOOP( '', ( #216 ) );
#155 = AXIS2_PLACEMENT_3D( '', #217, #218, #219 );
#156 = SURFACE_SIDE_STYLE( '', ( #220 ) );
#157 = EDGE_LOOP( '', ( #221 ) );
#158 = EDGE_LOOP( '', ( #222 ) );
#159 = AXIS2_PLACEMENT_3D( '', #223, #224, #225 );
#160 = SURFACE_SIDE_STYLE( '', ( #226 ) );
#161 = EDGE_LOOP( '', ( #227 ) );
#162 = EDGE_LOOP( '', ( #228, #229 ) );
#163 = EDGE_LOOP( '', ( #230 ) );
#164 = AXIS2_PLACEMENT_3D( '', #231, #232, #233 );
#165 = SURFACE_SIDE_STYLE( '', ( #234 ) );
#166 = EDGE_LOOP( '', ( #235, #236 ) );
#167 = EDGE_LOOP( '', ( #237 ) );
#168 = AXIS2_PLACEMENT_3D( '', #238, #239, #240 );
#169 = SURFACE_SIDE_STYLE( '', ( #241 ) );
#170 = EDGE_LOOP( '', ( #242 ) );
#171 = EDGE_LOOP( '', ( #243 ) );
#172 = AXIS2_PLACEMENT_3D( '', #244, #245, #246 );
#173 = SURFACE_SIDE_STYLE( '', ( #247 ) );
#174 = EDGE_LOOP( '', ( #248 ) );
#175 = EDGE_LOOP( '', ( #249 ) );
#176 = AXIS2_PLACEMENT_3D( '', #250, #251, #252 );
#177 = SURFACE_SIDE_STYLE( '', ( #253 ) );
#178 = EDGE_LOOP( '', ( #254 ) );
#179 = EDGE_LOOP( '', ( #255 ) );
#180 = EDGE_LOOP( '', ( #256, #257 ) );
#181 = AXIS2_PLACEMENT_3D( '', #258, #259, #260 );
#182 = SURFACE_SIDE_STYLE( '', ( #261 ) );
#183 = EDGE_LOOP( '', ( #262 ) );
#184 = EDGE_LOOP( '', ( #263 ) );
#185 = AXIS2_PLACEMENT_3D( '', #264, #265, #266 );
#186 = SURFACE_SIDE_STYLE( '', ( #267 ) );
#187 = EDGE_LOOP( '', ( #268 ) );
#188 = EDGE_LOOP( '', ( #269 ) );
#189 = AXIS2_PLACEMENT_3D( '', #270, #271, #272 );
#190 = SURFACE_SIDE_STYLE( '', ( #273 ) );
#191 = EDGE_LOOP( '', ( #274 ) );
#192 = EDGE_LOOP( '', ( #275 ) );
#193 = AXIS2_PLACEMENT_3D( '', #276, #277, #278 );
#195 = SURFACE_STYLE_FILL_AREA( #279 );
#196 = ORIENTED_EDGE( '', *, *, #280, .F. );
#197 = ORIENTED_EDGE( '', *, *, #281, .F. );
#198 = ORIENTED_EDGE( '', *, *, #282, .T. );
#199 = CARTESIAN_POINT( '', ( -109.500000000000, 0.000000000000000, 112.000000000000 ) );
#200 = DIRECTION( '', ( 0.000000000000000, -0.000000000000000, 1.00000000000000 ) );
#201 = DIRECTION( '', ( -1.00000000000000, 0.000000000000000, 0.000000000000000 ) );
#202 = SURFACE_STYLE_FILL_AREA( #283 );
#203 = ORIENTED_EDGE( '', *, *, #284, .F. );
#204 = ORIENTED_EDGE( '', *, *, #282, .F. );
#205 = CARTESIAN_POINT( '', ( -109.500000000000, 0.000000000000000, 111.000000000000 ) );
#206 = DIRECTION( '', ( -0.000000000000000, 0.000000000000000, -1.00000000000000 ) );
#207 = DIRECTION( '', ( -1.00000000000000, 0.000000000000000, 0.000000000000000 ) );
#208 = SURFACE_STYLE_FILL_AREA( #285 );
#209 = ORIENTED_EDGE( '', *, *, #286, .F. );
#210 = ORIENTED_EDGE( '', *, *, #284, .T. );
#211 = CARTESIAN_POINT( '', ( -109.500000000000, 0.000000000000000, 2.84217094304040E-14 ) );
#212 = DIRECTION( '', ( 0.000000000000000, -0.000000000000000, 1.00000000000000 ) );
#213 = DIRECTION( '', ( -1.00000000000000, 0.000000000000000, 0.000000000000000 ) );
#214 = SURFACE_STYLE_FILL_AREA( #287 );
#215 = ORIENTED_EDGE( '', *, *, #288, .F. );
#216 = ORIENTED_EDGE( '', *, *, #289, .F. );
#217 = CARTESIAN_POINT( '', ( -219.000000000000, 0.000000000000000, 0.000000000000000 ) );
#218 = DIRECTION( '', ( 1.00000000000000, 0.000000000000000, -0.000000000000000 ) );
#219 = DIRECTION( '', ( -0.000000000000000, 0.000000000000000, -1.00000000000000 ) );
#220 = SURFACE_STYLE_FILL_AREA( #290 );
#221 = ORIENTED_EDGE( '', *, *, #291, .F. );
#222 = ORIENTED_EDGE( '', *, *, #292, .T. );
#223 = CARTESIAN_POINT( '', ( -156.000000000000, 0.000000000000000, 0.000000000000000 ) );
#224 = DIRECTION( '', ( 1.00000000000000, -0.000000000000000, -0.000000000000000 ) );
#225 = DIRECTION( '', ( -0.000000000000000, 0.000000000000000, -1.00000000000000 ) );
#226 = SURFACE_STYLE_FILL_AREA( #293 );
#227 = ORIENTED_EDGE( '', *, *, #294, .F. );
#228 = ORIENTED_EDGE( '', *, *, #295, .F. );
#229 = ORIENTED_EDGE( '', *, *, #296, .F. );
#230 = ORIENTED_EDGE( '', *, *, #291, .T. );
#231 = CARTESIAN_POINT( '', ( 0.000000000000000, 0.000000000000000, 0.000000000000000 ) );
#232 = DIRECTION( '', ( -1.00000000000000, -0.000000000000000, 0.000000000000000 ) );
#233 = DIRECTION( '', ( -0.000000000000000, 0.000000000000000, -1.00000000000000 ) );
#234 = SURFACE_STYLE_FILL_AREA( #297 );
#235 = ORIENTED_EDGE( '', *, *, #295, .T. );
#236 = ORIENTED_EDGE( '', *, *, #296, .T. );
#237 = ORIENTED_EDGE( '', *, *, #298, .T. );
#238 = CARTESIAN_POINT( '', ( -109.500000000000, 0.000000000000000, 2.84217094304040E-14 ) );
#239 = DIRECTION( '', ( 0.000000000000000, -0.000000000000000, 1.00000000000000 ) );
#240 = DIRECTION( '', ( -1.00000000000000, 0.000000000000000, 0.000000000000000 ) );
#241 = SURFACE_STYLE_FILL_AREA( #299 );
#242 = ORIENTED_EDGE( '', *, *, #300, .F. );
#243 = ORIENTED_EDGE( '', *, *, #301, .T. );
#244 = CARTESIAN_POINT( '', ( 0.000000000000000, 0.000000000000000, 0.000000000000000 ) );
#245 = DIRECTION( '', ( -1.00000000000000, -0.000000000000000, 0.000000000000000 ) );
#246 = DIRECTION( '', ( -0.000000000000000, 0.000000000000000, -1.00000000000000 ) );
#247 = SURFACE_STYLE_FILL_AREA( #302 );
#248 = ORIENTED_EDGE( '', *, *, #298, .F. );
#249 = ORIENTED_EDGE( '', *, *, #286, .T. );
#250 = CARTESIAN_POINT( '', ( -109.500000000000, 0.000000000000000, 48.0000000000000 ) );
#251 = DIRECTION( '', ( -0.000000000000000, -0.000000000000000, -1.00000000000000 ) );
#252 = DIRECTION( '', ( -1.00000000000000, 0.000000000000000, 0.000000000000000 ) );
#253 = SURFACE_STYLE_FILL_AREA( #303 );
#254 = ORIENTED_EDGE( '', *, *, #304, .T. );
#255 = ORIENTED_EDGE( '', *, *, #289, .T. );
#256 = ORIENTED_EDGE( '', *, *, #280, .T. );
#257 = ORIENTED_EDGE( '', *, *, #281, .T. );
#258 = CARTESIAN_POINT( '', ( 1.00000000000000, 0.000000000000000, 0.000000000000000 ) );
#259 = DIRECTION( '', ( 1.00000000000000, -0.000000000000000, -0.000000000000000 ) );
#260 = DIRECTION( '', ( 0.000000000000000, 0.000000000000000, 1.00000000000000 ) );
#261 = SURFACE_STYLE_FILL_AREA( #305 );
#262 = ORIENTED_EDGE( '', *, *, #304, .F. );
#263 = ORIENTED_EDGE( '', *, *, #300, .T. );
#264 = CARTESIAN_POINT( '', ( 0.000000000000000, 0.000000000000000, 31.5000000000000 ) );
#265 = DIRECTION( '', ( -1.00000000000000, 0.000000000000000, 0.000000000000000 ) );
#266 = DIRECTION( '', ( 0.000000000000000, 0.000000000000000, 1.00000000000000 ) );
#267 = SURFACE_STYLE_FILL_AREA( #306 );
#268 = ORIENTED_EDGE( '', *, *, #292, .F. );
#269 = ORIENTED_EDGE( '', *, *, #288, .T. );
#270 = CARTESIAN_POINT( '', ( 0.000000000000000, 0.000000000000000, 0.000000000000000 ) );
#271 = DIRECTION( '', ( -1.00000000000000, -0.000000000000000, 0.000000000000000 ) );
#272 = DIRECTION( '', ( -0.000000000000000, 0.000000000000000, -1.00000000000000 ) );
#273 = SURFACE_STYLE_FILL_AREA( #307 );
#274 = ORIENTED_EDGE( '', *, *, #301, .F. );
#275 = ORIENTED_EDGE( '', *, *, #294, .T. );
#276 = CARTESIAN_POINT( '', ( -67.3000000000000, 0.000000000000000, 0.000000000000000 ) );
#277 = DIRECTION( '', ( -1.00000000000000, 0.000000000000000, -0.000000000000000 ) );
#278 = DIRECTION( '', ( 0.000000000000000, 0.000000000000000, 1.00000000000000 ) );
#279 = FILL_AREA_STYLE( '', ( #308 ) );
#280 = EDGE_CURVE( '', #309, #310, #311, .T. );
#281 = EDGE_CURVE( '', #310, #309, #312, .F. );
#282 = EDGE_CURVE( '', #313, #313, #314, .F. );
#283 = FILL_AREA_STYLE( '', ( #315 ) );
#284 = EDGE_CURVE( '', #316, #316, #317, .T. );
#285 = FILL_AREA_STYLE( '', ( #318 ) );
#286 = EDGE_CURVE( '', #319, #319, #320, .T. );
#287 = FILL_AREA_STYLE( '', ( #321 ) );
#288 = EDGE_CURVE( '', #322, #322, #323, .T. );
#289 = EDGE_CURVE( '', #324, #324, #325, .F. );
#290 = FILL_AREA_STYLE( '', ( #326 ) );
#291 = EDGE_CURVE( '', #327, #327, #328, .T. );
#292 = EDGE_CURVE( '', #329, #329, #330, .T. );
#293 = FILL_AREA_STYLE( '', ( #331 ) );
#294 = EDGE_CURVE( '', #332, #332, #333, .T. );
#295 = EDGE_CURVE( '', #334, #335, #336, .T. );
#296 = EDGE_CURVE( '', #335, #334, #337, .F. );
#297 = FILL_AREA_STYLE( '', ( #338 ) );
#298 = EDGE_CURVE( '', #339, #339, #340, .T. );
#299 = FILL_AREA_STYLE( '', ( #341 ) );
#300 = EDGE_CURVE( '', #342, #342, #343, .T. );
#301 = EDGE_CURVE( '', #344, #344, #345, .T. );
#302 = FILL_AREA_STYLE( '', ( #346 ) );
#303 = FILL_AREA_STYLE( '', ( #347 ) );
#304 = EDGE_CURVE( '', #348, #348, #349, .F. );
#305 = FILL_AREA_STYLE( '', ( #350 ) );
#306 = FILL_AREA_STYLE( '', ( #351 ) );
#307 = FILL_AREA_STYLE( '', ( #352 ) );
#308 = FILL_AREA_STYLE_COLOUR( '', #353 );
#309 = VERTEX_POINT( '', #354 );
#310 = VERTEX_POINT( '', #355 );
#311 = ELLIPSE( '', #356, 32.3854905783000, 22.9000000000000 );
#312 = ELLIPSE( '', #357, 32.3854905783000, 22.9000000000000 );
#313 = VERTEX_POINT( '', #358 );
#314 = CIRCLE( '', #359, 22.9000000000000 );
#315 = FILL_AREA_STYLE_COLOUR( '', #360 );
#316 = VERTEX_POINT( '', #361 );
#317 = CIRCLE( '', #362, 31.5000000000000 );
#318 = FILL_AREA_STYLE_COLOUR( '', #363 );
#319 = VERTEX_POINT( '', #364 );
#320 = CIRCLE( '', #365, 31.5000000000000 );
#321 = FILL_AREA_STYLE_COLOUR( '', #366 );
#322 = VERTEX_POINT( '', #367 );
#323 = CIRCLE( '', #368, 31.5000000000000 );
#324 = VERTEX_POINT( '', #369 );
#325 = CIRCLE( '', #370, 22.9000000000000 );
#326 = FILL_AREA_STYLE_COLOUR( '', #371 );
#327 = VERTEX_POINT( '', #372 );
#328 = CIRCLE( '', #373, 35.8000000000000 );
#329 = VERTEX_POINT( '', #374 );
#330 = CIRCLE( '', #375, 31.5000000000000 );
#331 = FILL_AREA_STYLE_COLOUR( '', #376 );
#332 = VERTEX_POINT( '', #377 );
#333 = CIRCLE( '', #378, 35.8000000000000 );
#334 = VERTEX_POINT( '', #379 );
#335 = VERTEX_POINT( '', #380 );
#336 = ELLIPSE( '', #381, 50.6288455330000, 35.8000000000000 );
#337 = ELLIPSE( '', #382, 50.6288455330000, 35.8000000000000 );
#338 = FILL_AREA_STYLE_COLOUR( '', #383 );
#339 = VERTEX_POINT( '', #384 );
#340 = CIRCLE( '', #385, 35.8000000000000 );
#341 = FILL_AREA_STYLE_COLOUR( '', #386 );
#342 = VERTEX_POINT( '', #387 );
#343 = CIRCLE( '', #388, 31.5000000000000 );
#344 = VERTEX_POINT( '', #389 );
#345 = CIRCLE( '', #390, 31.5000000000000 );
#346 = FILL_AREA_STYLE_COLOUR( '', #391 );
#347 = FILL_AREA_STYLE_COLOUR( '', #392 );
#348 = VERTEX_POINT( '', #393 );
#349 = CIRCLE( '', #394, 22.9000000000000 );
#350 = FILL_AREA_STYLE_COLOUR( '', #395 );
#351 = FILL_AREA_STYLE_COLOUR( '', #396 );
#352 = FILL_AREA_STYLE_COLOUR( '', #397 );
#353 = COLOUR_RGB( '', 0.689999997600000, 0.689999997600000, 0.689999997600000 );
#354 = CARTESIAN_POINT( '', ( -109.500000000000, -22.9000000000000, 0.000000000000000 ) );
#355 = CARTESIAN_POINT( '', ( -109.500000000000, 22.9000000000000, 0.000000000000000 ) );
#356 = AXIS2_PLACEMENT_3D( '', #398, #399, #400 );
#357 = AXIS2_PLACEMENT_3D( '', #401, #402, #403 );
#358 = CARTESIAN_POINT( '', ( -132.400000000000, 0.000000000000000, 111.000000000000 ) );
#359 = AXIS2_PLACEMENT_3D( '', #404, #405, #406 );
#360 = COLOUR_RGB( '', 0.689999997600000, 0.689999997600000, 0.689999997600000 );
#361 = CARTESIAN_POINT( '', ( -141.000000000000, 0.000000000000000, 111.000000000000 ) );
#362 = AXIS2_PLACEMENT_3D( '', #407, #408, #409 );
#363 = COLOUR_RGB( '', 0.689999997600000, 0.689999997600000, 0.689999997600000 );
#364 = CARTESIAN_POINT( '', ( -141.000000000000, 0.000000000000000, 48.0000000000000 ) );
#365 = AXIS2_PLACEMENT_3D( '', #410, #411, #412 );
#366 = COLOUR_RGB( '', 0.689999997600000, 0.689999997600000, 0.689999997600000 );
#367 = CARTESIAN_POINT( '', ( -219.000000000000, 0.000000000000000, -31.5000000000000 ) );
#368 = AXIS2_PLACEMENT_3D( '', #413, #414, #415 );
#369 = CARTESIAN_POINT( '', ( -219.000000000000, 0.000000000000000, -22.9000000000000 ) );
#370 = AXIS2_PLACEMENT_3D( '', #416, #417, #418 );
#371 = COLOUR_RGB( '', 0.689999997600000, 0.689999997600000, 0.689999997600000 );
#372 = CARTESIAN_POINT( '', ( -151.700000000000, 0.000000000000000, -35.8000000000000 ) );
#373 = AXIS2_PLACEMENT_3D( '', #419, #420, #421 );
#374 = CARTESIAN_POINT( '', ( -156.000000000000, 0.000000000000000, -31.5000000000000 ) );
#375 = AXIS2_PLACEMENT_3D( '', #422, #423, #424 );
#376 = COLOUR_RGB( '', 0.689999997600000, 0.689999997600000, 0.689999997600000 );
#377 = CARTESIAN_POINT( '', ( -67.3000000000000, 0.000000000000000, -35.8000000000000 ) );
#378 = AXIS2_PLACEMENT_3D( '', #425, #426, #427 );
#379 = CARTESIAN_POINT( '', ( -109.500000000000, 35.8000000000000, 2.80886425230165E-14 ) );
#380 = CARTESIAN_POINT( '', ( -109.500000000000, -35.8000000000000, 2.77555756156289E-14 ) );
#381 = AXIS2_PLACEMENT_3D( '', #428, #429, #430 );
#382 = AXIS2_PLACEMENT_3D( '', #431, #432, #433 );
#383 = COLOUR_RGB( '', 0.689999997600000, 0.689999997600000, 0.689999997600000 );
#384 = CARTESIAN_POINT( '', ( -145.300000000000, 0.000000000000000, 43.7000000000000 ) );
#385 = AXIS2_PLACEMENT_3D( '', #434, #435, #436 );
#386 = COLOUR_RGB( '', 0.689999997600000, 0.689999997600000, 0.689999997600000 );
#387 = CARTESIAN_POINT( '', ( 0.000000000000000, 0.000000000000000, -31.5000000000000 ) );
#388 = AXIS2_PLACEMENT_3D( '', #437, #438, #439 );
#389 = CARTESIAN_POINT( '', ( -63.0000000000000, 0.000000000000000, -31.5000000000000 ) );
#390 = AXIS2_PLACEMENT_3D( '', #440, #441, #442 );
#391 = COLOUR_RGB( '', 0.689999997600000, 0.689999997600000, 0.689999997600000 );
#392 = COLOUR_RGB( '', 0.689999997600000, 0.689999997600000, 0.689999997600000 );
#393 = CARTESIAN_POINT( '', ( 0.000000000000000, 0.000000000000000, 22.9000000000000 ) );
#394 = AXIS2_PLACEMENT_3D( '', #443, #444, #445 );
#395 = COLOUR_RGB( '', 0.689999997600000, 0.689999997600000, 0.689999997600000 );
#396 = COLOUR_RGB( '', 0.689999997600000, 0.689999997600000, 0.689999997600000 );
#397 = COLOUR_RGB( '', 0.689999997600000, 0.689999997600000, 0.689999997600000 );
#398 = CARTESIAN_POINT( '', ( -109.500000000000, 0.000000000000000, 0.000000000000000 ) );
#399 = DIRECTION( '', ( -0.707106781186548, 0.000000000000000, 0.707106781186548 ) );
#400 = DIRECTION( '', ( -0.707106781186548, -0.000000000000000, -0.707106781186548 ) );
#401 = CARTESIAN_POINT( '', ( -109.500000000000, 0.000000000000000, 0.000000000000000 ) );
#402 = DIRECTION( '', ( -0.707106781186548, 0.000000000000000, -0.707106781186548 ) );
#403 = DIRECTION( '', ( -0.707106781186548, 0.000000000000000, 0.707106781186548 ) );
#404 = CARTESIAN_POINT( '', ( -109.500000000000, 0.000000000000000, 111.000000000000 ) );
#405 = DIRECTION( '', ( -0.000000000000000, 0.000000000000000, -1.00000000000000 ) );
#406 = DIRECTION( '', ( -1.00000000000000, 0.000000000000000, 0.000000000000000 ) );
#407 = CARTESIAN_POINT( '', ( -109.500000000000, 0.000000000000000, 111.000000000000 ) );
#408 = DIRECTION( '', ( -0.000000000000000, 0.000000000000000, -1.00000000000000 ) );
#409 = DIRECTION( '', ( -1.00000000000000, 0.000000000000000, 0.000000000000000 ) );
#410 = CARTESIAN_POINT( '', ( -109.500000000000, 0.000000000000000, 48.0000000000000 ) );
#411 = DIRECTION( '', ( -0.000000000000000, 0.000000000000000, -1.00000000000000 ) );
#412 = DIRECTION( '', ( -1.00000000000000, 0.000000000000000, 0.000000000000000 ) );
#413 = CARTESIAN_POINT( '', ( -219.000000000000, 0.000000000000000, 0.000000000000000 ) );
#414 = DIRECTION( '', ( 1.00000000000000, 0.000000000000000, -0.000000000000000 ) );
#415 = DIRECTION( '', ( -0.000000000000000, 0.000000000000000, -1.00000000000000 ) );
#416 = CARTESIAN_POINT( '', ( -219.000000000000, 0.000000000000000, 0.000000000000000 ) );
#417 = DIRECTION( '', ( 1.00000000000000, 0.000000000000000, -0.000000000000000 ) );
#418 = DIRECTION( '', ( -0.000000000000000, 0.000000000000000, -1.00000000000000 ) );
#419 = CARTESIAN_POINT( '', ( -151.700000000000, 0.000000000000000, 0.000000000000000 ) );
#420 = DIRECTION( '', ( 1.00000000000000, 0.000000000000000, -0.000000000000000 ) );
#421 = DIRECTION( '', ( -0.000000000000000, 0.000000000000000, -1.00000000000000 ) );
#422 = CARTESIAN_POINT( '', ( -156.000000000000, 0.000000000000000, 0.000000000000000 ) );
#423 = DIRECTION( '', ( 1.00000000000000, 0.000000000000000, -0.000000000000000 ) );
#424 = DIRECTION( '', ( -0.000000000000000, 0.000000000000000, -1.00000000000000 ) );
#425 = CARTESIAN_POINT( '', ( -67.3000000000000, 0.000000000000000, 0.000000000000000 ) );
#426 = DIRECTION( '', ( 1.00000000000000, 0.000000000000000, -0.000000000000000 ) );
#427 = DIRECTION( '', ( -0.000000000000000, 0.000000000000000, -1.00000000000000 ) );
#428 = CARTESIAN_POINT( '', ( -109.500000000000, 0.000000000000000, 0.000000000000000 ) );
#429 = DIRECTION( '', ( 0.707106781186548, 0.000000000000000, 0.707106781186548 ) );
#430 = DIRECTION( '', ( 0.707106781186548, -0.000000000000000, -0.707106781186548 ) );
#431 = CARTESIAN_POINT( '', ( -109.500000000000, 0.000000000000000, 0.000000000000000 ) );
#432 = DIRECTION( '', ( 0.707106781186548, 0.000000000000000, -0.707106781186548 ) );
#433 = DIRECTION( '', ( 0.707106781186548, 0.000000000000000, 0.707106781186548 ) );
#434 = CARTESIAN_POINT( '', ( -109.500000000000, 0.000000000000000, 43.7000000000000 ) );
#435 = DIRECTION( '', ( -0.000000000000000, 0.000000000000000, -1.00000000000000 ) );
#436 = DIRECTION( '', ( -1.00000000000000, 0.000000000000000, 0.000000000000000 ) );
#437 = CARTESIAN_POINT( '', ( 0.000000000000000, 0.000000000000000, 0.000000000000000 ) );
#438 = DIRECTION( '', ( 1.00000000000000, 0.000000000000000, -0.000000000000000 ) );
#439 = DIRECTION( '', ( -0.000000000000000, 0.000000000000000, -1.00000000000000 ) );
#440 = CARTESIAN_POINT( '', ( -63.0000000000000, 0.000000000000000, 0.000000000000000 ) );
#441 = DIRECTION( '', ( 1.00000000000000, 0.000000000000000, -0.000000000000000 ) );
#442 = DIRECTION( '', ( -0.000000000000000, 0.000000000000000, -1.00000000000000 ) );
#443 = CARTESIAN_POINT( '', ( 0.000000000000000, 0.000000000000000, 0.000000000000000 ) );
#444 = DIRECTION( '', ( -1.00000000000000, 0.000000000000000, 0.000000000000000 ) );
#445 = DIRECTION( '', ( 0.000000000000000, 0.000000000000000, 1.00000000000000 ) );
ENDSEC;
END-ISO-10303-21;
