ISO-10303-21;
HEADER;
/****************************************************************
 * Generated by software with PDE/Lib inside                    *
 * PDElib Version v51a, created Mon 03/22/2010                  *
 * International Technegroup Inc. (www.iti-oh.com)              *
 ****************************************************************/
FILE_DESCRIPTION((''),'2;1');
FILE_NAME('R:\\Neue Zeichnungdateien ab Januar 2010\\schwere Rohrbefestigungen\\Montageteile\\Step\\131607.stp','2010-07-15T15:00:48',('DMK009'),(''),'Autodesk Inventor 2010','Autodesk Inventor 2010','');
FILE_SCHEMA(('AUTOMOTIVE_DESIGN { 1 0 10303 214 1 1 1 1 }'));
ENDSEC;
DATA;
#5=APPLICATION_CONTEXT('automotive design');
#6=APPLICATION_PROTOCOL_DEFINITION('International Standard','automotive_design',2001,#5);
#7=PRODUCT_CONTEXT('',#5,'mechanical');
#8=PRODUCT('MPT-Tr\S\dgerplatte 131607','MPT-Tr\S\dgerplatte 131607',$,(#7));
#9=PRODUCT_RELATED_PRODUCT_CATEGORY('part',$,(#8));
#10=PRODUCT_DEFINITION_FORMATION('',$,#8);
#11=PRODUCT_DEFINITION_CONTEXT('part definition',#5,'design');
#12=PRODUCT_DEFINITION('',$,#10,#11);
#18=(NAMED_UNIT(*)PLANE_ANGLE_UNIT()SI_UNIT($,.RADIAN.));
#19=DIMENSIONAL_EXPONENTS(0.0,0.0,0.0,0.0,0.0,0.0,0.0);
#20=PLANE_ANGLE_MEASURE_WITH_UNIT(PLANE_ANGLE_MEASURE(0.017453292500000),#18);
#24=(CONVERSION_BASED_UNIT('DEGREE',#20)NAMED_UNIT(#19)PLANE_ANGLE_UNIT());
#28=(NAMED_UNIT(*)SI_UNIT($,.STERADIAN.)SOLID_ANGLE_UNIT());
#32=(LENGTH_UNIT()NAMED_UNIT(*)SI_UNIT(.MILLI.,.METRE.));
#34=UNCERTAINTY_MEASURE_WITH_UNIT(LENGTH_MEASURE(0.010000000000000),#32,'DISTANCE_ACCURACY_VALUE','');
#36=(GEOMETRIC_REPRESENTATION_CONTEXT(3)GLOBAL_UNCERTAINTY_ASSIGNED_CONTEXT((#34))GLOBAL_UNIT_ASSIGNED_CONTEXT((#24,#28,#32))REPRESENTATION_CONTEXT('None','None'));
#37=AXIS2_PLACEMENT_3D('',#38,#39,#40);
#38=CARTESIAN_POINT('',(0.0,0.0,0.0));
#39=DIRECTION('',(0.0,0.0,1.0));
#40=DIRECTION('',(1.0,0.0,0.0));
#41=SHAPE_REPRESENTATION('',(#37),#36);
#42=PRODUCT_DEFINITION_SHAPE('','',#12);
#43=SHAPE_DEFINITION_REPRESENTATION(#42,#41);
#49=(NAMED_UNIT(*)PLANE_ANGLE_UNIT()SI_UNIT($,.RADIAN.));
#50=DIMENSIONAL_EXPONENTS(0.0,0.0,0.0,0.0,0.0,0.0,0.0);
#51=PLANE_ANGLE_MEASURE_WITH_UNIT(PLANE_ANGLE_MEASURE(0.017453292500000),#49);
#55=(CONVERSION_BASED_UNIT('DEGREE',#51)NAMED_UNIT(#50)PLANE_ANGLE_UNIT());
#59=(NAMED_UNIT(*)SI_UNIT($,.STERADIAN.)SOLID_ANGLE_UNIT());
#63=(LENGTH_UNIT()NAMED_UNIT(*)SI_UNIT(.MILLI.,.METRE.));
#65=UNCERTAINTY_MEASURE_WITH_UNIT(LENGTH_MEASURE(0.000001000000000),#63,'DISTANCE_ACCURACY_VALUE','');
#67=(GEOMETRIC_REPRESENTATION_CONTEXT(3)GLOBAL_UNCERTAINTY_ASSIGNED_CONTEXT((#65))GLOBAL_UNIT_ASSIGNED_CONTEXT((#55,#59,#63))REPRESENTATION_CONTEXT('','3D'));
#68=CARTESIAN_POINT('',(35.0,-28.374999999999986,-7.696902001294993));
#69=DIRECTION('',(0.0,1.0,0.0));
#70=DIRECTION('',(-1.0,0.0,0.0));
#71=AXIS2_PLACEMENT_3D('',#68,#69,#70);
#72=CYLINDRICAL_SURFACE('',#71,35.0);
#73=CARTESIAN_POINT('',(0.0,6.750000000000003,-7.696902001294993));
#74=VERTEX_POINT('',#73);
#75=CARTESIAN_POINT('',(4.689110867544645,6.749999999999997,9.803097998705002));
#76=VERTEX_POINT('',#75);
#77=CARTESIAN_POINT('',(35.0,6.749999999999998,-7.696902001294993));
#78=DIRECTION('',(0.0,1.0,0.0));
#79=DIRECTION('',(-1.0,0.0,0.0));
#80=AXIS2_PLACEMENT_3D('',#77,#78,#79);
#81=CIRCLE('',#80,35.0);
#82=EDGE_CURVE('',#74,#76,#81,.T.);
#83=ORIENTED_EDGE('',*,*,#82,.T.);
#84=CARTESIAN_POINT('',(4.689110867544645,49.999999999999993,9.803097998705002));
#85=VERTEX_POINT('',#84);
#86=CARTESIAN_POINT('',(4.689110867544645,49.999999999999993,9.803097998705002));
#87=DIRECTION('',(0.0,-1.0,0.0));
#88=VECTOR('',#87,43.249999999999993);
#89=LINE('',#86,#88);
#90=EDGE_CURVE('',#85,#76,#89,.T.);
#91=ORIENTED_EDGE('',*,*,#90,.F.);
#92=CARTESIAN_POINT('',(0.0,49.999999999999993,-7.696902001294994));
#93=VERTEX_POINT('',#92);
#94=CARTESIAN_POINT('',(35.0,49.999999999999986,-7.696902001294993));
#95=DIRECTION('',(0.0,-1.0,0.0));
#96=DIRECTION('',(-1.0,0.0,0.0));
#97=AXIS2_PLACEMENT_3D('',#94,#95,#96);
#98=CIRCLE('',#97,35.0);
#99=EDGE_CURVE('',#85,#93,#98,.T.);
#100=ORIENTED_EDGE('',*,*,#99,.T.);
#101=CARTESIAN_POINT('',(0.0,6.750000000000003,-7.696902001294993));
#102=DIRECTION('',(0.0,1.0,0.0));
#103=VECTOR('',#102,43.250000000000000);
#104=LINE('',#101,#103);
#105=EDGE_CURVE('',#74,#93,#104,.T.);
#106=ORIENTED_EDGE('',*,*,#105,.F.);
#107=EDGE_LOOP('',(#83,#91,#100,#106));
#108=FACE_OUTER_BOUND('',#107,.T.);
#109=ADVANCED_FACE('',(#108),#72,.T.);
#110=CARTESIAN_POINT('',(35.0,-28.374999999999986,-7.696902001294993));
#111=DIRECTION('',(0.0,1.0,0.0));
#112=DIRECTION('',(-1.0,0.0,0.0));
#113=AXIS2_PLACEMENT_3D('',#110,#111,#112);
#114=CYLINDRICAL_SURFACE('',#113,25.0);
#115=CARTESIAN_POINT('',(13.349364905389031,6.749999999999997,4.803097998705003));
#116=VERTEX_POINT('',#115);
#117=CARTESIAN_POINT('',(10.0,6.750000000000003,-7.696902001294993));
#118=VERTEX_POINT('',#117);
#119=CARTESIAN_POINT('',(35.0,6.749999999999998,-7.696902001294993));
#120=DIRECTION('',(0.0,-1.0,0.0));
#121=DIRECTION('',(-1.0,0.0,0.0));
#122=AXIS2_PLACEMENT_3D('',#119,#120,#121);
#123=CIRCLE('',#122,25.0);
#124=EDGE_CURVE('',#116,#118,#123,.T.);
#125=ORIENTED_EDGE('',*,*,#124,.T.);
#126=CARTESIAN_POINT('',(10.0,49.999999999999993,-7.696902001294994));
#127=VERTEX_POINT('',#126);
#128=CARTESIAN_POINT('',(10.0,50.0,-7.696902001294993));
#129=DIRECTION('',(0.0,-1.0,0.0));
#130=VECTOR('',#129,43.250000000000000);
#131=LINE('',#128,#130);
#132=EDGE_CURVE('',#127,#118,#131,.T.);
#133=ORIENTED_EDGE('',*,*,#132,.F.);
#134=CARTESIAN_POINT('',(13.349364905389031,49.999999999999993,4.803097998705003));
#135=VERTEX_POINT('',#134);
#136=CARTESIAN_POINT('',(35.0,49.999999999999986,-7.696902001294993));
#137=DIRECTION('',(0.0,1.0,0.0));
#138=DIRECTION('',(-1.0,0.0,0.0));
#139=AXIS2_PLACEMENT_3D('',#136,#137,#138);
#140=CIRCLE('',#139,25.0);
#141=EDGE_CURVE('',#127,#135,#140,.T.);
#142=ORIENTED_EDGE('',*,*,#141,.T.);
#143=CARTESIAN_POINT('',(13.349364905389031,6.750000000000000,4.803097998705003));
#144=DIRECTION('',(0.0,1.0,0.0));
#145=VECTOR('',#144,43.249999999999993);
#146=LINE('',#143,#145);
#147=EDGE_CURVE('',#116,#135,#146,.T.);
#148=ORIENTED_EDGE('',*,*,#147,.F.);
#149=EDGE_LOOP('',(#125,#133,#142,#148));
#150=FACE_OUTER_BOUND('',#149,.T.);
#151=ADVANCED_FACE('',(#150),#114,.F.);
#152=CARTESIAN_POINT('',(35.0,-28.374999999999986,-7.696902001294993));
#153=DIRECTION('',(0.0,1.0,0.0));
#154=DIRECTION('',(-1.0,0.0,0.0));
#155=AXIS2_PLACEMENT_3D('',#152,#153,#154);
#156=CYLINDRICAL_SURFACE('',#155,25.0);
#157=CARTESIAN_POINT('',(13.349364905389031,-50.0,4.803097998705003));
#158=VERTEX_POINT('',#157);
#159=CARTESIAN_POINT('',(10.0,-50.000000000000007,-7.696902001294994));
#160=VERTEX_POINT('',#159);
#161=CARTESIAN_POINT('',(35.0,-50.000000000000007,-7.696902001294993));
#162=DIRECTION('',(0.0,-1.0,0.0));
#163=DIRECTION('',(-1.0,0.0,0.0));
#164=AXIS2_PLACEMENT_3D('',#161,#162,#163);
#165=CIRCLE('',#164,25.0);
#166=EDGE_CURVE('',#158,#160,#165,.T.);
#167=ORIENTED_EDGE('',*,*,#166,.T.);
#168=CARTESIAN_POINT('',(10.0,-6.749999999999997,-7.696902001294993));
#169=VERTEX_POINT('',#168);
#170=CARTESIAN_POINT('',(10.0,-6.749999999999996,-7.696902001294994));
#171=DIRECTION('',(0.0,-1.0,0.0));
#172=VECTOR('',#171,43.250000000000014);
#173=LINE('',#170,#172);
#174=EDGE_CURVE('',#169,#160,#173,.T.);
#175=ORIENTED_EDGE('',*,*,#174,.F.);
#176=CARTESIAN_POINT('',(13.349364905389031,-6.750000000000002,4.803097998705003));
#177=VERTEX_POINT('',#176);
#178=CARTESIAN_POINT('',(35.0,-6.749999999999998,-7.696902001294993));
#179=DIRECTION('',(0.0,1.0,0.0));
#180=DIRECTION('',(-1.0,0.0,0.0));
#181=AXIS2_PLACEMENT_3D('',#178,#179,#180);
#182=CIRCLE('',#181,25.0);
#183=EDGE_CURVE('',#169,#177,#182,.T.);
#184=ORIENTED_EDGE('',*,*,#183,.T.);
#185=CARTESIAN_POINT('',(13.349364905389031,-50.000000000000007,4.803097998705003));
#186=DIRECTION('',(0.0,1.0,0.0));
#187=VECTOR('',#186,43.250000000000007);
#188=LINE('',#185,#187);
#189=EDGE_CURVE('',#158,#177,#188,.T.);
#190=ORIENTED_EDGE('',*,*,#189,.F.);
#191=EDGE_LOOP('',(#167,#175,#184,#190));
#192=FACE_OUTER_BOUND('',#191,.T.);
#193=ADVANCED_FACE('',(#192),#156,.F.);
#194=CARTESIAN_POINT('',(35.0,-28.374999999999986,-7.696902001294993));
#195=DIRECTION('',(0.0,1.0,0.0));
#196=DIRECTION('',(-1.0,0.0,0.0));
#197=AXIS2_PLACEMENT_3D('',#194,#195,#196);
#198=CYLINDRICAL_SURFACE('',#197,35.0);
#199=CARTESIAN_POINT('',(0.0,-50.000000000000007,-7.696902001294994));
#200=VERTEX_POINT('',#199);
#201=CARTESIAN_POINT('',(4.689110867544645,-50.0,9.803097998705002));
#202=VERTEX_POINT('',#201);
#203=CARTESIAN_POINT('',(35.0,-50.000000000000007,-7.696902001294993));
#204=DIRECTION('',(0.0,1.0,0.0));
#205=DIRECTION('',(-1.0,0.0,0.0));
#206=AXIS2_PLACEMENT_3D('',#203,#204,#205);
#207=CIRCLE('',#206,35.0);
#208=EDGE_CURVE('',#200,#202,#207,.T.);
#209=ORIENTED_EDGE('',*,*,#208,.T.);
#210=CARTESIAN_POINT('',(4.689110867544645,-6.750000000000002,9.803097998705002));
#211=VERTEX_POINT('',#210);
#212=CARTESIAN_POINT('',(4.689110867544645,-6.750000000000002,9.803097998705002));
#213=DIRECTION('',(0.0,-1.0,0.0));
#214=VECTOR('',#213,43.250000000000007);
#215=LINE('',#212,#214);
#216=EDGE_CURVE('',#211,#202,#215,.T.);
#217=ORIENTED_EDGE('',*,*,#216,.F.);
#218=CARTESIAN_POINT('',(0.0,-6.749999999999997,-7.696902001294993));
#219=VERTEX_POINT('',#218);
#220=CARTESIAN_POINT('',(35.0,-6.749999999999998,-7.696902001294993));
#221=DIRECTION('',(0.0,-1.0,0.0));
#222=DIRECTION('',(-1.0,0.0,0.0));
#223=AXIS2_PLACEMENT_3D('',#220,#221,#222);
#224=CIRCLE('',#223,35.0);
#225=EDGE_CURVE('',#211,#219,#224,.T.);
#226=ORIENTED_EDGE('',*,*,#225,.T.);
#227=CARTESIAN_POINT('',(0.0,-50.000000000000007,-7.696902001294994));
#228=DIRECTION('',(0.0,1.0,0.0));
#229=VECTOR('',#228,43.250000000000014);
#230=LINE('',#227,#229);
#231=EDGE_CURVE('',#200,#219,#230,.T.);
#232=ORIENTED_EDGE('',*,*,#231,.F.);
#233=EDGE_LOOP('',(#209,#217,#226,#232));
#234=FACE_OUTER_BOUND('',#233,.T.);
#235=ADVANCED_FACE('',(#234),#198,.T.);
#236=CARTESIAN_POINT('',(22.090659866897148,-50.0,39.943464995982900));
#237=DIRECTION('',(0.500000000000000,0.0,0.866025403784439));
#238=DIRECTION('',(0.866025403784439,0.0,-0.500000000000000));
#239=AXIS2_PLACEMENT_3D('',#236,#237,#238);
#240=PLANE('',#239);
#241=CARTESIAN_POINT('',(30.750913904741530,-50.0,34.943464995982900));
#242=VERTEX_POINT('',#241);
#243=CARTESIAN_POINT('',(30.750913904741530,49.999999999999993,34.943464995982900));
#244=VERTEX_POINT('',#243);
#245=CARTESIAN_POINT('',(30.750913904741530,-50.000000000000007,34.943464995982900));
#246=DIRECTION('',(0.0,1.0,0.0));
#247=VECTOR('',#246,100.0);
#248=LINE('',#245,#247);
#249=EDGE_CURVE('',#242,#244,#248,.T.);
#250=ORIENTED_EDGE('',*,*,#249,.T.);
#251=CARTESIAN_POINT('',(22.090659866897148,49.999999999999993,39.943464995982900));
#252=VERTEX_POINT('',#251);
#253=CARTESIAN_POINT('',(22.090659866897148,49.999999999999993,39.943464995982900));
#254=DIRECTION('',(0.866025403784439,0.0,-0.500000000000000));
#255=VECTOR('',#254,10.000000000000002);
#256=LINE('',#253,#255);
#257=EDGE_CURVE('',#252,#244,#256,.T.);
#258=ORIENTED_EDGE('',*,*,#257,.F.);
#259=CARTESIAN_POINT('',(22.090659866897148,-50.0,39.943464995982900));
#260=VERTEX_POINT('',#259);
#261=CARTESIAN_POINT('',(22.090659866897148,49.999999999999993,39.943464995982900));
#262=DIRECTION('',(0.0,-1.0,0.0));
#263=VECTOR('',#262,100.0);
#264=LINE('',#261,#263);
#265=EDGE_CURVE('',#252,#260,#264,.T.);
#266=ORIENTED_EDGE('',*,*,#265,.T.);
#267=CARTESIAN_POINT('',(22.090659866897148,-50.0,39.943464995982900));
#268=DIRECTION('',(0.866025403784439,0.0,-0.500000000000000));
#269=VECTOR('',#268,10.000000000000002);
#270=LINE('',#267,#269);
#271=EDGE_CURVE('',#260,#242,#270,.T.);
#272=ORIENTED_EDGE('',*,*,#271,.T.);
#273=EDGE_LOOP('',(#250,#258,#266,#272));
#274=FACE_OUTER_BOUND('',#273,.T.);
#275=ADVANCED_FACE('',(#274),#240,.T.);
#276=CARTESIAN_POINT('',(4.965659866897149,6.749999999999997,10.282094916365875));
#277=DIRECTION('',(0.0,1.0,0.0));
#278=DIRECTION('',(0.500000000000000,0.0,0.866025403784439));
#279=AXIS2_PLACEMENT_3D('',#276,#277,#278);
#280=PLANE('',#279);
#281=CARTESIAN_POINT('',(13.625913904741536,6.749999999999997,5.282094916365874));
#282=VERTEX_POINT('',#281);
#283=CARTESIAN_POINT('',(13.625913904741537,6.749999999999996,5.282094916365873));
#284=DIRECTION('',(-0.500000000000000,0.0,-0.866025403784438));
#285=VECTOR('',#284,0.553097998705009);
#286=LINE('',#283,#285);
#287=EDGE_CURVE('',#282,#116,#286,.T.);
#288=ORIENTED_EDGE('',*,*,#287,.F.);
#289=CARTESIAN_POINT('',(4.965659866897149,6.749999999999997,10.282094916365875));
#290=VERTEX_POINT('',#289);
#291=CARTESIAN_POINT('',(4.965659866897149,6.749999999999997,10.282094916365875));
#292=DIRECTION('',(0.866025403784439,0.0,-0.500000000000000));
#293=VECTOR('',#292,10.000000000000002);
#294=LINE('',#291,#293);
#295=EDGE_CURVE('',#290,#282,#294,.T.);
#296=ORIENTED_EDGE('',*,*,#295,.F.);
#297=CARTESIAN_POINT('',(4.689110867544645,6.749999999999996,9.803097998705002));
#298=DIRECTION('',(0.499999999999999,0.0,0.866025403784439));
#299=VECTOR('',#298,0.553097998705009);
#300=LINE('',#297,#299);
#301=EDGE_CURVE('',#76,#290,#300,.T.);
#302=ORIENTED_EDGE('',*,*,#301,.F.);
#303=ORIENTED_EDGE('',*,*,#82,.F.);
#304=CARTESIAN_POINT('',(0.0,6.750000000000004,-8.250000000000002));
#305=VERTEX_POINT('',#304);
#306=CARTESIAN_POINT('',(0.0,6.750000000000004,-8.250000000000002));
#307=DIRECTION('',(0.0,0.0,1.0));
#308=VECTOR('',#307,0.553097998705010);
#309=LINE('',#306,#308);
#310=EDGE_CURVE('',#305,#74,#309,.T.);
#311=ORIENTED_EDGE('',*,*,#310,.F.);
#312=CARTESIAN_POINT('',(10.0,6.750000000000004,-8.250000000000002));
#313=VERTEX_POINT('',#312);
#314=CARTESIAN_POINT('',(0.0,6.750000000000004,-8.250000000000002));
#315=DIRECTION('',(1.0,0.0,0.0));
#316=VECTOR('',#315,10.0);
#317=LINE('',#314,#316);
#318=EDGE_CURVE('',#305,#313,#317,.T.);
#319=ORIENTED_EDGE('',*,*,#318,.T.);
#320=CARTESIAN_POINT('',(10.0,6.750000000000003,-7.696902001294992));
#321=DIRECTION('',(0.0,0.0,-1.0));
#322=VECTOR('',#321,0.553097998705010);
#323=LINE('',#320,#322);
#324=EDGE_CURVE('',#118,#313,#323,.T.);
#325=ORIENTED_EDGE('',*,*,#324,.F.);
#326=ORIENTED_EDGE('',*,*,#124,.F.);
#327=EDGE_LOOP('',(#288,#296,#302,#303,#311,#319,#325,#326));
#328=FACE_OUTER_BOUND('',#327,.T.);
#329=ADVANCED_FACE('',(#328),#280,.F.);
#330=CARTESIAN_POINT('',(4.965659866897148,3.330669E-015,10.282094916365869));
#331=DIRECTION('',(0.866025403784439,0.0,-0.500000000000000));
#332=DIRECTION('',(0.0,1.0,0.0));
#333=AXIS2_PLACEMENT_3D('',#330,#331,#332);
#334=CYLINDRICAL_SURFACE('',#333,6.749999999999998);
#335=CARTESIAN_POINT('',(13.625913904741534,-6.750000000000002,5.282094916365869));
#336=VERTEX_POINT('',#335);
#337=CARTESIAN_POINT('',(13.625913904741536,3.330669E-015,5.282094916365871));
#338=DIRECTION('',(-0.866025403784439,0.0,0.500000000000000));
#339=DIRECTION('',(0.0,1.0,0.0));
#340=AXIS2_PLACEMENT_3D('',#337,#338,#339);
#341=CIRCLE('',#340,6.749999999999998);
#342=EDGE_CURVE('',#336,#282,#341,.T.);
#343=ORIENTED_EDGE('',*,*,#342,.F.);
#344=CARTESIAN_POINT('',(4.965659866897147,-6.750000000000002,10.282094916365869));
#345=VERTEX_POINT('',#344);
#346=CARTESIAN_POINT('',(4.965659866897147,-6.750000000000002,10.282094916365869));
#347=DIRECTION('',(0.866025403784439,0.0,-0.500000000000000));
#348=VECTOR('',#347,10.0);
#349=LINE('',#346,#348);
#350=EDGE_CURVE('',#345,#336,#349,.T.);
#351=ORIENTED_EDGE('',*,*,#350,.F.);
#352=CARTESIAN_POINT('',(4.965659866897148,3.330669E-015,10.282094916365869));
#353=DIRECTION('',(0.866025403784439,0.0,-0.500000000000000));
#354=DIRECTION('',(0.0,1.0,0.0));
#355=AXIS2_PLACEMENT_3D('',#352,#353,#354);
#356=CIRCLE('',#355,6.749999999999998);
#357=EDGE_CURVE('',#290,#345,#356,.T.);
#358=ORIENTED_EDGE('',*,*,#357,.F.);
#359=ORIENTED_EDGE('',*,*,#295,.T.);
#360=EDGE_LOOP('',(#343,#351,#358,#359));
#361=FACE_OUTER_BOUND('',#360,.T.);
#362=ADVANCED_FACE('',(#361),#334,.F.);
#363=CARTESIAN_POINT('',(9.500913904741536,-6.661338E-015,-1.862614664855748));
#364=DIRECTION('',(0.866025403784439,0.0,-0.500000000000000));
#365=DIRECTION('',(-0.500000000000000,0.0,-0.866025403784439));
#366=AXIS2_PLACEMENT_3D('',#363,#364,#365);
#367=PLANE('',#366);
#368=ORIENTED_EDGE('',*,*,#147,.T.);
#369=CARTESIAN_POINT('',(30.750913904741534,49.999999999999993,34.943464995982907));
#370=DIRECTION('',(-0.500000000000000,0.0,-0.866025403784439));
#371=VECTOR('',#370,34.803097998705013);
#372=LINE('',#369,#371);
#373=EDGE_CURVE('',#244,#135,#372,.T.);
#374=ORIENTED_EDGE('',*,*,#373,.F.);
#375=ORIENTED_EDGE('',*,*,#249,.F.);
#376=CARTESIAN_POINT('',(13.349364905389027,-50.000000000000007,4.803097998704999));
#377=DIRECTION('',(0.500000000000000,2.041608E-016,0.866025403784439));
#378=VECTOR('',#377,34.803097998705013);
#379=LINE('',#376,#378);
#380=EDGE_CURVE('',#158,#242,#379,.T.);
#381=ORIENTED_EDGE('',*,*,#380,.F.);
#382=ORIENTED_EDGE('',*,*,#189,.T.);
#383=CARTESIAN_POINT('',(13.349364905389031,-6.750000000000002,4.803097998705002));
#384=DIRECTION('',(0.500000000000000,0.0,0.866025403784439));
#385=VECTOR('',#384,0.553097998705003);
#386=LINE('',#383,#385);
#387=EDGE_CURVE('',#177,#336,#386,.T.);
#388=ORIENTED_EDGE('',*,*,#387,.T.);
#389=ORIENTED_EDGE('',*,*,#342,.T.);
#390=ORIENTED_EDGE('',*,*,#287,.T.);
#391=EDGE_LOOP('',(#368,#374,#375,#381,#382,#388,#389,#390));
#392=FACE_OUTER_BOUND('',#391,.T.);
#393=ADVANCED_FACE('',(#392),#367,.T.);
#394=CARTESIAN_POINT('',(0.840659866897149,-6.661338E-015,3.137385335144252));
#395=DIRECTION('',(0.866025403784439,0.0,-0.500000000000000));
#396=DIRECTION('',(-0.500000000000000,0.0,-0.866025403784439));
#397=AXIS2_PLACEMENT_3D('',#394,#395,#396);
#398=PLANE('',#397);
#399=ORIENTED_EDGE('',*,*,#90,.T.);
#400=ORIENTED_EDGE('',*,*,#301,.T.);
#401=ORIENTED_EDGE('',*,*,#357,.T.);
#402=CARTESIAN_POINT('',(4.965659866897147,-6.750000000000002,10.282094916365871));
#403=DIRECTION('',(-0.499999999999997,0.0,-0.866025403784440));
#404=VECTOR('',#403,0.553097998705006);
#405=LINE('',#402,#404);
#406=EDGE_CURVE('',#345,#211,#405,.T.);
#407=ORIENTED_EDGE('',*,*,#406,.T.);
#408=ORIENTED_EDGE('',*,*,#216,.T.);
#409=CARTESIAN_POINT('',(22.090659866897148,-50.0,39.943464995982900));
#410=DIRECTION('',(-0.500000000000000,-2.041608E-016,-0.866025403784439));
#411=VECTOR('',#410,34.803097998705013);
#412=LINE('',#409,#411);
#413=EDGE_CURVE('',#260,#202,#412,.T.);
#414=ORIENTED_EDGE('',*,*,#413,.F.);
#415=ORIENTED_EDGE('',*,*,#265,.F.);
#416=CARTESIAN_POINT('',(4.689110867544645,49.999999999999993,9.803097998705006));
#417=DIRECTION('',(0.500000000000000,0.0,0.866025403784439));
#418=VECTOR('',#417,34.803097998705013);
#419=LINE('',#416,#418);
#420=EDGE_CURVE('',#85,#252,#419,.T.);
#421=ORIENTED_EDGE('',*,*,#420,.F.);
#422=EDGE_LOOP('',(#399,#400,#401,#407,#408,#414,#415,#421));
#423=FACE_OUTER_BOUND('',#422,.T.);
#424=ADVANCED_FACE('',(#423),#398,.F.);
#425=CARTESIAN_POINT('',(22.090659866897148,49.999999999999993,39.943464995982900));
#426=DIRECTION('',(0.0,1.0,0.0));
#427=DIRECTION('',(0.500000000000000,0.0,0.866025403784439));
#428=AXIS2_PLACEMENT_3D('',#425,#426,#427);
#429=PLANE('',#428);
#430=ORIENTED_EDGE('',*,*,#420,.T.);
#431=ORIENTED_EDGE('',*,*,#257,.T.);
#432=ORIENTED_EDGE('',*,*,#373,.T.);
#433=ORIENTED_EDGE('',*,*,#141,.F.);
#434=CARTESIAN_POINT('',(10.0,49.999999999999993,-42.500000000000000));
#435=VERTEX_POINT('',#434);
#436=CARTESIAN_POINT('',(10.0,49.999999999999993,-7.696902001294994));
#437=DIRECTION('',(0.0,0.0,-1.0));
#438=VECTOR('',#437,34.803097998705006);
#439=LINE('',#436,#438);
#440=EDGE_CURVE('',#127,#435,#439,.T.);
#441=ORIENTED_EDGE('',*,*,#440,.T.);
#442=CARTESIAN_POINT('',(0.0,49.999999999999993,-42.500000000000000));
#443=VERTEX_POINT('',#442);
#444=CARTESIAN_POINT('',(0.0,49.999999999999993,-42.500000000000000));
#445=DIRECTION('',(1.0,0.0,0.0));
#446=VECTOR('',#445,10.0);
#447=LINE('',#444,#446);
#448=EDGE_CURVE('',#443,#435,#447,.T.);
#449=ORIENTED_EDGE('',*,*,#448,.F.);
#450=CARTESIAN_POINT('',(0.0,49.999999999999993,-42.500000000000000));
#451=DIRECTION('',(0.0,0.0,1.0));
#452=VECTOR('',#451,34.803097998705006);
#453=LINE('',#450,#452);
#454=EDGE_CURVE('',#443,#93,#453,.T.);
#455=ORIENTED_EDGE('',*,*,#454,.T.);
#456=ORIENTED_EDGE('',*,*,#99,.F.);
#457=EDGE_LOOP('',(#430,#431,#432,#433,#441,#449,#455,#456));
#458=FACE_OUTER_BOUND('',#457,.T.);
#459=ADVANCED_FACE('',(#458),#429,.T.);
#460=CARTESIAN_POINT('',(10.0,-6.661338E-015,0.0));
#461=DIRECTION('',(1.0,0.0,0.0));
#462=DIRECTION('',(0.0,0.0,-1.0));
#463=AXIS2_PLACEMENT_3D('',#460,#461,#462);
#464=PLANE('',#463);
#465=ORIENTED_EDGE('',*,*,#132,.T.);
#466=ORIENTED_EDGE('',*,*,#324,.T.);
#467=CARTESIAN_POINT('',(10.0,-6.749999999999997,-8.250000000000007));
#468=VERTEX_POINT('',#467);
#469=CARTESIAN_POINT('',(10.0,3.330669E-015,-8.250000000000004));
#470=DIRECTION('',(-1.0,0.0,0.0));
#471=DIRECTION('',(0.0,-1.0,0.0));
#472=AXIS2_PLACEMENT_3D('',#469,#470,#471);
#473=CIRCLE('',#472,6.750000000000000);
#474=EDGE_CURVE('',#313,#468,#473,.T.);
#475=ORIENTED_EDGE('',*,*,#474,.T.);
#476=CARTESIAN_POINT('',(10.0,-6.749999999999997,-8.250000000000007));
#477=DIRECTION('',(0.0,0.0,1.0));
#478=VECTOR('',#477,0.553097998705014);
#479=LINE('',#476,#478);
#480=EDGE_CURVE('',#468,#169,#479,.T.);
#481=ORIENTED_EDGE('',*,*,#480,.T.);
#482=ORIENTED_EDGE('',*,*,#174,.T.);
#483=CARTESIAN_POINT('',(10.0,-50.000000000000007,-42.500000000000000));
#484=VERTEX_POINT('',#483);
#485=CARTESIAN_POINT('',(10.0,-50.000000000000007,-42.500000000000000));
#486=DIRECTION('',(0.0,0.0,1.0));
#487=VECTOR('',#486,34.803097998705006);
#488=LINE('',#485,#487);
#489=EDGE_CURVE('',#484,#160,#488,.T.);
#490=ORIENTED_EDGE('',*,*,#489,.F.);
#491=CARTESIAN_POINT('',(10.0,49.999999999999993,-42.500000000000000));
#492=DIRECTION('',(0.0,-1.0,0.0));
#493=VECTOR('',#492,100.0);
#494=LINE('',#491,#493);
#495=EDGE_CURVE('',#435,#484,#494,.T.);
#496=ORIENTED_EDGE('',*,*,#495,.F.);
#497=ORIENTED_EDGE('',*,*,#440,.F.);
#498=EDGE_LOOP('',(#465,#466,#475,#481,#482,#490,#496,#497));
#499=FACE_OUTER_BOUND('',#498,.T.);
#500=ADVANCED_FACE('',(#499),#464,.T.);
#501=CARTESIAN_POINT('',(0.0,-50.000000000000007,-42.500000000000000));
#502=DIRECTION('',(0.0,-1.0,0.0));
#503=DIRECTION('',(0.0,0.0,-1.0));
#504=AXIS2_PLACEMENT_3D('',#501,#502,#503);
#505=PLANE('',#504);
#506=CARTESIAN_POINT('',(0.0,-50.000000000000007,-42.500000000000000));
#507=VERTEX_POINT('',#506);
#508=CARTESIAN_POINT('',(0.0,-50.000000000000007,-7.696902001294994));
#509=DIRECTION('',(0.0,0.0,-1.0));
#510=VECTOR('',#509,34.803097998705006);
#511=LINE('',#508,#510);
#512=EDGE_CURVE('',#200,#507,#511,.T.);
#513=ORIENTED_EDGE('',*,*,#512,.T.);
#514=CARTESIAN_POINT('',(0.0,-50.000000000000007,-42.500000000000000));
#515=DIRECTION('',(1.0,0.0,0.0));
#516=VECTOR('',#515,10.0);
#517=LINE('',#514,#516);
#518=EDGE_CURVE('',#507,#484,#517,.T.);
#519=ORIENTED_EDGE('',*,*,#518,.T.);
#520=ORIENTED_EDGE('',*,*,#489,.T.);
#521=ORIENTED_EDGE('',*,*,#166,.F.);
#522=ORIENTED_EDGE('',*,*,#380,.T.);
#523=ORIENTED_EDGE('',*,*,#271,.F.);
#524=ORIENTED_EDGE('',*,*,#413,.T.);
#525=ORIENTED_EDGE('',*,*,#208,.F.);
#526=EDGE_LOOP('',(#513,#519,#520,#521,#522,#523,#524,#525));
#527=FACE_OUTER_BOUND('',#526,.T.);
#528=ADVANCED_FACE('',(#527),#505,.T.);
#529=CARTESIAN_POINT('',(0.0,-6.749999999999997,-8.250000000000007));
#530=DIRECTION('',(0.0,-1.0,0.0));
#531=DIRECTION('',(0.0,0.0,-1.0));
#532=AXIS2_PLACEMENT_3D('',#529,#530,#531);
#533=PLANE('',#532);
#534=ORIENTED_EDGE('',*,*,#480,.F.);
#535=CARTESIAN_POINT('',(0.0,-6.749999999999997,-8.250000000000007));
#536=VERTEX_POINT('',#535);
#537=CARTESIAN_POINT('',(0.0,-6.749999999999997,-8.250000000000007));
#538=DIRECTION('',(1.0,0.0,0.0));
#539=VECTOR('',#538,10.0);
#540=LINE('',#537,#539);
#541=EDGE_CURVE('',#536,#468,#540,.T.);
#542=ORIENTED_EDGE('',*,*,#541,.F.);
#543=CARTESIAN_POINT('',(0.0,-6.749999999999997,-7.696902001294993));
#544=DIRECTION('',(0.0,0.0,-1.0));
#545=VECTOR('',#544,0.553097998705014);
#546=LINE('',#543,#545);
#547=EDGE_CURVE('',#219,#536,#546,.T.);
#548=ORIENTED_EDGE('',*,*,#547,.F.);
#549=ORIENTED_EDGE('',*,*,#225,.F.);
#550=ORIENTED_EDGE('',*,*,#406,.F.);
#551=ORIENTED_EDGE('',*,*,#350,.T.);
#552=ORIENTED_EDGE('',*,*,#387,.F.);
#553=ORIENTED_EDGE('',*,*,#183,.F.);
#554=EDGE_LOOP('',(#534,#542,#548,#549,#550,#551,#552,#553));
#555=FACE_OUTER_BOUND('',#554,.T.);
#556=ADVANCED_FACE('',(#555),#533,.F.);
#557=CARTESIAN_POINT('',(0.0,3.330669E-015,-8.250000000000004));
#558=DIRECTION('',(1.0,0.0,0.0));
#559=DIRECTION('',(0.0,-1.0,0.0));
#560=AXIS2_PLACEMENT_3D('',#557,#558,#559);
#561=CYLINDRICAL_SURFACE('',#560,6.750000000000000);
#562=ORIENTED_EDGE('',*,*,#474,.F.);
#563=ORIENTED_EDGE('',*,*,#318,.F.);
#564=CARTESIAN_POINT('',(0.0,3.330669E-015,-8.250000000000004));
#565=DIRECTION('',(1.0,0.0,0.0));
#566=DIRECTION('',(0.0,-1.0,0.0));
#567=AXIS2_PLACEMENT_3D('',#564,#565,#566);
#568=CIRCLE('',#567,6.750000000000000);
#569=EDGE_CURVE('',#536,#305,#568,.T.);
#570=ORIENTED_EDGE('',*,*,#569,.F.);
#571=ORIENTED_EDGE('',*,*,#541,.T.);
#572=EDGE_LOOP('',(#562,#563,#570,#571));
#573=FACE_OUTER_BOUND('',#572,.T.);
#574=ADVANCED_FACE('',(#573),#561,.F.);
#575=CARTESIAN_POINT('',(0.0,49.999999999999993,-42.500000000000000));
#576=DIRECTION('',(0.0,0.0,-1.0));
#577=DIRECTION('',(-1.0,0.0,0.0));
#578=AXIS2_PLACEMENT_3D('',#575,#576,#577);
#579=PLANE('',#578);
#580=ORIENTED_EDGE('',*,*,#495,.T.);
#581=ORIENTED_EDGE('',*,*,#518,.F.);
#582=CARTESIAN_POINT('',(0.0,-50.000000000000007,-42.500000000000000));
#583=DIRECTION('',(0.0,1.0,0.0));
#584=VECTOR('',#583,100.0);
#585=LINE('',#582,#584);
#586=EDGE_CURVE('',#507,#443,#585,.T.);
#587=ORIENTED_EDGE('',*,*,#586,.T.);
#588=ORIENTED_EDGE('',*,*,#448,.T.);
#589=EDGE_LOOP('',(#580,#581,#587,#588));
#590=FACE_OUTER_BOUND('',#589,.T.);
#591=ADVANCED_FACE('',(#590),#579,.T.);
#592=CARTESIAN_POINT('',(0.0,-6.661338E-015,0.0));
#593=DIRECTION('',(1.0,0.0,0.0));
#594=DIRECTION('',(0.0,0.0,-1.0));
#595=AXIS2_PLACEMENT_3D('',#592,#593,#594);
#596=PLANE('',#595);
#597=ORIENTED_EDGE('',*,*,#105,.T.);
#598=ORIENTED_EDGE('',*,*,#454,.F.);
#599=ORIENTED_EDGE('',*,*,#586,.F.);
#600=ORIENTED_EDGE('',*,*,#512,.F.);
#601=ORIENTED_EDGE('',*,*,#231,.T.);
#602=ORIENTED_EDGE('',*,*,#547,.T.);
#603=ORIENTED_EDGE('',*,*,#569,.T.);
#604=ORIENTED_EDGE('',*,*,#310,.T.);
#605=EDGE_LOOP('',(#597,#598,#599,#600,#601,#602,#603,#604));
#606=FACE_OUTER_BOUND('',#605,.T.);
#607=ADVANCED_FACE('',(#606),#596,.F.);
#608=CLOSED_SHELL('',(#109,#151,#193,#235,#275,#329,#362,#393,#424,#459,#500,#528,#556,#574,#591,#607));
#609=MANIFOLD_SOLID_BREP('Volumenk\S\vrper1',#608);
#610=COLOUR_RGB('Metall - Stahl',0.639216005802155,0.639216005802155,0.686275005340576);
#611=FILL_AREA_STYLE_COLOUR('Metall - Stahl',#610);
#612=FILL_AREA_STYLE('Metall - Stahl',(#611));
#613=SURFACE_STYLE_FILL_AREA(#612);
#614=SURFACE_SIDE_STYLE('Metall - Stahl',(#613));
#615=SURFACE_STYLE_USAGE(.BOTH.,#614);
#616=PRESENTATION_STYLE_ASSIGNMENT((#615));
#617=STYLED_ITEM('',(#616),#609);
#618=MECHANICAL_DESIGN_GEOMETRIC_PRESENTATION_REPRESENTATION('',(#617),#36);
#619=ADVANCED_BREP_SHAPE_REPRESENTATION('ABSR',(#609),#36);
#620=SHAPE_REPRESENTATION_RELATIONSHIP('SRR','None',#619,#41);
ENDSEC;
END-ISO-10303-21;
