ISO-10303-21;
HEADER;
FILE_DESCRIPTION( ( 'STEP AP214' ), '1' );
FILE_NAME( 'p:/temp/worker_14/temp/exporttempdir_5740_196_go3dc/format_0/AGRU_16064004011_End Cap_long spigot_PP natural_40X3.7  SDR11  ISO S-5 (architecture400).stp', '2022-03-08T11:57:53', ( 'License CC BY-ND 4.0' ), ( 'CADENAS' ), ' ', 'PARTsolutions', ' ' );
FILE_SCHEMA( ( 'AUTOMOTIVE_DESIGN { 1 0 10303 214 1 1 1 1 }' ) );
ENDSEC;
DATA;
#1 = MECHANICAL_DESIGN_GEOMETRIC_PRESENTATION_REPRESENTATION( ' ', ( #10, #11, #12, #13, #14, #15, #16 ), #6 );
#2 = PRODUCT_DEFINITION_CONTEXT( '', #17, 'design' );
#3 = APPLICATION_PROTOCOL_DEFINITION( 'international standard', 'automotive_design', 2001, #17 );
#4 = PRODUCT_CATEGORY_RELATIONSHIP( 'NONE', 'NONE', #18, #19 );
#5 = SHAPE_DEFINITION_REPRESENTATION( #20, #21 );
#6 =  ( GEOMETRIC_REPRESENTATION_CONTEXT( 3 )GLOBAL_UNCERTAINTY_ASSIGNED_CONTEXT( ( #24 ) )GLOBAL_UNIT_ASSIGNED_CONTEXT( ( #26, #27, #28 ) )REPRESENTATION_CONTEXT( 'NONE', 'WORKSPACE' ) );
#10 = STYLED_ITEM( '', ( #30 ), #31 );
#11 = STYLED_ITEM( '', ( #32 ), #33 );
#12 = STYLED_ITEM( '', ( #34 ), #35 );
#13 = STYLED_ITEM( '', ( #36 ), #37 );
#14 = STYLED_ITEM( '', ( #38 ), #39 );
#15 = STYLED_ITEM( '', ( #40 ), #41 );
#16 = STYLED_ITEM( '', ( #42 ), #43 );
#17 = APPLICATION_CONTEXT( 'core data for automotive mechanical design processes' );
#18 = PRODUCT_CATEGORY( 'part', 'NONE' );
#19 = PRODUCT_RELATED_PRODUCT_CATEGORY( 'detail', ' ', ( #44 ) );
#20 = PRODUCT_DEFINITION_SHAPE( 'NONE', 'NONE', #45 );
#21 = ADVANCED_BREP_SHAPE_REPRESENTATION( '_AGRU_16064004011_End Cap_long spigot_PP natural_40X3.7  SDR11  ISO S-5 (architecture400)', ( #46, #47 ), #6 );
#24 = UNCERTAINTY_MEASURE_WITH_UNIT( LENGTH_MEASURE( 0.00100000000000000 ), #26, '', '' );
#26 =  ( CONVERSION_BASED_UNIT( 'MILLIMETRE', #50 )LENGTH_UNIT(  )NAMED_UNIT( #53 ) );
#27 =  ( NAMED_UNIT( #55 )PLANE_ANGLE_UNIT(  )SI_UNIT( $, .RADIAN. ) );
#28 =  ( NAMED_UNIT( #55 )SI_UNIT( $, .STERADIAN. )SOLID_ANGLE_UNIT(  ) );
#30 = PRESENTATION_STYLE_ASSIGNMENT( ( #61 ) );
#31 = ADVANCED_FACE( '', ( #62, #63 ), #64, .F. );
#32 = PRESENTATION_STYLE_ASSIGNMENT( ( #65 ) );
#33 = ADVANCED_FACE( '', ( #66, #67 ), #68, .F. );
#34 = PRESENTATION_STYLE_ASSIGNMENT( ( #69 ) );
#35 = ADVANCED_FACE( '', ( #70, #71 ), #72, .T. );
#36 = PRESENTATION_STYLE_ASSIGNMENT( ( #73 ) );
#37 = ADVANCED_FACE( '', ( #74, #75 ), #76, .T. );
#38 = PRESENTATION_STYLE_ASSIGNMENT( ( #77 ) );
#39 = ADVANCED_FACE( '', ( #78, #79 ), #80, .F. );
#40 = PRESENTATION_STYLE_ASSIGNMENT( ( #81 ) );
#41 = ADVANCED_FACE( '', ( #82, #83 ), #84, .T. );
#42 = PRESENTATION_STYLE_ASSIGNMENT( ( #85 ) );
#43 = ADVANCED_FACE( '', ( #86, #87 ), #88, .F. );
#44 = PRODUCT( '_AGRU_16064004011_End Cap_long spigot_PP natural_40X3.7  SDR11  ISO S-5 (architecture400)', '_AGRU_16064004011_End Cap_long spigot_PP natural_40X3.7  SDR11  ISO S-5 (architecture400)', 'PART-_AGRU_16064004011_End Cap_long spigot_PP natural_40X3.7  SDR11  ISO S-5 (architecture400)-DESC', ( #89 ) );
#45 = PRODUCT_DEFINITION( 'NONE', 'NONE', #90, #2 );
#46 = MANIFOLD_SOLID_BREP( '_AGRU_16064004011_End Cap_long spigot_PP natural_40X3.7  SDR11  ISO S-5 (architecture400)', #91 );
#47 = AXIS2_PLACEMENT_3D( '', #92, #93, #94 );
#50 = LENGTH_MEASURE_WITH_UNIT( LENGTH_MEASURE( 1.00000000000000 ), #95 );
#53 = DIMENSIONAL_EXPONENTS( 1.00000000000000, 0.000000000000000, 0.000000000000000, 0.000000000000000, 0.000000000000000, 0.000000000000000, 0.000000000000000 );
#55 = DIMENSIONAL_EXPONENTS( 0.000000000000000, 0.000000000000000, 0.000000000000000, 0.000000000000000, 0.000000000000000, 0.000000000000000, 0.000000000000000 );
#61 = SURFACE_STYLE_USAGE( .BOTH., #96 );
#62 = FACE_OUTER_BOUND( '', #97, .T. );
#63 = FACE_OUTER_BOUND( '', #98, .T. );
#64 = TOROIDAL_SURFACE( '', #99, 12.6000000000000, 3.70000000000000 );
#65 = SURFACE_STYLE_USAGE( .BOTH., #100 );
#66 = FACE_BOUND( '', #101, .T. );
#67 = FACE_OUTER_BOUND( '', #102, .T. );
#68 = PLANE( '', #103 );
#69 = SURFACE_STYLE_USAGE( .BOTH., #104 );
#70 = FACE_OUTER_BOUND( '', #105, .T. );
#71 = FACE_OUTER_BOUND( '', #106, .T. );
#72 = TOROIDAL_SURFACE( '', #107, 12.6000000000000, 7.40000000000000 );
#73 = SURFACE_STYLE_USAGE( .BOTH., #108 );
#74 = FACE_BOUND( '', #109, .T. );
#75 = FACE_OUTER_BOUND( '', #110, .T. );
#76 = SPHERICAL_SURFACE( '', #111, 40.0000000000000 );
#77 = SURFACE_STYLE_USAGE( .BOTH., #112 );
#78 = FACE_BOUND( '', #113, .T. );
#79 = FACE_OUTER_BOUND( '', #114, .T. );
#80 = SPHERICAL_SURFACE( '', #115, 36.3000000000000 );
#81 = SURFACE_STYLE_USAGE( .BOTH., #116 );
#82 = FACE_OUTER_BOUND( '', #117, .T. );
#83 = FACE_OUTER_BOUND( '', #118, .T. );
#84 = CYLINDRICAL_SURFACE( '', #119, 20.0000000000000 );
#85 = SURFACE_STYLE_USAGE( .BOTH., #120 );
#86 = FACE_OUTER_BOUND( '', #121, .T. );
#87 = FACE_OUTER_BOUND( '', #122, .T. );
#88 = CYLINDRICAL_SURFACE( '', #123, 16.3000000000000 );
#89 = PRODUCT_CONTEXT( '', #17, 'mechanical' );
#90 = PRODUCT_DEFINITION_FORMATION_WITH_SPECIFIED_SOURCE( ' ', 'NONE', #44, .NOT_KNOWN. );
#91 = CLOSED_SHELL( '', ( #31, #43, #33, #41, #35, #37, #39 ) );
#92 = CARTESIAN_POINT( '', ( 0.000000000000000, 0.000000000000000, 0.000000000000000 ) );
#93 = DIRECTION( '', ( 0.000000000000000, 0.000000000000000, 1.00000000000000 ) );
#94 = DIRECTION( '', ( 1.00000000000000, 0.000000000000000, 0.000000000000000 ) );
#95 =  ( LENGTH_UNIT(  )NAMED_UNIT( #53 )SI_UNIT( .MILLI., .METRE. ) );
#96 = SURFACE_SIDE_STYLE( '', ( #125 ) );
#97 = EDGE_LOOP( '', ( #126 ) );
#98 = EDGE_LOOP( '', ( #127 ) );
#99 = AXIS2_PLACEMENT_3D( '', #128, #129, #130 );
#100 = SURFACE_SIDE_STYLE( '', ( #131 ) );
#101 = EDGE_LOOP( '', ( #132 ) );
#102 = EDGE_LOOP( '', ( #133 ) );
#103 = AXIS2_PLACEMENT_3D( '', #134, #135, #136 );
#104 = SURFACE_SIDE_STYLE( '', ( #137 ) );
#105 = EDGE_LOOP( '', ( #138 ) );
#106 = EDGE_LOOP( '', ( #139 ) );
#107 = AXIS2_PLACEMENT_3D( '', #140, #141, #142 );
#108 = SURFACE_SIDE_STYLE( '', ( #143 ) );
#109 = VERTEX_LOOP( '', #144 );
#110 = EDGE_LOOP( '', ( #145 ) );
#111 = AXIS2_PLACEMENT_3D( '', #146, #147, #148 );
#112 = SURFACE_SIDE_STYLE( '', ( #149 ) );
#113 = VERTEX_LOOP( '', #150 );
#114 = EDGE_LOOP( '', ( #151 ) );
#115 = AXIS2_PLACEMENT_3D( '', #152, #153, #154 );
#116 = SURFACE_SIDE_STYLE( '', ( #155 ) );
#117 = EDGE_LOOP( '', ( #156 ) );
#118 = EDGE_LOOP( '', ( #157 ) );
#119 = AXIS2_PLACEMENT_3D( '', #158, #159, #160 );
#120 = SURFACE_SIDE_STYLE( '', ( #161 ) );
#121 = EDGE_LOOP( '', ( #162 ) );
#122 = EDGE_LOOP( '', ( #163 ) );
#123 = AXIS2_PLACEMENT_3D( '', #164, #165, #166 );
#125 = SURFACE_STYLE_FILL_AREA( #167 );
#126 = ORIENTED_EDGE( '', *, *, #168, .F. );
#127 = ORIENTED_EDGE( '', *, *, #169, .T. );
#128 = CARTESIAN_POINT( '', ( -54.0665927567458, 0.000000000000000, 0.000000000000000 ) );
#129 = DIRECTION( '', ( 1.00000000000000, 0.000000000000000, -0.000000000000000 ) );
#130 = DIRECTION( '', ( -0.000000000000000, 0.000000000000000, -1.00000000000000 ) );
#131 = SURFACE_STYLE_FILL_AREA( #170 );
#132 = ORIENTED_EDGE( '', *, *, #171, .F. );
#133 = ORIENTED_EDGE( '', *, *, #172, .T. );
#134 = CARTESIAN_POINT( '', ( 0.000000000000000, 0.000000000000000, 20.0000000000000 ) );
#135 = DIRECTION( '', ( -1.00000000000000, 0.000000000000000, 0.000000000000000 ) );
#136 = DIRECTION( '', ( 0.000000000000000, 0.000000000000000, 1.00000000000000 ) );
#137 = SURFACE_STYLE_FILL_AREA( #173 );
#138 = ORIENTED_EDGE( '', *, *, #174, .T. );
#139 = ORIENTED_EDGE( '', *, *, #175, .F. );
#140 = CARTESIAN_POINT( '', ( -54.0665927567458, 0.000000000000000, 0.000000000000000 ) );
#141 = DIRECTION( '', ( 1.00000000000000, 0.000000000000000, -0.000000000000000 ) );
#142 = DIRECTION( '', ( -0.000000000000000, 0.000000000000000, -1.00000000000000 ) );
#143 = SURFACE_STYLE_FILL_AREA( #176 );
#144 = VERTEX_POINT( '', #177 );
#145 = ORIENTED_EDGE( '', *, *, #174, .F. );
#146 = CARTESIAN_POINT( '', ( -23.9999999999992, 0.000000000000000, -1.74339709335669E-13 ) );
#147 = DIRECTION( '', ( 1.00000000000000, 0.000000000000000, 0.000000000000000 ) );
#148 = DIRECTION( '', ( 0.000000000000000, 0.000000000000000, 1.00000000000000 ) );
#149 = SURFACE_STYLE_FILL_AREA( #178 );
#150 = VERTEX_POINT( '', #179 );
#151 = ORIENTED_EDGE( '', *, *, #168, .T. );
#152 = CARTESIAN_POINT( '', ( -23.9999999999999, 0.000000000000000, -6.93889390390723E-15 ) );
#153 = DIRECTION( '', ( 1.00000000000000, 0.000000000000000, 0.000000000000000 ) );
#154 = DIRECTION( '', ( 0.000000000000000, 0.000000000000000, 1.00000000000000 ) );
#155 = SURFACE_STYLE_FILL_AREA( #180 );
#156 = ORIENTED_EDGE( '', *, *, #172, .F. );
#157 = ORIENTED_EDGE( '', *, *, #175, .T. );
#158 = CARTESIAN_POINT( '', ( -60.3000000000000, 0.000000000000000, 0.000000000000000 ) );
#159 = DIRECTION( '', ( -1.00000000000000, -0.000000000000000, 0.000000000000000 ) );
#160 = DIRECTION( '', ( -0.000000000000000, 0.000000000000000, -1.00000000000000 ) );
#161 = SURFACE_STYLE_FILL_AREA( #181 );
#162 = ORIENTED_EDGE( '', *, *, #169, .F. );
#163 = ORIENTED_EDGE( '', *, *, #171, .T. );
#164 = CARTESIAN_POINT( '', ( -60.3000000000000, 0.000000000000000, 0.000000000000000 ) );
#165 = DIRECTION( '', ( -1.00000000000000, -0.000000000000000, 0.000000000000000 ) );
#166 = DIRECTION( '', ( -0.000000000000000, 0.000000000000000, -1.00000000000000 ) );
#167 = FILL_AREA_STYLE( '', ( #182 ) );
#168 = EDGE_CURVE( '', #183, #183, #184, .T. );
#169 = EDGE_CURVE( '', #185, #185, #186, .T. );
#170 = FILL_AREA_STYLE( '', ( #187 ) );
#171 = EDGE_CURVE( '', #188, #188, #189, .T. );
#172 = EDGE_CURVE( '', #190, #190, #191, .T. );
#173 = FILL_AREA_STYLE( '', ( #192 ) );
#174 = EDGE_CURVE( '', #193, #193, #194, .T. );
#175 = EDGE_CURVE( '', #195, #195, #196, .T. );
#176 = FILL_AREA_STYLE( '', ( #197 ) );
#177 = CARTESIAN_POINT( '', ( -64.0000000000000, 0.000000000000000, -1.71890415737374E-13 ) );
#178 = FILL_AREA_STYLE( '', ( #198 ) );
#179 = CARTESIAN_POINT( '', ( -60.3000000000000, 0.000000000000000, -4.71615996345478E-15 ) );
#180 = FILL_AREA_STYLE( '', ( #199 ) );
#181 = FILL_AREA_STYLE( '', ( #200 ) );
#182 = FILL_AREA_STYLE_COLOUR( '', #201 );
#183 = VERTEX_POINT( '', #202 );
#184 = CIRCLE( '', #203, 14.0300613497000 );
#185 = VERTEX_POINT( '', #204 );
#186 = CIRCLE( '', #205, 16.3000000000000 );
#187 = FILL_AREA_STYLE_COLOUR( '', #206 );
#188 = VERTEX_POINT( '', #207 );
#189 = CIRCLE( '', #208, 16.3000000000000 );
#190 = VERTEX_POINT( '', #209 );
#191 = CIRCLE( '', #210, 20.0000000000000 );
#192 = FILL_AREA_STYLE_COLOUR( '', #211 );
#193 = VERTEX_POINT( '', #212 );
#194 = CIRCLE( '', #213, 15.4601226994000 );
#195 = VERTEX_POINT( '', #214 );
#196 = CIRCLE( '', #215, 20.0000000000000 );
#197 = FILL_AREA_STYLE_COLOUR( '', #216 );
#198 = FILL_AREA_STYLE_COLOUR( '', #217 );
#199 = FILL_AREA_STYLE_COLOUR( '', #218 );
#200 = FILL_AREA_STYLE_COLOUR( '', #219 );
#201 = COLOUR_RGB( '', 1.00000000000000, 1.00000000000000, 0.980392158000000 );
#202 = CARTESIAN_POINT( '', ( -57.4790588058243, 0.000000000000000, -14.0300613496933 ) );
#203 = AXIS2_PLACEMENT_3D( '', #220, #221, #222 );
#204 = CARTESIAN_POINT( '', ( -54.0665927567458, 0.000000000000000, -16.3000000000000 ) );
#205 = AXIS2_PLACEMENT_3D( '', #223, #224, #225 );
#206 = COLOUR_RGB( '', 1.00000000000000, 1.00000000000000, 0.980392158000000 );
#207 = CARTESIAN_POINT( '', ( 0.000000000000000, 0.000000000000000, -16.3000000000000 ) );
#208 = AXIS2_PLACEMENT_3D( '', #226, #227, #228 );
#209 = CARTESIAN_POINT( '', ( 0.000000000000000, 0.000000000000000, -20.0000000000000 ) );
#210 = AXIS2_PLACEMENT_3D( '', #229, #230, #231 );
#211 = COLOUR_RGB( '', 1.00000000000000, 1.00000000000000, 0.980392158000000 );
#212 = CARTESIAN_POINT( '', ( -60.8915248549028, 0.000000000000000, -15.4601226993865 ) );
#213 = AXIS2_PLACEMENT_3D( '', #232, #233, #234 );
#214 = CARTESIAN_POINT( '', ( -54.0665927567458, 0.000000000000000, -20.0000000000000 ) );
#215 = AXIS2_PLACEMENT_3D( '', #235, #236, #237 );
#216 = COLOUR_RGB( '', 1.00000000000000, 1.00000000000000, 0.980392158000000 );
#217 = COLOUR_RGB( '', 1.00000000000000, 1.00000000000000, 0.980392158000000 );
#218 = COLOUR_RGB( '', 1.00000000000000, 1.00000000000000, 0.980392158000000 );
#219 = COLOUR_RGB( '', 1.00000000000000, 1.00000000000000, 0.980392158000000 );
#220 = CARTESIAN_POINT( '', ( -57.4790588058243, 0.000000000000000, 0.000000000000000 ) );
#221 = DIRECTION( '', ( 1.00000000000000, 0.000000000000000, -0.000000000000000 ) );
#222 = DIRECTION( '', ( -0.000000000000000, 0.000000000000000, -1.00000000000000 ) );
#223 = CARTESIAN_POINT( '', ( -54.0665927567458, 0.000000000000000, 0.000000000000000 ) );
#224 = DIRECTION( '', ( 1.00000000000000, 0.000000000000000, -0.000000000000000 ) );
#225 = DIRECTION( '', ( -0.000000000000000, 0.000000000000000, -1.00000000000000 ) );
#226 = CARTESIAN_POINT( '', ( 0.000000000000000, 0.000000000000000, 0.000000000000000 ) );
#227 = DIRECTION( '', ( 1.00000000000000, 0.000000000000000, -0.000000000000000 ) );
#228 = DIRECTION( '', ( -0.000000000000000, 0.000000000000000, -1.00000000000000 ) );
#229 = CARTESIAN_POINT( '', ( 0.000000000000000, 0.000000000000000, 0.000000000000000 ) );
#230 = DIRECTION( '', ( 1.00000000000000, 0.000000000000000, -0.000000000000000 ) );
#231 = DIRECTION( '', ( -0.000000000000000, 0.000000000000000, -1.00000000000000 ) );
#232 = CARTESIAN_POINT( '', ( -60.8915248549028, 0.000000000000000, 0.000000000000000 ) );
#233 = DIRECTION( '', ( 1.00000000000000, 0.000000000000000, -0.000000000000000 ) );
#234 = DIRECTION( '', ( -0.000000000000000, 0.000000000000000, -1.00000000000000 ) );
#235 = CARTESIAN_POINT( '', ( -54.0665927567458, 0.000000000000000, 0.000000000000000 ) );
#236 = DIRECTION( '', ( 1.00000000000000, 0.000000000000000, -0.000000000000000 ) );
#237 = DIRECTION( '', ( -0.000000000000000, 0.000000000000000, -1.00000000000000 ) );
ENDSEC;
END-ISO-10303-21;
