ISO-10303-21;
HEADER;
FILE_DESCRIPTION( ( '' ), '1' );
FILE_NAME( '//se01002/users/anro/AGRU_25713503211_PE_100_schwarz_Rohr_50m_gerollt_32X3_0__SDR11__ISO_S-5_05.stp', '2017-12-11T12:49:57', ( '' ), ( '' ), ' ', ' ', ' ' );
FILE_SCHEMA( ( 'automotive_design' ) );
ENDSEC;
DATA;
#1 = MECHANICAL_DESIGN_GEOMETRIC_PRESENTATION_REPRESENTATION( ' ', ( #10, #11, #12, #13, #14, #15, #16, #17, #18, #19, #20, #21, #22, #23, #24, #25, #26, #27, #28, #29, #30, #31, #32, #33, #34, #35, #36 ), #6 );
#2 = PRODUCT_DEFINITION_CONTEXT( '', #37, 'design' );
#3 = APPLICATION_PROTOCOL_DEFINITION( 'INTERNATIONAL STANDARD', 'automotive_design', 1994, #37 );
#4 = PRODUCT_CATEGORY_RELATIONSHIP( 'NONE', 'NONE', #38, #39 );
#5 = SHAPE_DEFINITION_REPRESENTATION( #40, #41 );
#6 =  ( GEOMETRIC_REPRESENTATION_CONTEXT( 3 )GLOBAL_UNCERTAINTY_ASSIGNED_CONTEXT( ( #44 ) )GLOBAL_UNIT_ASSIGNED_CONTEXT( ( #46, #47, #48 ) )REPRESENTATION_CONTEXT( 'NONE', 'WORKSPACE' ) );
#10 = STYLED_ITEM( '', ( #50 ), #51 );
#11 = STYLED_ITEM( '', ( #52 ), #53 );
#12 = STYLED_ITEM( '', ( #54 ), #55 );
#13 = STYLED_ITEM( '', ( #56 ), #57 );
#14 = STYLED_ITEM( '', ( #58 ), #59 );
#15 = STYLED_ITEM( '', ( #60 ), #61 );
#16 = STYLED_ITEM( '', ( #62 ), #63 );
#17 = STYLED_ITEM( '', ( #64 ), #65 );
#18 = STYLED_ITEM( '', ( #66 ), #67 );
#19 = STYLED_ITEM( '', ( #68 ), #69 );
#20 = STYLED_ITEM( '', ( #70 ), #71 );
#21 = STYLED_ITEM( '', ( #72 ), #73 );
#22 = STYLED_ITEM( '', ( #74 ), #75 );
#23 = STYLED_ITEM( '', ( #76 ), #77 );
#24 = STYLED_ITEM( '', ( #78 ), #79 );
#25 = STYLED_ITEM( '', ( #80 ), #81 );
#26 = STYLED_ITEM( '', ( #82 ), #83 );
#27 = STYLED_ITEM( '', ( #84 ), #85 );
#28 = STYLED_ITEM( '', ( #86 ), #87 );
#29 = STYLED_ITEM( '', ( #88 ), #89 );
#30 = STYLED_ITEM( '', ( #90 ), #91 );
#31 = STYLED_ITEM( '', ( #92 ), #93 );
#32 = STYLED_ITEM( '', ( #94 ), #95 );
#33 = STYLED_ITEM( '', ( #96 ), #97 );
#34 = STYLED_ITEM( '', ( #98 ), #99 );
#35 = STYLED_ITEM( '', ( #100 ), #101 );
#36 = STYLED_ITEM( '', ( #102 ), #103 );
#37 = APPLICATION_CONTEXT( ' ' );
#38 = PRODUCT_CATEGORY( 'part', 'NONE' );
#39 = PRODUCT_RELATED_PRODUCT_CATEGORY( 'detail', ' ', ( #104 ) );
#40 = PRODUCT_DEFINITION_SHAPE( 'NONE', 'NONE', #105 );
#41 = ADVANCED_BREP_SHAPE_REPRESENTATION( '1', ( #87, #106 ), #6 );
#44 = UNCERTAINTY_MEASURE_WITH_UNIT( LENGTH_MEASURE( 1.00000000000000E-006 ), #46, '', '' );
#46 =  ( CONVERSION_BASED_UNIT( 'MILLIMETRE', #109 )LENGTH_UNIT(  )NAMED_UNIT( #112 ) );
#47 =  ( NAMED_UNIT( #114 )PLANE_ANGLE_UNIT(  )SI_UNIT( $, .RADIAN. ) );
#48 =  ( NAMED_UNIT( #114 )SOLID_ANGLE_UNIT(  )SI_UNIT( $, .STERADIAN. ) );
#50 = PRESENTATION_STYLE_ASSIGNMENT( ( #120 ) );
#51 = ADVANCED_FACE( '', ( #121 ), #122, .T. );
#52 = PRESENTATION_STYLE_ASSIGNMENT( ( #123 ) );
#53 = VERTEX_POINT( '', #124 );
#54 = PRESENTATION_STYLE_ASSIGNMENT( ( #125 ) );
#55 = EDGE_CURVE( '', #91, #73, #126, .T. );
#56 = PRESENTATION_STYLE_ASSIGNMENT( ( #127 ) );
#57 = EDGE_CURVE( '', #81, #83, #128, .T. );
#58 = PRESENTATION_STYLE_ASSIGNMENT( ( #129 ) );
#59 = ADVANCED_FACE( '', ( #130, #131 ), #132, .F. );
#60 = PRESENTATION_STYLE_ASSIGNMENT( ( #133 ) );
#61 = EDGE_CURVE( '', #67, #73, #134, .T. );
#62 = PRESENTATION_STYLE_ASSIGNMENT( ( #135 ) );
#63 = EDGE_CURVE( '', #81, #97, #136, .T. );
#64 = PRESENTATION_STYLE_ASSIGNMENT( ( #137 ) );
#65 = EDGE_CURVE( '', #83, #53, #138, .T. );
#66 = PRESENTATION_STYLE_ASSIGNMENT( ( #139 ) );
#67 = VERTEX_POINT( '', #140 );
#68 = PRESENTATION_STYLE_ASSIGNMENT( ( #141 ) );
#69 = EDGE_CURVE( '', #53, #83, #142, .T. );
#70 = PRESENTATION_STYLE_ASSIGNMENT( ( #143 ) );
#71 = ADVANCED_FACE( '', ( #144 ), #145, .F. );
#72 = PRESENTATION_STYLE_ASSIGNMENT( ( #146 ) );
#73 = VERTEX_POINT( '', #147 );
#74 = PRESENTATION_STYLE_ASSIGNMENT( ( #148 ) );
#75 = EDGE_CURVE( '', #67, #85, #149, .T. );
#76 = PRESENTATION_STYLE_ASSIGNMENT( ( #150 ) );
#77 = EDGE_CURVE( '', #73, #67, #151, .T. );
#78 = PRESENTATION_STYLE_ASSIGNMENT( ( #152 ) );
#79 = ADVANCED_FACE( '', ( #153 ), #154, .F. );
#80 = PRESENTATION_STYLE_ASSIGNMENT( ( #155 ) );
#81 = VERTEX_POINT( '', #156 );
#82 = PRESENTATION_STYLE_ASSIGNMENT( ( #157 ) );
#83 = VERTEX_POINT( '', #158 );
#84 = PRESENTATION_STYLE_ASSIGNMENT( ( #159 ) );
#85 = VERTEX_POINT( '', #160 );
#86 = PRESENTATION_STYLE_ASSIGNMENT( ( #161 ) );
#87 = MANIFOLD_SOLID_BREP( '1', #162 );
#88 = PRESENTATION_STYLE_ASSIGNMENT( ( #163 ) );
#89 = EDGE_CURVE( '', #53, #97, #164, .T. );
#90 = PRESENTATION_STYLE_ASSIGNMENT( ( #165 ) );
#91 = VERTEX_POINT( '', #166 );
#92 = PRESENTATION_STYLE_ASSIGNMENT( ( #167 ) );
#93 = ADVANCED_FACE( '', ( #168, #169 ), #170, .T. );
#94 = PRESENTATION_STYLE_ASSIGNMENT( ( #171 ) );
#95 = EDGE_CURVE( '', #85, #91, #172, .T. );
#96 = PRESENTATION_STYLE_ASSIGNMENT( ( #173 ) );
#97 = VERTEX_POINT( '', #174 );
#98 = PRESENTATION_STYLE_ASSIGNMENT( ( #175 ) );
#99 = EDGE_CURVE( '', #91, #85, #176, .T. );
#100 = PRESENTATION_STYLE_ASSIGNMENT( ( #177 ) );
#101 = ADVANCED_FACE( '', ( #178 ), #179, .T. );
#102 = PRESENTATION_STYLE_ASSIGNMENT( ( #180 ) );
#103 = EDGE_CURVE( '', #97, #81, #181, .T. );
#104 = PRODUCT( '1', '1', 'PART-1-DESC', ( #182 ) );
#105 = PRODUCT_DEFINITION( 'NONE', 'NONE', #183, #2 );
#106 = AXIS2_PLACEMENT_3D( '', #184, #185, #186 );
#109 = LENGTH_MEASURE_WITH_UNIT( LENGTH_MEASURE( 1.00000000000000 ), #187 );
#112 = DIMENSIONAL_EXPONENTS( 1.00000000000000, 0.000000000000000, 0.000000000000000, 0.000000000000000, 0.000000000000000, 0.000000000000000, 0.000000000000000 );
#114 = DIMENSIONAL_EXPONENTS( 0.000000000000000, 0.000000000000000, 0.000000000000000, 0.000000000000000, 0.000000000000000, 0.000000000000000, 0.000000000000000 );
#120 = SURFACE_STYLE_USAGE( .BOTH., #188 );
#121 = FACE_OUTER_BOUND( '', #189, .T. );
#122 = CYLINDRICAL_SURFACE( '', #190, 16.0000000000000 );
#123 = POINT_STYLE( ' ', #191, POSITIVE_LENGTH_MEASURE( 1.00000000000000E-006 ), #192 );
#124 = CARTESIAN_POINT( '', ( 5000.00000000000, 1.95937016611580E-015, 16.0000000000000 ) );
#125 = CURVE_STYLE( '', #193, POSITIVE_LENGTH_MEASURE( 1.00000000000000E-006 ), #194 );
#126 = LINE( '', #195, #196 );
#127 = CURVE_STYLE( '', #197, POSITIVE_LENGTH_MEASURE( 1.00000000000000E-006 ), #198 );
#128 = LINE( '', #199, #200 );
#129 = SURFACE_STYLE_USAGE( .BOTH., #201 );
#130 = FACE_OUTER_BOUND( '', #202, .T. );
#131 = FACE_BOUND( '', #203, .T. );
#132 = PLANE( '', #204 );
#133 = CURVE_STYLE( '', #205, POSITIVE_LENGTH_MEASURE( 1.00000000000000E-006 ), #206 );
#134 = CIRCLE( '', #207, 13.0000000000000 );
#135 = CURVE_STYLE( '', #208, POSITIVE_LENGTH_MEASURE( 1.00000000000000E-006 ), #209 );
#136 = CIRCLE( '', #210, 16.0000000000000 );
#137 = CURVE_STYLE( '', #211, POSITIVE_LENGTH_MEASURE( 1.00000000000000E-006 ), #212 );
#138 = CIRCLE( '', #213, 16.0000000000000 );
#139 = POINT_STYLE( ' ', #214, POSITIVE_LENGTH_MEASURE( 1.00000000000000E-006 ), #215 );
#140 = CARTESIAN_POINT( '', ( 0.000000000000000, 0.000000000000000, -13.0000000000000 ) );
#141 = CURVE_STYLE( '', #216, POSITIVE_LENGTH_MEASURE( 1.00000000000000E-006 ), #217 );
#142 = CIRCLE( '', #218, 16.0000000000000 );
#143 = SURFACE_STYLE_USAGE( .BOTH., #219 );
#144 = FACE_OUTER_BOUND( '', #220, .T. );
#145 = CYLINDRICAL_SURFACE( '', #221, 13.0000000000000 );
#146 = POINT_STYLE( ' ', #222, POSITIVE_LENGTH_MEASURE( 1.00000000000000E-006 ), #223 );
#147 = CARTESIAN_POINT( '', ( 0.000000000000000, 1.59198825996909E-015, 13.0000000000000 ) );
#148 = CURVE_STYLE( '', #224, POSITIVE_LENGTH_MEASURE( 1.00000000000000E-006 ), #225 );
#149 = LINE( '', #226, #227 );
#150 = CURVE_STYLE( '', #228, POSITIVE_LENGTH_MEASURE( 1.00000000000000E-006 ), #229 );
#151 = CIRCLE( '', #230, 13.0000000000000 );
#152 = SURFACE_STYLE_USAGE( .BOTH., #231 );
#153 = FACE_OUTER_BOUND( '', #232, .T. );
#154 = CYLINDRICAL_SURFACE( '', #233, 13.0000000000000 );
#155 = POINT_STYLE( ' ', #234, POSITIVE_LENGTH_MEASURE( 1.00000000000000E-006 ), #235 );
#156 = CARTESIAN_POINT( '', ( 0.000000000000000, 0.000000000000000, -16.0000000000000 ) );
#157 = POINT_STYLE( ' ', #236, POSITIVE_LENGTH_MEASURE( 1.00000000000000E-006 ), #237 );
#158 = CARTESIAN_POINT( '', ( 5000.00000000000, 0.000000000000000, -16.0000000000000 ) );
#159 = POINT_STYLE( ' ', #238, POSITIVE_LENGTH_MEASURE( 1.00000000000000E-006 ), #239 );
#160 = CARTESIAN_POINT( '', ( 5000.00000000000, 0.000000000000000, -13.0000000000000 ) );
#161 = SURFACE_STYLE_USAGE( .BOTH., #240 );
#162 = CLOSED_SHELL( '', ( #101, #71, #79, #51, #93, #59 ) );
#163 = CURVE_STYLE( '', #241, POSITIVE_LENGTH_MEASURE( 1.00000000000000E-006 ), #242 );
#164 = LINE( '', #243, #244 );
#165 = POINT_STYLE( ' ', #245, POSITIVE_LENGTH_MEASURE( 1.00000000000000E-006 ), #246 );
#166 = CARTESIAN_POINT( '', ( 5000.00000000000, 1.59198825996909E-015, 13.0000000000000 ) );
#167 = SURFACE_STYLE_USAGE( .BOTH., #247 );
#168 = FACE_OUTER_BOUND( '', #248, .T. );
#169 = FACE_BOUND( '', #249, .T. );
#170 = PLANE( '', #250 );
#171 = CURVE_STYLE( '', #251, POSITIVE_LENGTH_MEASURE( 1.00000000000000E-006 ), #252 );
#172 = CIRCLE( '', #253, 13.0000000000000 );
#173 = POINT_STYLE( ' ', #254, POSITIVE_LENGTH_MEASURE( 1.00000000000000E-006 ), #255 );
#174 = CARTESIAN_POINT( '', ( 0.000000000000000, 1.95937016611580E-015, 16.0000000000000 ) );
#175 = CURVE_STYLE( '', #256, POSITIVE_LENGTH_MEASURE( 1.00000000000000E-006 ), #257 );
#176 = CIRCLE( '', #258, 13.0000000000000 );
#177 = SURFACE_STYLE_USAGE( .BOTH., #259 );
#178 = FACE_OUTER_BOUND( '', #260, .T. );
#179 = CYLINDRICAL_SURFACE( '', #261, 16.0000000000000 );
#180 = CURVE_STYLE( '', #262, POSITIVE_LENGTH_MEASURE( 1.00000000000000E-006 ), #263 );
#181 = CIRCLE( '', #264, 16.0000000000000 );
#182 = PRODUCT_CONTEXT( '', #37, 'mechanical' );
#183 = PRODUCT_DEFINITION_FORMATION_WITH_SPECIFIED_SOURCE( ' ', 'NONE', #104, .NOT_KNOWN. );
#184 = CARTESIAN_POINT( '', ( 0.000000000000000, 0.000000000000000, 0.000000000000000 ) );
#185 = DIRECTION( '', ( 0.000000000000000, 0.000000000000000, 1.00000000000000 ) );
#186 = DIRECTION( '', ( 1.00000000000000, 0.000000000000000, 0.000000000000000 ) );
#187 =  ( NAMED_UNIT( #112 )LENGTH_UNIT(  )SI_UNIT( .MILLI., .METRE. ) );
#188 = SURFACE_SIDE_STYLE( '', ( #266 ) );
#189 = EDGE_LOOP( '', ( #267, #268, #269, #270 ) );
#190 = AXIS2_PLACEMENT_3D( '', #271, #272, #273 );
#191 = PRE_DEFINED_MARKER( '' );
#192 = COLOUR_RGB( '', 0.689999997615810, 0.689999997615810, 0.689999997615810 );
#193 = DRAUGHTING_PRE_DEFINED_CURVE_FONT( 'continuous' );
#194 = COLOUR_RGB( '', 0.689999997615810, 0.689999997615810, 0.689999997615810 );
#195 = CARTESIAN_POINT( '', ( 0.000000000000000, 1.59198825996909E-015, 13.0000000000000 ) );
#196 = VECTOR( '', #274, 1.00000000000000 );
#197 = DRAUGHTING_PRE_DEFINED_CURVE_FONT( 'continuous' );
#198 = COLOUR_RGB( '', 0.689999997615810, 0.689999997615810, 0.689999997615810 );
#199 = CARTESIAN_POINT( '', ( 0.000000000000000, -1.95937016611580E-015, -16.0000000000000 ) );
#200 = VECTOR( '', #275, 1.00000000000000 );
#201 = SURFACE_SIDE_STYLE( '', ( #276 ) );
#202 = EDGE_LOOP( '', ( #277, #278 ) );
#203 = EDGE_LOOP( '', ( #279, #280 ) );
#204 = AXIS2_PLACEMENT_3D( '', #281, #282, #283 );
#205 = DRAUGHTING_PRE_DEFINED_CURVE_FONT( 'continuous' );
#206 = COLOUR_RGB( '', 0.689999997615810, 0.689999997615810, 0.689999997615810 );
#207 = AXIS2_PLACEMENT_3D( '', #284, #285, #286 );
#208 = DRAUGHTING_PRE_DEFINED_CURVE_FONT( 'continuous' );
#209 = COLOUR_RGB( '', 0.689999997615810, 0.689999997615810, 0.689999997615810 );
#210 = AXIS2_PLACEMENT_3D( '', #287, #288, #289 );
#211 = DRAUGHTING_PRE_DEFINED_CURVE_FONT( 'continuous' );
#212 = COLOUR_RGB( '', 0.689999997615810, 0.689999997615810, 0.689999997615810 );
#213 = AXIS2_PLACEMENT_3D( '', #290, #291, #292 );
#214 = PRE_DEFINED_MARKER( '' );
#215 = COLOUR_RGB( '', 0.689999997615810, 0.689999997615810, 0.689999997615810 );
#216 = DRAUGHTING_PRE_DEFINED_CURVE_FONT( 'continuous' );
#217 = COLOUR_RGB( '', 0.689999997615810, 0.689999997615810, 0.689999997615810 );
#218 = AXIS2_PLACEMENT_3D( '', #293, #294, #295 );
#219 = SURFACE_SIDE_STYLE( '', ( #296 ) );
#220 = EDGE_LOOP( '', ( #297, #298, #299, #300 ) );
#221 = AXIS2_PLACEMENT_3D( '', #301, #302, #303 );
#222 = PRE_DEFINED_MARKER( '' );
#223 = COLOUR_RGB( '', 0.689999997615810, 0.689999997615810, 0.689999997615810 );
#224 = DRAUGHTING_PRE_DEFINED_CURVE_FONT( 'continuous' );
#225 = COLOUR_RGB( '', 0.689999997615810, 0.689999997615810, 0.689999997615810 );
#226 = CARTESIAN_POINT( '', ( 0.000000000000000, -1.59198825996909E-015, -13.0000000000000 ) );
#227 = VECTOR( '', #304, 1.00000000000000 );
#228 = DRAUGHTING_PRE_DEFINED_CURVE_FONT( 'continuous' );
#229 = COLOUR_RGB( '', 0.689999997615810, 0.689999997615810, 0.689999997615810 );
#230 = AXIS2_PLACEMENT_3D( '', #305, #306, #307 );
#231 = SURFACE_SIDE_STYLE( '', ( #308 ) );
#232 = EDGE_LOOP( '', ( #309, #310, #311, #312 ) );
#233 = AXIS2_PLACEMENT_3D( '', #313, #314, #315 );
#234 = PRE_DEFINED_MARKER( '' );
#235 = COLOUR_RGB( '', 0.689999997615810, 0.689999997615810, 0.689999997615810 );
#236 = PRE_DEFINED_MARKER( '' );
#237 = COLOUR_RGB( '', 0.689999997615810, 0.689999997615810, 0.689999997615810 );
#238 = PRE_DEFINED_MARKER( '' );
#239 = COLOUR_RGB( '', 0.689999997615810, 0.689999997615810, 0.689999997615810 );
#240 = SURFACE_SIDE_STYLE( '', ( #316 ) );
#241 = DRAUGHTING_PRE_DEFINED_CURVE_FONT( 'continuous' );
#242 = COLOUR_RGB( '', 0.689999997615810, 0.689999997615810, 0.689999997615810 );
#243 = CARTESIAN_POINT( '', ( 0.000000000000000, 1.95937016611580E-015, 16.0000000000000 ) );
#244 = VECTOR( '', #317, 1.00000000000000 );
#245 = PRE_DEFINED_MARKER( '' );
#246 = COLOUR_RGB( '', 0.689999997615810, 0.689999997615810, 0.689999997615810 );
#247 = SURFACE_SIDE_STYLE( '', ( #318 ) );
#248 = EDGE_LOOP( '', ( #319, #320 ) );
#249 = EDGE_LOOP( '', ( #321, #322 ) );
#250 = AXIS2_PLACEMENT_3D( '', #323, #324, #325 );
#251 = DRAUGHTING_PRE_DEFINED_CURVE_FONT( 'continuous' );
#252 = COLOUR_RGB( '', 0.689999997615810, 0.689999997615810, 0.689999997615810 );
#253 = AXIS2_PLACEMENT_3D( '', #326, #327, #328 );
#254 = PRE_DEFINED_MARKER( '' );
#255 = COLOUR_RGB( '', 0.689999997615810, 0.689999997615810, 0.689999997615810 );
#256 = DRAUGHTING_PRE_DEFINED_CURVE_FONT( 'continuous' );
#257 = COLOUR_RGB( '', 0.689999997615810, 0.689999997615810, 0.689999997615810 );
#258 = AXIS2_PLACEMENT_3D( '', #329, #330, #331 );
#259 = SURFACE_SIDE_STYLE( '', ( #332 ) );
#260 = EDGE_LOOP( '', ( #333, #334, #335, #336 ) );
#261 = AXIS2_PLACEMENT_3D( '', #337, #338, #339 );
#262 = DRAUGHTING_PRE_DEFINED_CURVE_FONT( 'continuous' );
#263 = COLOUR_RGB( '', 0.689999997615810, 0.689999997615810, 0.689999997615810 );
#264 = AXIS2_PLACEMENT_3D( '', #340, #341, #342 );
#266 = SURFACE_STYLE_FILL_AREA( #343 );
#267 = ORIENTED_EDGE( '', *, *, #57, .T. );
#268 = ORIENTED_EDGE( '', *, *, #65, .T. );
#269 = ORIENTED_EDGE( '', *, *, #89, .T. );
#270 = ORIENTED_EDGE( '', *, *, #103, .T. );
#271 = CARTESIAN_POINT( '', ( 0.000000000000000, 0.000000000000000, 0.000000000000000 ) );
#272 = DIRECTION( '', ( -1.00000000000000, -0.000000000000000, -0.000000000000000 ) );
#273 = DIRECTION( '', ( 0.000000000000000, 0.000000000000000, -1.00000000000000 ) );
#274 = DIRECTION( '', ( -1.00000000000000, 0.000000000000000, 0.000000000000000 ) );
#275 = DIRECTION( '', ( 1.00000000000000, 0.000000000000000, 0.000000000000000 ) );
#276 = SURFACE_STYLE_FILL_AREA( #344 );
#277 = ORIENTED_EDGE( '', *, *, #63, .F. );
#278 = ORIENTED_EDGE( '', *, *, #103, .F. );
#279 = ORIENTED_EDGE( '', *, *, #61, .T. );
#280 = ORIENTED_EDGE( '', *, *, #77, .T. );
#281 = CARTESIAN_POINT( '', ( 0.000000000000000, 0.000000000000000, 0.000000000000000 ) );
#282 = DIRECTION( '', ( 1.00000000000000, 0.000000000000000, 0.000000000000000 ) );
#283 = DIRECTION( '', ( 0.000000000000000, 0.000000000000000, -1.00000000000000 ) );
#284 = CARTESIAN_POINT( '', ( 0.000000000000000, 0.000000000000000, 0.000000000000000 ) );
#285 = DIRECTION( '', ( 1.00000000000000, -0.000000000000000, 0.000000000000000 ) );
#286 = DIRECTION( '', ( 0.000000000000000, 0.000000000000000, -1.00000000000000 ) );
#287 = CARTESIAN_POINT( '', ( 0.000000000000000, 0.000000000000000, 0.000000000000000 ) );
#288 = DIRECTION( '', ( 1.00000000000000, -0.000000000000000, 0.000000000000000 ) );
#289 = DIRECTION( '', ( 0.000000000000000, 0.000000000000000, -1.00000000000000 ) );
#290 = CARTESIAN_POINT( '', ( 5000.00000000000, 0.000000000000000, 0.000000000000000 ) );
#291 = DIRECTION( '', ( -1.00000000000000, 0.000000000000000, 0.000000000000000 ) );
#292 = DIRECTION( '', ( 0.000000000000000, 0.000000000000000, -1.00000000000000 ) );
#293 = CARTESIAN_POINT( '', ( 5000.00000000000, 0.000000000000000, 0.000000000000000 ) );
#294 = DIRECTION( '', ( -1.00000000000000, 0.000000000000000, 0.000000000000000 ) );
#295 = DIRECTION( '', ( 0.000000000000000, 0.000000000000000, -1.00000000000000 ) );
#296 = SURFACE_STYLE_FILL_AREA( #345 );
#297 = ORIENTED_EDGE( '', *, *, #75, .F. );
#298 = ORIENTED_EDGE( '', *, *, #77, .F. );
#299 = ORIENTED_EDGE( '', *, *, #55, .F. );
#300 = ORIENTED_EDGE( '', *, *, #99, .T. );
#301 = CARTESIAN_POINT( '', ( 0.000000000000000, 0.000000000000000, 0.000000000000000 ) );
#302 = DIRECTION( '', ( -1.00000000000000, -0.000000000000000, -0.000000000000000 ) );
#303 = DIRECTION( '', ( 0.000000000000000, 0.000000000000000, -1.00000000000000 ) );
#304 = DIRECTION( '', ( 1.00000000000000, 0.000000000000000, 0.000000000000000 ) );
#305 = CARTESIAN_POINT( '', ( 0.000000000000000, 0.000000000000000, 0.000000000000000 ) );
#306 = DIRECTION( '', ( 1.00000000000000, -0.000000000000000, 0.000000000000000 ) );
#307 = DIRECTION( '', ( 0.000000000000000, 0.000000000000000, -1.00000000000000 ) );
#308 = SURFACE_STYLE_FILL_AREA( #346 );
#309 = ORIENTED_EDGE( '', *, *, #75, .T. );
#310 = ORIENTED_EDGE( '', *, *, #95, .T. );
#311 = ORIENTED_EDGE( '', *, *, #55, .T. );
#312 = ORIENTED_EDGE( '', *, *, #61, .F. );
#313 = CARTESIAN_POINT( '', ( 0.000000000000000, 0.000000000000000, 0.000000000000000 ) );
#314 = DIRECTION( '', ( -1.00000000000000, -0.000000000000000, -0.000000000000000 ) );
#315 = DIRECTION( '', ( 0.000000000000000, 0.000000000000000, -1.00000000000000 ) );
#316 = SURFACE_STYLE_FILL_AREA( #347 );
#317 = DIRECTION( '', ( -1.00000000000000, -0.000000000000000, -0.000000000000000 ) );
#318 = SURFACE_STYLE_FILL_AREA( #348 );
#319 = ORIENTED_EDGE( '', *, *, #65, .F. );
#320 = ORIENTED_EDGE( '', *, *, #69, .F. );
#321 = ORIENTED_EDGE( '', *, *, #95, .F. );
#322 = ORIENTED_EDGE( '', *, *, #99, .F. );
#323 = CARTESIAN_POINT( '', ( 5000.00000000000, 0.000000000000000, 0.000000000000000 ) );
#324 = DIRECTION( '', ( 1.00000000000000, 0.000000000000000, 0.000000000000000 ) );
#325 = DIRECTION( '', ( 0.000000000000000, 0.000000000000000, -1.00000000000000 ) );
#326 = CARTESIAN_POINT( '', ( 5000.00000000000, 0.000000000000000, 0.000000000000000 ) );
#327 = DIRECTION( '', ( 1.00000000000000, 0.000000000000000, 0.000000000000000 ) );
#328 = DIRECTION( '', ( 0.000000000000000, 0.000000000000000, -1.00000000000000 ) );
#329 = CARTESIAN_POINT( '', ( 5000.00000000000, 0.000000000000000, 0.000000000000000 ) );
#330 = DIRECTION( '', ( 1.00000000000000, 0.000000000000000, 0.000000000000000 ) );
#331 = DIRECTION( '', ( 0.000000000000000, 0.000000000000000, -1.00000000000000 ) );
#332 = SURFACE_STYLE_FILL_AREA( #349 );
#333 = ORIENTED_EDGE( '', *, *, #57, .F. );
#334 = ORIENTED_EDGE( '', *, *, #63, .T. );
#335 = ORIENTED_EDGE( '', *, *, #89, .F. );
#336 = ORIENTED_EDGE( '', *, *, #69, .T. );
#337 = CARTESIAN_POINT( '', ( 0.000000000000000, 0.000000000000000, 0.000000000000000 ) );
#338 = DIRECTION( '', ( -1.00000000000000, -0.000000000000000, -0.000000000000000 ) );
#339 = DIRECTION( '', ( 0.000000000000000, 0.000000000000000, -1.00000000000000 ) );
#340 = CARTESIAN_POINT( '', ( 0.000000000000000, 0.000000000000000, 0.000000000000000 ) );
#341 = DIRECTION( '', ( 1.00000000000000, -0.000000000000000, 0.000000000000000 ) );
#342 = DIRECTION( '', ( 0.000000000000000, 0.000000000000000, -1.00000000000000 ) );
#343 = FILL_AREA_STYLE( '', ( #350 ) );
#344 = FILL_AREA_STYLE( '', ( #351 ) );
#345 = FILL_AREA_STYLE( '', ( #352 ) );
#346 = FILL_AREA_STYLE( '', ( #353 ) );
#347 = FILL_AREA_STYLE( '', ( #354 ) );
#348 = FILL_AREA_STYLE( '', ( #355 ) );
#349 = FILL_AREA_STYLE( '', ( #356 ) );
#350 = FILL_AREA_STYLE_COLOUR( '', #357 );
#351 = FILL_AREA_STYLE_COLOUR( '', #358 );
#352 = FILL_AREA_STYLE_COLOUR( '', #359 );
#353 = FILL_AREA_STYLE_COLOUR( '', #360 );
#354 = FILL_AREA_STYLE_COLOUR( '', #361 );
#355 = FILL_AREA_STYLE_COLOUR( '', #362 );
#356 = FILL_AREA_STYLE_COLOUR( '', #363 );
#357 = COLOUR_RGB( '', 0.689999997615810, 0.689999997615810, 0.689999997615810 );
#358 = COLOUR_RGB( '', 0.689999997615810, 0.689999997615810, 0.689999997615810 );
#359 = COLOUR_RGB( '', 0.689999997615810, 0.689999997615810, 0.689999997615810 );
#360 = COLOUR_RGB( '', 0.689999997615810, 0.689999997615810, 0.689999997615810 );
#361 = COLOUR_RGB( '', 0.689999997615810, 0.689999997615810, 0.689999997615810 );
#362 = COLOUR_RGB( '', 0.689999997615810, 0.689999997615810, 0.689999997615810 );
#363 = COLOUR_RGB( '', 0.689999997615810, 0.689999997615810, 0.689999997615810 );
ENDSEC;
END-ISO-10303-21;
