ISO-10303-21;
HEADER;
/* Generated by software containing ST-Developer
 * from STEP Tools, Inc. (www.steptools.com) 
 */

FILE_DESCRIPTION(
/* description */ (''),
/* implementation_level */ '2;1');

FILE_NAME(
/* name */ 'C:\\Users\\mdebiase\\Desktop\\baricentro\\MIFV032100.ipt.s
tp',
/* time_stamp */ '2014-06-06T15:26:55+02:00',
/* author */ ('bfaro'),
/* organization */ (''),
/* preprocessor_version */ 'ST-DEVELOPER v15.6',
/* originating_system */ 'Autodesk Inventor 2015',
/* authorisation */ '');

FILE_SCHEMA (('AUTOMOTIVE_DESIGN { 1 0 10303 214 3 1 1 }'));
ENDSEC;

DATA;
#10=MECHANICAL_DESIGN_GEOMETRIC_PRESENTATION_REPRESENTATION('',(#320,#319),
#578);
#11=SHAPE_REPRESENTATION_RELATIONSHIP('SRR','None',#587,#12);
#12=ADVANCED_BREP_SHAPE_REPRESENTATION($,(#13),#577);
#13=MANIFOLD_SOLID_BREP('43A',#344);
#14=LINE('',#523,#38);
#15=LINE('',#525,#39);
#16=LINE('',#527,#40);
#17=LINE('',#529,#41);
#18=LINE('',#531,#42);
#19=LINE('',#533,#43);
#20=LINE('',#535,#44);
#21=LINE('',#536,#45);
#22=LINE('',#540,#46);
#23=LINE('',#542,#47);
#24=LINE('',#544,#48);
#25=LINE('',#546,#49);
#26=LINE('',#548,#50);
#27=LINE('',#550,#51);
#28=LINE('',#552,#52);
#29=LINE('',#553,#53);
#30=LINE('',#555,#54);
#31=LINE('',#556,#55);
#32=LINE('',#558,#56);
#33=LINE('',#560,#57);
#34=LINE('',#562,#58);
#35=LINE('',#564,#59);
#36=LINE('',#566,#60);
#37=LINE('',#568,#61);
#38=VECTOR('',#431,17.8111831820431);
#39=VECTOR('',#432,17.8111831820432);
#40=VECTOR('',#433,17.8111831820429);
#41=VECTOR('',#434,17.8111831820432);
#42=VECTOR('',#435,17.8111831820431);
#43=VECTOR('',#436,17.8111831820432);
#44=VECTOR('',#437,17.8111831820429);
#45=VECTOR('',#438,17.8111831820432);
#46=VECTOR('',#441,17.8111831820431);
#47=VECTOR('',#442,17.8111831820431);
#48=VECTOR('',#443,17.8111831820432);
#49=VECTOR('',#444,17.8111831820429);
#50=VECTOR('',#445,17.8111831820432);
#51=VECTOR('',#446,17.8111831820431);
#52=VECTOR('',#447,17.8111831820432);
#53=VECTOR('',#448,17.8111831820429);
#54=VECTOR('',#451,15.6000000000002);
#55=VECTOR('',#452,15.6000000000002);
#56=VECTOR('',#455,15.6000000000002);
#57=VECTOR('',#458,15.6000000000002);
#58=VECTOR('',#461,15.6000000000002);
#59=VECTOR('',#464,15.6000000000002);
#60=VECTOR('',#467,15.6000000000002);
#61=VECTOR('',#470,15.6000000000002);
#62=PLANE('',#368);
#63=PLANE('',#369);
#64=PLANE('',#370);
#65=PLANE('',#371);
#66=PLANE('',#372);
#67=PLANE('',#373);
#68=PLANE('',#374);
#69=PLANE('',#375);
#70=PLANE('',#376);
#71=PLANE('',#377);
#72=PLANE('',#378);
#73=PLANE('',#379);
#74=PLANE('',#380);
#75=PLANE('',#381);
#76=PLANE('',#382);
#77=TOROIDAL_SURFACE('',#349,19.45,2.);
#78=TOROIDAL_SURFACE('',#357,19.45,2.);
#79=FACE_BOUND('',#118,.T.);
#80=FACE_BOUND('',#120,.T.);
#81=FACE_BOUND('',#122,.T.);
#82=FACE_BOUND('',#124,.T.);
#83=FACE_BOUND('',#126,.T.);
#84=FACE_BOUND('',#128,.T.);
#85=FACE_BOUND('',#130,.T.);
#86=FACE_BOUND('',#132,.T.);
#87=FACE_BOUND('',#134,.T.);
#88=FACE_BOUND('',#136,.T.);
#89=FACE_BOUND('',#146,.T.);
#90=FACE_BOUND('',#148,.T.);
#91=FACE_BOUND('',#150,.T.);
#92=FACE_BOUND('',#152,.T.);
#93=FACE_BOUND('',#154,.T.);
#94=FACE_OUTER_BOUND('',#117,.T.);
#95=FACE_OUTER_BOUND('',#119,.T.);
#96=FACE_OUTER_BOUND('',#121,.T.);
#97=FACE_OUTER_BOUND('',#123,.T.);
#98=FACE_OUTER_BOUND('',#125,.T.);
#99=FACE_OUTER_BOUND('',#127,.T.);
#100=FACE_OUTER_BOUND('',#129,.T.);
#101=FACE_OUTER_BOUND('',#131,.T.);
#102=FACE_OUTER_BOUND('',#133,.T.);
#103=FACE_OUTER_BOUND('',#135,.T.);
#104=FACE_OUTER_BOUND('',#137,.T.);
#105=FACE_OUTER_BOUND('',#138,.T.);
#106=FACE_OUTER_BOUND('',#139,.T.);
#107=FACE_OUTER_BOUND('',#140,.T.);
#108=FACE_OUTER_BOUND('',#141,.T.);
#109=FACE_OUTER_BOUND('',#142,.T.);
#110=FACE_OUTER_BOUND('',#143,.T.);
#111=FACE_OUTER_BOUND('',#144,.T.);
#112=FACE_OUTER_BOUND('',#145,.T.);
#113=FACE_OUTER_BOUND('',#147,.T.);
#114=FACE_OUTER_BOUND('',#149,.T.);
#115=FACE_OUTER_BOUND('',#151,.T.);
#116=FACE_OUTER_BOUND('',#153,.T.);
#117=EDGE_LOOP('',(#237));
#118=EDGE_LOOP('',(#238));
#119=EDGE_LOOP('',(#239));
#120=EDGE_LOOP('',(#240));
#121=EDGE_LOOP('',(#241));
#122=EDGE_LOOP('',(#242));
#123=EDGE_LOOP('',(#243));
#124=EDGE_LOOP('',(#244));
#125=EDGE_LOOP('',(#245));
#126=EDGE_LOOP('',(#246));
#127=EDGE_LOOP('',(#247));
#128=EDGE_LOOP('',(#248));
#129=EDGE_LOOP('',(#249));
#130=EDGE_LOOP('',(#250));
#131=EDGE_LOOP('',(#251));
#132=EDGE_LOOP('',(#252));
#133=EDGE_LOOP('',(#253,#254,#255,#256,#257,#258,#259,#260));
#134=EDGE_LOOP('',(#261));
#135=EDGE_LOOP('',(#262,#263,#264,#265,#266,#267,#268,#269));
#136=EDGE_LOOP('',(#270));
#137=EDGE_LOOP('',(#271,#272,#273,#274));
#138=EDGE_LOOP('',(#275,#276,#277,#278));
#139=EDGE_LOOP('',(#279,#280,#281,#282));
#140=EDGE_LOOP('',(#283,#284,#285,#286));
#141=EDGE_LOOP('',(#287,#288,#289,#290));
#142=EDGE_LOOP('',(#291,#292,#293,#294));
#143=EDGE_LOOP('',(#295,#296,#297,#298));
#144=EDGE_LOOP('',(#299,#300,#301,#302));
#145=EDGE_LOOP('',(#303));
#146=EDGE_LOOP('',(#304));
#147=EDGE_LOOP('',(#305));
#148=EDGE_LOOP('',(#306));
#149=EDGE_LOOP('',(#307));
#150=EDGE_LOOP('',(#308));
#151=EDGE_LOOP('',(#309));
#152=EDGE_LOOP('',(#310));
#153=EDGE_LOOP('',(#311));
#154=EDGE_LOOP('',(#312));
#155=CIRCLE('',#347,15.1455);
#156=CIRCLE('',#348,15.1455);
#157=CIRCLE('',#350,21.45);
#158=CIRCLE('',#351,19.45);
#159=CIRCLE('',#353,21.4499999999998);
#160=CIRCLE('',#355,21.45);
#161=CIRCLE('',#356,21.45);
#162=CIRCLE('',#358,19.45);
#163=CIRCLE('',#360,17.0999999999999);
#164=CIRCLE('',#361,17.0999999999999);
#165=CIRCLE('',#363,16.);
#166=CIRCLE('',#364,16.);
#167=CIRCLE('',#366,14.5);
#168=CIRCLE('',#367,14.5);
#169=VERTEX_POINT('',#485);
#170=VERTEX_POINT('',#487);
#171=VERTEX_POINT('',#490);
#172=VERTEX_POINT('',#492);
#173=VERTEX_POINT('',#495);
#174=VERTEX_POINT('',#498);
#175=VERTEX_POINT('',#500);
#176=VERTEX_POINT('',#503);
#177=VERTEX_POINT('',#506);
#178=VERTEX_POINT('',#508);
#179=VERTEX_POINT('',#511);
#180=VERTEX_POINT('',#513);
#181=VERTEX_POINT('',#516);
#182=VERTEX_POINT('',#518);
#183=VERTEX_POINT('',#521);
#184=VERTEX_POINT('',#522);
#185=VERTEX_POINT('',#524);
#186=VERTEX_POINT('',#526);
#187=VERTEX_POINT('',#528);
#188=VERTEX_POINT('',#530);
#189=VERTEX_POINT('',#532);
#190=VERTEX_POINT('',#534);
#191=VERTEX_POINT('',#538);
#192=VERTEX_POINT('',#539);
#193=VERTEX_POINT('',#541);
#194=VERTEX_POINT('',#543);
#195=VERTEX_POINT('',#545);
#196=VERTEX_POINT('',#547);
#197=VERTEX_POINT('',#549);
#198=VERTEX_POINT('',#551);
#199=EDGE_CURVE('',#169,#169,#155,.T.);
#200=EDGE_CURVE('',#170,#170,#156,.T.);
#201=EDGE_CURVE('',#171,#171,#157,.T.);
#202=EDGE_CURVE('',#172,#172,#158,.T.);
#203=EDGE_CURVE('',#173,#173,#159,.T.);
#204=EDGE_CURVE('',#174,#174,#160,.T.);
#205=EDGE_CURVE('',#175,#175,#161,.T.);
#206=EDGE_CURVE('',#176,#176,#162,.T.);
#207=EDGE_CURVE('',#177,#177,#163,.T.);
#208=EDGE_CURVE('',#178,#178,#164,.T.);
#209=EDGE_CURVE('',#179,#179,#165,.T.);
#210=EDGE_CURVE('',#180,#180,#166,.T.);
#211=EDGE_CURVE('',#181,#181,#167,.T.);
#212=EDGE_CURVE('',#182,#182,#168,.T.);
#213=EDGE_CURVE('',#183,#184,#14,.T.);
#214=EDGE_CURVE('',#185,#183,#15,.T.);
#215=EDGE_CURVE('',#186,#185,#16,.T.);
#216=EDGE_CURVE('',#187,#186,#17,.T.);
#217=EDGE_CURVE('',#188,#187,#18,.T.);
#218=EDGE_CURVE('',#189,#188,#19,.T.);
#219=EDGE_CURVE('',#190,#189,#20,.T.);
#220=EDGE_CURVE('',#184,#190,#21,.T.);
#221=EDGE_CURVE('',#191,#192,#22,.T.);
#222=EDGE_CURVE('',#192,#193,#23,.T.);
#223=EDGE_CURVE('',#193,#194,#24,.T.);
#224=EDGE_CURVE('',#194,#195,#25,.T.);
#225=EDGE_CURVE('',#195,#196,#26,.T.);
#226=EDGE_CURVE('',#196,#197,#27,.T.);
#227=EDGE_CURVE('',#197,#198,#28,.T.);
#228=EDGE_CURVE('',#198,#191,#29,.T.);
#229=EDGE_CURVE('',#193,#184,#30,.T.);
#230=EDGE_CURVE('',#192,#183,#31,.T.);
#231=EDGE_CURVE('',#194,#190,#32,.T.);
#232=EDGE_CURVE('',#195,#189,#33,.T.);
#233=EDGE_CURVE('',#196,#188,#34,.T.);
#234=EDGE_CURVE('',#197,#187,#35,.T.);
#235=EDGE_CURVE('',#198,#186,#36,.T.);
#236=EDGE_CURVE('',#191,#185,#37,.T.);
#237=ORIENTED_EDGE('',*,*,#199,.F.);
#238=ORIENTED_EDGE('',*,*,#200,.F.);
#239=ORIENTED_EDGE('',*,*,#201,.T.);
#240=ORIENTED_EDGE('',*,*,#202,.F.);
#241=ORIENTED_EDGE('',*,*,#203,.T.);
#242=ORIENTED_EDGE('',*,*,#201,.F.);
#243=ORIENTED_EDGE('',*,*,#204,.T.);
#244=ORIENTED_EDGE('',*,*,#205,.F.);
#245=ORIENTED_EDGE('',*,*,#206,.T.);
#246=ORIENTED_EDGE('',*,*,#204,.F.);
#247=ORIENTED_EDGE('',*,*,#207,.F.);
#248=ORIENTED_EDGE('',*,*,#208,.T.);
#249=ORIENTED_EDGE('',*,*,#209,.F.);
#250=ORIENTED_EDGE('',*,*,#210,.T.);
#251=ORIENTED_EDGE('',*,*,#211,.F.);
#252=ORIENTED_EDGE('',*,*,#212,.T.);
#253=ORIENTED_EDGE('',*,*,#213,.F.);
#254=ORIENTED_EDGE('',*,*,#214,.F.);
#255=ORIENTED_EDGE('',*,*,#215,.F.);
#256=ORIENTED_EDGE('',*,*,#216,.F.);
#257=ORIENTED_EDGE('',*,*,#217,.F.);
#258=ORIENTED_EDGE('',*,*,#218,.F.);
#259=ORIENTED_EDGE('',*,*,#219,.F.);
#260=ORIENTED_EDGE('',*,*,#220,.F.);
#261=ORIENTED_EDGE('',*,*,#205,.T.);
#262=ORIENTED_EDGE('',*,*,#221,.T.);
#263=ORIENTED_EDGE('',*,*,#222,.T.);
#264=ORIENTED_EDGE('',*,*,#223,.T.);
#265=ORIENTED_EDGE('',*,*,#224,.T.);
#266=ORIENTED_EDGE('',*,*,#225,.T.);
#267=ORIENTED_EDGE('',*,*,#226,.T.);
#268=ORIENTED_EDGE('',*,*,#227,.T.);
#269=ORIENTED_EDGE('',*,*,#228,.T.);
#270=ORIENTED_EDGE('',*,*,#203,.F.);
#271=ORIENTED_EDGE('',*,*,#213,.T.);
#272=ORIENTED_EDGE('',*,*,#229,.F.);
#273=ORIENTED_EDGE('',*,*,#222,.F.);
#274=ORIENTED_EDGE('',*,*,#230,.T.);
#275=ORIENTED_EDGE('',*,*,#220,.T.);
#276=ORIENTED_EDGE('',*,*,#231,.F.);
#277=ORIENTED_EDGE('',*,*,#223,.F.);
#278=ORIENTED_EDGE('',*,*,#229,.T.);
#279=ORIENTED_EDGE('',*,*,#219,.T.);
#280=ORIENTED_EDGE('',*,*,#232,.F.);
#281=ORIENTED_EDGE('',*,*,#224,.F.);
#282=ORIENTED_EDGE('',*,*,#231,.T.);
#283=ORIENTED_EDGE('',*,*,#218,.T.);
#284=ORIENTED_EDGE('',*,*,#233,.F.);
#285=ORIENTED_EDGE('',*,*,#225,.F.);
#286=ORIENTED_EDGE('',*,*,#232,.T.);
#287=ORIENTED_EDGE('',*,*,#217,.T.);
#288=ORIENTED_EDGE('',*,*,#234,.F.);
#289=ORIENTED_EDGE('',*,*,#226,.F.);
#290=ORIENTED_EDGE('',*,*,#233,.T.);
#291=ORIENTED_EDGE('',*,*,#216,.T.);
#292=ORIENTED_EDGE('',*,*,#235,.F.);
#293=ORIENTED_EDGE('',*,*,#227,.F.);
#294=ORIENTED_EDGE('',*,*,#234,.T.);
#295=ORIENTED_EDGE('',*,*,#215,.T.);
#296=ORIENTED_EDGE('',*,*,#236,.F.);
#297=ORIENTED_EDGE('',*,*,#228,.F.);
#298=ORIENTED_EDGE('',*,*,#235,.T.);
#299=ORIENTED_EDGE('',*,*,#214,.T.);
#300=ORIENTED_EDGE('',*,*,#230,.F.);
#301=ORIENTED_EDGE('',*,*,#221,.F.);
#302=ORIENTED_EDGE('',*,*,#236,.T.);
#303=ORIENTED_EDGE('',*,*,#200,.T.);
#304=ORIENTED_EDGE('',*,*,#212,.F.);
#305=ORIENTED_EDGE('',*,*,#210,.F.);
#306=ORIENTED_EDGE('',*,*,#211,.T.);
#307=ORIENTED_EDGE('',*,*,#208,.F.);
#308=ORIENTED_EDGE('',*,*,#209,.T.);
#309=ORIENTED_EDGE('',*,*,#206,.F.);
#310=ORIENTED_EDGE('',*,*,#207,.T.);
#311=ORIENTED_EDGE('',*,*,#202,.T.);
#312=ORIENTED_EDGE('',*,*,#199,.T.);
#313=CYLINDRICAL_SURFACE('',#346,15.1455);
#314=CYLINDRICAL_SURFACE('',#352,21.45);
#315=CYLINDRICAL_SURFACE('',#354,21.45);
#316=CYLINDRICAL_SURFACE('',#359,17.0999999999999);
#317=CYLINDRICAL_SURFACE('',#362,16.);
#318=CYLINDRICAL_SURFACE('',#365,14.5);
#319=STYLED_ITEM('',(#597),#321);
#320=STYLED_ITEM('',(#596),#13);
#321=ADVANCED_FACE('',(#94,#79),#313,.F.);
#322=ADVANCED_FACE('',(#95,#80),#77,.T.);
#323=ADVANCED_FACE('',(#96,#81),#314,.T.);
#324=ADVANCED_FACE('',(#97,#82),#315,.T.);
#325=ADVANCED_FACE('',(#98,#83),#78,.T.);
#326=ADVANCED_FACE('',(#99,#84),#316,.F.);
#327=ADVANCED_FACE('',(#100,#85),#317,.F.);
#328=ADVANCED_FACE('',(#101,#86),#318,.F.);
#329=ADVANCED_FACE('',(#102,#87),#62,.T.);
#330=ADVANCED_FACE('',(#103,#88),#63,.F.);
#331=ADVANCED_FACE('',(#104),#64,.T.);
#332=ADVANCED_FACE('',(#105),#65,.T.);
#333=ADVANCED_FACE('',(#106),#66,.T.);
#334=ADVANCED_FACE('',(#107),#67,.T.);
#335=ADVANCED_FACE('',(#108),#68,.T.);
#336=ADVANCED_FACE('',(#109),#69,.T.);
#337=ADVANCED_FACE('',(#110),#70,.T.);
#338=ADVANCED_FACE('',(#111),#71,.T.);
#339=ADVANCED_FACE('',(#112,#89),#72,.T.);
#340=ADVANCED_FACE('',(#113,#90),#73,.T.);
#341=ADVANCED_FACE('',(#114,#91),#74,.T.);
#342=ADVANCED_FACE('',(#115,#92),#75,.T.);
#343=ADVANCED_FACE('',(#116,#93),#76,.T.);
#344=CLOSED_SHELL('',(#321,#322,#323,#324,#325,#326,#327,#328,#329,#330,
#331,#332,#333,#334,#335,#336,#337,#338,#339,#340,#341,#342,#343));
#345=AXIS2_PLACEMENT_3D('placement',#483,#383,#384);
#346=AXIS2_PLACEMENT_3D('',#484,#385,#386);
#347=AXIS2_PLACEMENT_3D('',#486,#387,#388);
#348=AXIS2_PLACEMENT_3D('',#488,#389,#390);
#349=AXIS2_PLACEMENT_3D('',#489,#391,#392);
#350=AXIS2_PLACEMENT_3D('',#491,#393,#394);
#351=AXIS2_PLACEMENT_3D('',#493,#395,#396);
#352=AXIS2_PLACEMENT_3D('',#494,#397,#398);
#353=AXIS2_PLACEMENT_3D('',#496,#399,#400);
#354=AXIS2_PLACEMENT_3D('',#497,#401,#402);
#355=AXIS2_PLACEMENT_3D('',#499,#403,#404);
#356=AXIS2_PLACEMENT_3D('',#501,#405,#406);
#357=AXIS2_PLACEMENT_3D('',#502,#407,#408);
#358=AXIS2_PLACEMENT_3D('',#504,#409,#410);
#359=AXIS2_PLACEMENT_3D('',#505,#411,#412);
#360=AXIS2_PLACEMENT_3D('',#507,#413,#414);
#361=AXIS2_PLACEMENT_3D('',#509,#415,#416);
#362=AXIS2_PLACEMENT_3D('',#510,#417,#418);
#363=AXIS2_PLACEMENT_3D('',#512,#419,#420);
#364=AXIS2_PLACEMENT_3D('',#514,#421,#422);
#365=AXIS2_PLACEMENT_3D('',#515,#423,#424);
#366=AXIS2_PLACEMENT_3D('',#517,#425,#426);
#367=AXIS2_PLACEMENT_3D('',#519,#427,#428);
#368=AXIS2_PLACEMENT_3D('',#520,#429,#430);
#369=AXIS2_PLACEMENT_3D('',#537,#439,#440);
#370=AXIS2_PLACEMENT_3D('',#554,#449,#450);
#371=AXIS2_PLACEMENT_3D('',#557,#453,#454);
#372=AXIS2_PLACEMENT_3D('',#559,#456,#457);
#373=AXIS2_PLACEMENT_3D('',#561,#459,#460);
#374=AXIS2_PLACEMENT_3D('',#563,#462,#463);
#375=AXIS2_PLACEMENT_3D('',#565,#465,#466);
#376=AXIS2_PLACEMENT_3D('',#567,#468,#469);
#377=AXIS2_PLACEMENT_3D('',#569,#471,#472);
#378=AXIS2_PLACEMENT_3D('',#570,#473,#474);
#379=AXIS2_PLACEMENT_3D('',#571,#475,#476);
#380=AXIS2_PLACEMENT_3D('',#572,#477,#478);
#381=AXIS2_PLACEMENT_3D('',#573,#479,#480);
#382=AXIS2_PLACEMENT_3D('',#574,#481,#482);
#383=DIRECTION('axis',(0.,0.,1.));
#384=DIRECTION('refdir',(1.,0.,0.));
#385=DIRECTION('center_axis',(0.,1.,0.));
#386=DIRECTION('ref_axis',(-1.,0.,0.));
#387=DIRECTION('center_axis',(0.,1.,0.));
#388=DIRECTION('ref_axis',(-1.,0.,0.));
#389=DIRECTION('center_axis',(0.,-1.,0.));
#390=DIRECTION('ref_axis',(-1.,0.,0.));
#391=DIRECTION('center_axis',(0.,-1.,0.));
#392=DIRECTION('ref_axis',(0.,0.,-1.));
#393=DIRECTION('center_axis',(0.,-1.,0.));
#394=DIRECTION('ref_axis',(1.,0.,0.));
#395=DIRECTION('center_axis',(0.,-1.,0.));
#396=DIRECTION('ref_axis',(1.,0.,0.));
#397=DIRECTION('center_axis',(0.,-1.,0.));
#398=DIRECTION('ref_axis',(1.,0.,0.));
#399=DIRECTION('center_axis',(0.,-1.,0.));
#400=DIRECTION('ref_axis',(1.,0.,0.));
#401=DIRECTION('center_axis',(0.,-1.,0.));
#402=DIRECTION('ref_axis',(1.,0.,0.));
#403=DIRECTION('center_axis',(0.,-1.,0.));
#404=DIRECTION('ref_axis',(1.,0.,0.));
#405=DIRECTION('center_axis',(0.,-1.,0.));
#406=DIRECTION('ref_axis',(1.,0.,0.));
#407=DIRECTION('center_axis',(0.,-1.,0.));
#408=DIRECTION('ref_axis',(0.,0.,-1.));
#409=DIRECTION('center_axis',(0.,-1.,0.));
#410=DIRECTION('ref_axis',(1.,0.,0.));
#411=DIRECTION('center_axis',(0.,-1.,0.));
#412=DIRECTION('ref_axis',(1.,0.,0.));
#413=DIRECTION('center_axis',(0.,-1.,0.));
#414=DIRECTION('ref_axis',(1.,0.,0.));
#415=DIRECTION('center_axis',(0.,-1.,0.));
#416=DIRECTION('ref_axis',(1.,0.,0.));
#417=DIRECTION('center_axis',(0.,-1.,0.));
#418=DIRECTION('ref_axis',(1.,0.,0.));
#419=DIRECTION('center_axis',(0.,-1.,0.));
#420=DIRECTION('ref_axis',(1.,0.,0.));
#421=DIRECTION('center_axis',(0.,-1.,0.));
#422=DIRECTION('ref_axis',(1.,0.,0.));
#423=DIRECTION('center_axis',(0.,-1.,0.));
#424=DIRECTION('ref_axis',(1.,0.,0.));
#425=DIRECTION('center_axis',(0.,-1.,0.));
#426=DIRECTION('ref_axis',(1.,0.,0.));
#427=DIRECTION('center_axis',(0.,-1.,0.));
#428=DIRECTION('ref_axis',(1.,0.,0.));
#429=DIRECTION('center_axis',(0.,1.,0.));
#430=DIRECTION('ref_axis',(0.,0.,1.));
#431=DIRECTION('',(0.,0.,-1.));
#432=DIRECTION('',(-0.70710678118655,0.,-0.707106781186545));
#433=DIRECTION('',(-1.,0.,0.));
#434=DIRECTION('',(-0.70710678118655,0.,0.707106781186545));
#435=DIRECTION('',(0.,0.,1.));
#436=DIRECTION('',(0.70710678118655,0.,0.707106781186545));
#437=DIRECTION('',(1.,0.,0.));
#438=DIRECTION('',(0.70710678118655,0.,-0.707106781186545));
#439=DIRECTION('center_axis',(0.,1.,0.));
#440=DIRECTION('ref_axis',(0.,0.,1.));
#441=DIRECTION('',(-0.70710678118655,0.,-0.707106781186545));
#442=DIRECTION('',(0.,0.,-1.));
#443=DIRECTION('',(0.70710678118655,0.,-0.707106781186545));
#444=DIRECTION('',(1.,0.,0.));
#445=DIRECTION('',(0.70710678118655,0.,0.707106781186545));
#446=DIRECTION('',(0.,0.,1.));
#447=DIRECTION('',(-0.70710678118655,0.,0.707106781186545));
#448=DIRECTION('',(-1.,0.,0.));
#449=DIRECTION('center_axis',(-1.,0.,0.));
#450=DIRECTION('ref_axis',(0.,0.,1.));
#451=DIRECTION('',(0.,1.,0.));
#452=DIRECTION('',(0.,1.,0.));
#453=DIRECTION('center_axis',(-0.707106781186545,-1.610351E-16,-0.70710678118655));
#454=DIRECTION('ref_axis',(-0.70710678118655,0.,0.707106781186545));
#455=DIRECTION('',(0.,1.,0.));
#456=DIRECTION('center_axis',(0.,0.,-1.));
#457=DIRECTION('ref_axis',(-1.,0.,0.));
#458=DIRECTION('',(0.,1.,0.));
#459=DIRECTION('center_axis',(0.707106781186545,-1.610351E-16,-0.70710678118655));
#460=DIRECTION('ref_axis',(-0.707106781186549,0.,-0.707106781186546));
#461=DIRECTION('',(0.,1.,0.));
#462=DIRECTION('center_axis',(1.,0.,0.));
#463=DIRECTION('ref_axis',(0.,0.,-1.));
#464=DIRECTION('',(0.,1.,0.));
#465=DIRECTION('center_axis',(0.707106781186545,1.610351E-16,0.70710678118655));
#466=DIRECTION('ref_axis',(0.70710678118655,0.,-0.707106781186545));
#467=DIRECTION('',(0.,1.,0.));
#468=DIRECTION('center_axis',(0.,0.,1.));
#469=DIRECTION('ref_axis',(1.,0.,0.));
#470=DIRECTION('',(0.,1.,0.));
#471=DIRECTION('center_axis',(-0.707106781186545,1.610351E-16,0.70710678118655));
#472=DIRECTION('ref_axis',(0.707106781186549,0.,0.707106781186546));
#473=DIRECTION('center_axis',(0.,-1.,0.));
#474=DIRECTION('ref_axis',(0.,0.,-1.));
#475=DIRECTION('center_axis',(0.,1.,0.));
#476=DIRECTION('ref_axis',(0.,0.,1.));
#477=DIRECTION('center_axis',(0.,1.,0.));
#478=DIRECTION('ref_axis',(0.,0.,1.));
#479=DIRECTION('center_axis',(0.,1.,0.));
#480=DIRECTION('ref_axis',(0.,0.,1.));
#481=DIRECTION('center_axis',(0.,-1.,0.));
#482=DIRECTION('ref_axis',(0.,0.,-1.));
#483=CARTESIAN_POINT('',(0.,0.,0.));
#484=CARTESIAN_POINT('Origin',(9.51280298977508E-8,-22.5573718350337,0.));
#485=CARTESIAN_POINT('',(15.145500095128,-22.5573718350337,1.85478880964862E-15));
#486=CARTESIAN_POINT('Origin',(9.51280298977508E-8,-22.5573718350336,0.));
#487=CARTESIAN_POINT('',(15.145500095128,-0.257371835033808,1.85478880964862E-15));
#488=CARTESIAN_POINT('Origin',(9.51280298977508E-8,-0.257371835033808,0.));
#489=CARTESIAN_POINT('Origin',(9.51280298977508E-8,-20.5573718350338,0.));
#490=CARTESIAN_POINT('',(-21.4499999048719,-20.5573718350338,-2.626781E-15));
#491=CARTESIAN_POINT('Origin',(9.51280298977508E-8,-20.5573718350338,0.));
#492=CARTESIAN_POINT('',(19.4500000951282,-22.5573718350337,0.));
#493=CARTESIAN_POINT('Origin',(9.51280298977508E-8,-22.5573718350337,0.));
#494=CARTESIAN_POINT('Origin',(9.51280298977508E-8,-13.7573718350338,0.));
#495=CARTESIAN_POINT('',(-21.4499999048719,-6.95737183503383,-2.626781E-15));
#496=CARTESIAN_POINT('Origin',(9.51280298977508E-8,-6.95737183503383,0.));
#497=CARTESIAN_POINT('Origin',(9.51280298977508E-8,15.4426281649663,0.));
#498=CARTESIAN_POINT('',(9.51280298977508E-8,22.2426281649662,21.45));
#499=CARTESIAN_POINT('Origin',(9.51280298977508E-8,22.2426281649662,0.));
#500=CARTESIAN_POINT('',(-21.4499999048719,8.64262816496606,-2.626781E-15));
#501=CARTESIAN_POINT('Origin',(9.51280298977508E-8,8.64262816496606,0.));
#502=CARTESIAN_POINT('Origin',(9.51280298977508E-8,22.2426281649662,0.));
#503=CARTESIAN_POINT('',(19.4500000951282,24.2426281649662,0.));
#504=CARTESIAN_POINT('Origin',(9.51280298977508E-8,24.2426281649662,0.));
#505=CARTESIAN_POINT('Origin',(9.51280298977508E-8,23.2426281649661,0.));
#506=CARTESIAN_POINT('',(-17.0999999048718,24.2426281649662,-2.094077E-15));
#507=CARTESIAN_POINT('Origin',(9.51280298977508E-8,24.2426281649662,0.));
#508=CARTESIAN_POINT('',(-17.0999999048718,22.2426281649662,-2.094077E-15));
#509=CARTESIAN_POINT('Origin',(9.51280298977508E-8,22.2426281649662,0.));
#510=CARTESIAN_POINT('Origin',(9.51280298977508E-8,12.2426281649662,0.));
#511=CARTESIAN_POINT('',(-15.9999999048719,22.2426281649662,-1.95937E-15));
#512=CARTESIAN_POINT('Origin',(9.51280298977508E-8,22.2426281649662,0.));
#513=CARTESIAN_POINT('',(-15.9999999048719,2.24262816496619,-1.95937E-15));
#514=CARTESIAN_POINT('Origin',(9.51280298977508E-8,2.24262816496619,0.));
#515=CARTESIAN_POINT('Origin',(9.51280298977508E-8,0.992628164966192,0.));
#516=CARTESIAN_POINT('',(-14.4999999048719,2.24262816496619,-1.775679E-15));
#517=CARTESIAN_POINT('Origin',(9.51280298977508E-8,2.24262816496619,0.));
#518=CARTESIAN_POINT('',(-14.4999999048719,-0.257371835033808,-1.775679E-15));
#519=CARTESIAN_POINT('Origin',(9.51280298977508E-8,-0.257371835033808,0.));
#520=CARTESIAN_POINT('Origin',(9.51280298977508E-8,8.64262816496634,-7.347658E-15));
#521=CARTESIAN_POINT('',(-21.4999999048719,8.64262816496634,8.90559159102154));
#522=CARTESIAN_POINT('',(-21.4999999048719,8.64262816496634,-8.90559159102154));
#523=CARTESIAN_POINT('',(-21.4999999048719,8.64262816496606,8.90559159102154));
#524=CARTESIAN_POINT('',(-8.90559149589336,8.64262816496634,21.5));
#525=CARTESIAN_POINT('',(-8.90559149589336,8.64262816496606,21.5));
#526=CARTESIAN_POINT('',(8.90559168614956,8.64262816496634,21.5));
#527=CARTESIAN_POINT('',(8.90559168614956,8.64262816496606,21.5));
#528=CARTESIAN_POINT('',(21.5000000951281,8.64262816496634,8.90559159102152));
#529=CARTESIAN_POINT('',(21.5000000951281,8.64262816496606,8.90559159102152));
#530=CARTESIAN_POINT('',(21.5000000951281,8.64262816496634,-8.90559159102156));
#531=CARTESIAN_POINT('',(21.5000000951281,8.64262816496606,-8.90559159102156));
#532=CARTESIAN_POINT('',(8.90559168614956,8.64262816496634,-21.5));
#533=CARTESIAN_POINT('',(8.90559168614956,8.64262816496606,-21.5));
#534=CARTESIAN_POINT('',(-8.90559149589336,8.64262816496634,-21.5));
#535=CARTESIAN_POINT('',(-8.90559149589336,8.64262816496606,-21.5));
#536=CARTESIAN_POINT('',(-21.4999999048719,8.64262816496606,-8.90559159102154));
#537=CARTESIAN_POINT('Origin',(9.51283141148451E-8,-6.95737183503368,-3.552714E-15));
#538=CARTESIAN_POINT('',(-8.90559149589336,-6.95737183503383,21.5));
#539=CARTESIAN_POINT('',(-21.4999999048719,-6.95737183503383,8.90559159102155));
#540=CARTESIAN_POINT('',(-8.90559149589336,-6.95737183503383,21.5));
#541=CARTESIAN_POINT('',(-21.4999999048719,-6.95737183503383,-8.90559159102154));
#542=CARTESIAN_POINT('',(-21.4999999048719,-6.95737183503383,8.90559159102155));
#543=CARTESIAN_POINT('',(-8.90559149589336,-6.95737183503383,-21.5));
#544=CARTESIAN_POINT('',(-21.4999999048719,-6.95737183503383,-8.90559159102154));
#545=CARTESIAN_POINT('',(8.90559168614956,-6.95737183503383,-21.5));
#546=CARTESIAN_POINT('',(-8.90559149589336,-6.95737183503383,-21.5));
#547=CARTESIAN_POINT('',(21.5000000951281,-6.95737183503383,-8.90559159102156));
#548=CARTESIAN_POINT('',(8.90559168614956,-6.95737183503383,-21.5));
#549=CARTESIAN_POINT('',(21.5000000951281,-6.95737183503383,8.90559159102153));
#550=CARTESIAN_POINT('',(21.5000000951281,-6.95737183503383,-8.90559159102156));
#551=CARTESIAN_POINT('',(8.90559168614956,-6.95737183503383,21.5));
#552=CARTESIAN_POINT('',(21.5000000951281,-6.95737183503383,8.90559159102153));
#553=CARTESIAN_POINT('',(8.90559168614956,-6.95737183503383,21.5));
#554=CARTESIAN_POINT('Origin',(-21.4999999048719,-6.95737183503383,8.90559159102155));
#555=CARTESIAN_POINT('',(-21.4999999048719,-6.95737183503383,-8.90559159102154));
#556=CARTESIAN_POINT('',(-21.4999999048719,-6.95737183503383,8.90559159102155));
#557=CARTESIAN_POINT('Origin',(-21.4999999048719,-6.95737183503383,-8.90559159102154));
#558=CARTESIAN_POINT('',(-8.90559149589336,-6.95737183503383,-21.5));
#559=CARTESIAN_POINT('Origin',(-8.90559149589336,-6.95737183503383,-21.5));
#560=CARTESIAN_POINT('',(8.90559168614956,-6.95737183503383,-21.5));
#561=CARTESIAN_POINT('Origin',(8.90559168614956,-6.95737183503383,-21.5));
#562=CARTESIAN_POINT('',(21.5000000951281,-6.95737183503383,-8.90559159102156));
#563=CARTESIAN_POINT('Origin',(21.5000000951281,-6.95737183503383,-8.90559159102156));
#564=CARTESIAN_POINT('',(21.5000000951281,-6.95737183503383,8.90559159102153));
#565=CARTESIAN_POINT('Origin',(21.5000000951281,-6.95737183503383,8.90559159102153));
#566=CARTESIAN_POINT('',(8.90559168614956,-6.95737183503383,21.5));
#567=CARTESIAN_POINT('Origin',(8.90559168614956,-6.95737183503383,21.5));
#568=CARTESIAN_POINT('',(-8.90559149589336,-6.95737183503383,21.5));
#569=CARTESIAN_POINT('Origin',(-8.90559149589336,-6.95737183503383,21.5));
#570=CARTESIAN_POINT('Origin',(15.2500000951281,-0.257371835033808,0.));
#571=CARTESIAN_POINT('Origin',(15.2500000951281,2.24262816496619,0.));
#572=CARTESIAN_POINT('Origin',(16.550000095128,22.2426281649662,0.));
#573=CARTESIAN_POINT('Origin',(18.2750000951279,24.2426281649662,0.));
#574=CARTESIAN_POINT('Origin',(17.8967783036234,-22.5573718350337,0.));
#575=UNCERTAINTY_MEASURE_WITH_UNIT(LENGTH_MEASURE(0.01),#579,
'DISTANCE_ACCURACY_VALUE',
'Maximum model space distance between geometric entities at asserted c
onnectivities');
#576=UNCERTAINTY_MEASURE_WITH_UNIT(LENGTH_MEASURE(1.E-6),#579,
'DISTANCE_ACCURACY_VALUE',
'Maximum model space distance between geometric entities at asserted c
onnectivities');
#577=(
GEOMETRIC_REPRESENTATION_CONTEXT(3)
GLOBAL_UNCERTAINTY_ASSIGNED_CONTEXT((#575))
GLOBAL_UNIT_ASSIGNED_CONTEXT((#579,#582,#580))
REPRESENTATION_CONTEXT('','3D')
);
#578=(
GEOMETRIC_REPRESENTATION_CONTEXT(3)
GLOBAL_UNCERTAINTY_ASSIGNED_CONTEXT((#576))
GLOBAL_UNIT_ASSIGNED_CONTEXT((#579,#582,#580))
REPRESENTATION_CONTEXT('','3D')
);
#579=(
LENGTH_UNIT()
NAMED_UNIT(*)
SI_UNIT(.MILLI.,.METRE.)
);
#580=(
NAMED_UNIT(*)
SI_UNIT($,.STERADIAN.)
SOLID_ANGLE_UNIT()
);
#581=DIMENSIONAL_EXPONENTS(0.,0.,0.,0.,0.,0.,0.);
#582=(
CONVERSION_BASED_UNIT('degree',#584)
NAMED_UNIT(#581)
PLANE_ANGLE_UNIT()
);
#583=(
NAMED_UNIT(*)
PLANE_ANGLE_UNIT()
SI_UNIT($,.RADIAN.)
);
#584=PLANE_ANGLE_MEASURE_WITH_UNIT(PLANE_ANGLE_MEASURE(0.01745329252),#583);
#585=SHAPE_DEFINITION_REPRESENTATION(#586,#587);
#586=PRODUCT_DEFINITION_SHAPE('',$,#589);
#587=SHAPE_REPRESENTATION('',(#345),#577);
#588=PRODUCT_DEFINITION_CONTEXT('part definition',#593,'design');
#589=PRODUCT_DEFINITION('MIFV032100','MIFV032100',#590,#588);
#590=PRODUCT_DEFINITION_FORMATION('',$,#595);
#591=PRODUCT_RELATED_PRODUCT_CATEGORY('MIFV032100','MIFV032100',(#595));
#592=APPLICATION_PROTOCOL_DEFINITION('international standard',
'automotive_design',2009,#593);
#593=APPLICATION_CONTEXT(
'Core Data for Automotive Mechanical Design Process');
#594=PRODUCT_CONTEXT('part definition',#593,'mechanical');
#595=PRODUCT('MIFV032100','MIFV032100',$,(#594));
#596=PRESENTATION_STYLE_ASSIGNMENT((#598));
#597=PRESENTATION_STYLE_ASSIGNMENT((#599));
#598=SURFACE_STYLE_USAGE(.BOTH.,#600);
#599=SURFACE_STYLE_USAGE(.BOTH.,#601);
#600=SURFACE_SIDE_STYLE($,(#602));
#601=SURFACE_SIDE_STYLE($,(#603));
#602=SURFACE_STYLE_FILL_AREA(#604);
#603=SURFACE_STYLE_FILL_AREA(#605);
#604=FILL_AREA_STYLE($,(#606));
#605=FILL_AREA_STYLE($,(#607));
#606=FILL_AREA_STYLE_COLOUR($,#608);
#607=FILL_AREA_STYLE_COLOUR($,#609);
#608=COLOUR_RGB('',0.509803921568627,0.509803921568627,0.588235294117647);
#609=COLOUR_RGB('',1.,0.,0.);
ENDSEC;
END-ISO-10303-21;
