ISO-10303-21;
HEADER;
FILE_DESCRIPTION( ( '' ), '1' );
FILE_NAME( '//se01002/users/anro/AGRU_3M705040011_PE-RC_Mineline_II_Mineline_II_Rohr_5m_400x36_3__SDR11__ISO_S-5_05.stp', '2017-12-12T08:20:48', ( '' ), ( '' ), ' ', ' ', ' ' );
FILE_SCHEMA( ( 'automotive_design' ) );
ENDSEC;
DATA;
#1 = MECHANICAL_DESIGN_GEOMETRIC_PRESENTATION_REPRESENTATION( ' ', ( #10, #11, #12, #13, #14, #15, #16, #17, #18, #19, #20, #21, #22, #23, #24, #25, #26, #27, #28, #29, #30, #31, #32, #33, #34, #35, #36 ), #6 );
#2 = PRODUCT_DEFINITION_CONTEXT( '', #37, 'design' );
#3 = APPLICATION_PROTOCOL_DEFINITION( 'INTERNATIONAL STANDARD', 'automotive_design', 1994, #37 );
#4 = PRODUCT_CATEGORY_RELATIONSHIP( 'NONE', 'NONE', #38, #39 );
#5 = SHAPE_DEFINITION_REPRESENTATION( #40, #41 );
#6 =  ( GEOMETRIC_REPRESENTATION_CONTEXT( 3 )GLOBAL_UNCERTAINTY_ASSIGNED_CONTEXT( ( #44 ) )GLOBAL_UNIT_ASSIGNED_CONTEXT( ( #46, #47, #48 ) )REPRESENTATION_CONTEXT( 'NONE', 'WORKSPACE' ) );
#10 = STYLED_ITEM( '', ( #50 ), #51 );
#11 = STYLED_ITEM( '', ( #52 ), #53 );
#12 = STYLED_ITEM( '', ( #54 ), #55 );
#13 = STYLED_ITEM( '', ( #56 ), #57 );
#14 = STYLED_ITEM( '', ( #58 ), #59 );
#15 = STYLED_ITEM( '', ( #60 ), #61 );
#16 = STYLED_ITEM( '', ( #62 ), #63 );
#17 = STYLED_ITEM( '', ( #64 ), #65 );
#18 = STYLED_ITEM( '', ( #66 ), #67 );
#19 = STYLED_ITEM( '', ( #68 ), #69 );
#20 = STYLED_ITEM( '', ( #70 ), #71 );
#21 = STYLED_ITEM( '', ( #72 ), #73 );
#22 = STYLED_ITEM( '', ( #74 ), #75 );
#23 = STYLED_ITEM( '', ( #76 ), #77 );
#24 = STYLED_ITEM( '', ( #78 ), #79 );
#25 = STYLED_ITEM( '', ( #80 ), #81 );
#26 = STYLED_ITEM( '', ( #82 ), #83 );
#27 = STYLED_ITEM( '', ( #84 ), #85 );
#28 = STYLED_ITEM( '', ( #86 ), #87 );
#29 = STYLED_ITEM( '', ( #88 ), #89 );
#30 = STYLED_ITEM( '', ( #90 ), #91 );
#31 = STYLED_ITEM( '', ( #92 ), #93 );
#32 = STYLED_ITEM( '', ( #94 ), #95 );
#33 = STYLED_ITEM( '', ( #96 ), #97 );
#34 = STYLED_ITEM( '', ( #98 ), #99 );
#35 = STYLED_ITEM( '', ( #100 ), #101 );
#36 = STYLED_ITEM( '', ( #102 ), #103 );
#37 = APPLICATION_CONTEXT( ' ' );
#38 = PRODUCT_CATEGORY( 'part', 'NONE' );
#39 = PRODUCT_RELATED_PRODUCT_CATEGORY( 'detail', ' ', ( #104 ) );
#40 = PRODUCT_DEFINITION_SHAPE( 'NONE', 'NONE', #105 );
#41 = ADVANCED_BREP_SHAPE_REPRESENTATION( '1', ( #81, #106 ), #6 );
#44 = UNCERTAINTY_MEASURE_WITH_UNIT( LENGTH_MEASURE( 1.00000000000000E-006 ), #46, '', '' );
#46 =  ( CONVERSION_BASED_UNIT( 'MILLIMETRE', #109 )LENGTH_UNIT(  )NAMED_UNIT( #112 ) );
#47 =  ( NAMED_UNIT( #114 )PLANE_ANGLE_UNIT(  )SI_UNIT( $, .RADIAN. ) );
#48 =  ( NAMED_UNIT( #114 )SOLID_ANGLE_UNIT(  )SI_UNIT( $, .STERADIAN. ) );
#50 = PRESENTATION_STYLE_ASSIGNMENT( ( #120 ) );
#51 = EDGE_CURVE( '', #97, #77, #121, .T. );
#52 = PRESENTATION_STYLE_ASSIGNMENT( ( #122 ) );
#53 = ADVANCED_FACE( '', ( #123 ), #124, .F. );
#54 = PRESENTATION_STYLE_ASSIGNMENT( ( #125 ) );
#55 = VERTEX_POINT( '', #126 );
#56 = PRESENTATION_STYLE_ASSIGNMENT( ( #127 ) );
#57 = VERTEX_POINT( '', #128 );
#58 = PRESENTATION_STYLE_ASSIGNMENT( ( #129 ) );
#59 = VERTEX_POINT( '', #130 );
#60 = PRESENTATION_STYLE_ASSIGNMENT( ( #131 ) );
#61 = EDGE_CURVE( '', #97, #101, #132, .T. );
#62 = PRESENTATION_STYLE_ASSIGNMENT( ( #133 ) );
#63 = EDGE_CURVE( '', #101, #69, #134, .T. );
#64 = PRESENTATION_STYLE_ASSIGNMENT( ( #135 ) );
#65 = ADVANCED_FACE( '', ( #136 ), #137, .T. );
#66 = PRESENTATION_STYLE_ASSIGNMENT( ( #138 ) );
#67 = EDGE_CURVE( '', #55, #57, #139, .T. );
#68 = PRESENTATION_STYLE_ASSIGNMENT( ( #140 ) );
#69 = VERTEX_POINT( '', #141 );
#70 = PRESENTATION_STYLE_ASSIGNMENT( ( #142 ) );
#71 = EDGE_CURVE( '', #59, #57, #143, .T. );
#72 = PRESENTATION_STYLE_ASSIGNMENT( ( #144 ) );
#73 = EDGE_CURVE( '', #55, #75, #145, .T. );
#74 = PRESENTATION_STYLE_ASSIGNMENT( ( #146 ) );
#75 = VERTEX_POINT( '', #147 );
#76 = PRESENTATION_STYLE_ASSIGNMENT( ( #148 ) );
#77 = VERTEX_POINT( '', #149 );
#78 = PRESENTATION_STYLE_ASSIGNMENT( ( #150 ) );
#79 = EDGE_CURVE( '', #59, #75, #151, .T. );
#80 = PRESENTATION_STYLE_ASSIGNMENT( ( #152 ) );
#81 = MANIFOLD_SOLID_BREP( '1', #153 );
#82 = PRESENTATION_STYLE_ASSIGNMENT( ( #154 ) );
#83 = ADVANCED_FACE( '', ( #155 ), #156, .T. );
#84 = PRESENTATION_STYLE_ASSIGNMENT( ( #157 ) );
#85 = EDGE_CURVE( '', #69, #101, #158, .T. );
#86 = PRESENTATION_STYLE_ASSIGNMENT( ( #159 ) );
#87 = ADVANCED_FACE( '', ( #160 ), #161, .F. );
#88 = PRESENTATION_STYLE_ASSIGNMENT( ( #162 ) );
#89 = EDGE_CURVE( '', #77, #97, #163, .T. );
#90 = PRESENTATION_STYLE_ASSIGNMENT( ( #164 ) );
#91 = ADVANCED_FACE( '', ( #165, #166 ), #167, .T. );
#92 = PRESENTATION_STYLE_ASSIGNMENT( ( #168 ) );
#93 = EDGE_CURVE( '', #69, #77, #169, .T. );
#94 = PRESENTATION_STYLE_ASSIGNMENT( ( #170 ) );
#95 = EDGE_CURVE( '', #57, #59, #171, .T. );
#96 = PRESENTATION_STYLE_ASSIGNMENT( ( #172 ) );
#97 = VERTEX_POINT( '', #173 );
#98 = PRESENTATION_STYLE_ASSIGNMENT( ( #174 ) );
#99 = ADVANCED_FACE( '', ( #175, #176 ), #177, .F. );
#100 = PRESENTATION_STYLE_ASSIGNMENT( ( #178 ) );
#101 = VERTEX_POINT( '', #179 );
#102 = PRESENTATION_STYLE_ASSIGNMENT( ( #180 ) );
#103 = EDGE_CURVE( '', #75, #55, #181, .T. );
#104 = PRODUCT( '1', '1', 'PART-1-DESC', ( #182 ) );
#105 = PRODUCT_DEFINITION( 'NONE', 'NONE', #183, #2 );
#106 = AXIS2_PLACEMENT_3D( '', #184, #185, #186 );
#109 = LENGTH_MEASURE_WITH_UNIT( LENGTH_MEASURE( 1.00000000000000 ), #187 );
#112 = DIMENSIONAL_EXPONENTS( 1.00000000000000, 0.000000000000000, 0.000000000000000, 0.000000000000000, 0.000000000000000, 0.000000000000000, 0.000000000000000 );
#114 = DIMENSIONAL_EXPONENTS( 0.000000000000000, 0.000000000000000, 0.000000000000000, 0.000000000000000, 0.000000000000000, 0.000000000000000, 0.000000000000000 );
#120 = CURVE_STYLE( '', #188, POSITIVE_LENGTH_MEASURE( 1.00000000000000E-006 ), #189 );
#121 = CIRCLE( '', #190, 200.000000000000 );
#122 = SURFACE_STYLE_USAGE( .BOTH., #191 );
#123 = FACE_OUTER_BOUND( '', #192, .T. );
#124 = CYLINDRICAL_SURFACE( '', #193, 163.700000000000 );
#125 = POINT_STYLE( ' ', #194, POSITIVE_LENGTH_MEASURE( 1.00000000000000E-006 ), #195 );
#126 = CARTESIAN_POINT( '', ( 0.000000000000000, 0.000000000000000, -163.700000000000 ) );
#127 = POINT_STYLE( ' ', #196, POSITIVE_LENGTH_MEASURE( 1.00000000000000E-006 ), #197 );
#128 = CARTESIAN_POINT( '', ( 5000.00000000000, 0.000000000000000, -163.700000000000 ) );
#129 = POINT_STYLE( ' ', #198, POSITIVE_LENGTH_MEASURE( 1.00000000000000E-006 ), #199 );
#130 = CARTESIAN_POINT( '', ( 5000.00000000000, 2.00468060120723E-014, 163.700000000000 ) );
#131 = CURVE_STYLE( '', #200, POSITIVE_LENGTH_MEASURE( 1.00000000000000E-006 ), #201 );
#132 = LINE( '', #202, #203 );
#133 = CURVE_STYLE( '', #204, POSITIVE_LENGTH_MEASURE( 1.00000000000000E-006 ), #205 );
#134 = CIRCLE( '', #206, 200.000000000000 );
#135 = SURFACE_STYLE_USAGE( .BOTH., #207 );
#136 = FACE_OUTER_BOUND( '', #208, .T. );
#137 = CYLINDRICAL_SURFACE( '', #209, 200.000000000000 );
#138 = CURVE_STYLE( '', #210, POSITIVE_LENGTH_MEASURE( 1.00000000000000E-006 ), #211 );
#139 = LINE( '', #212, #213 );
#140 = POINT_STYLE( ' ', #214, POSITIVE_LENGTH_MEASURE( 1.00000000000000E-006 ), #215 );
#141 = CARTESIAN_POINT( '', ( 0.000000000000000, 0.000000000000000, -200.000000000000 ) );
#142 = CURVE_STYLE( '', #216, POSITIVE_LENGTH_MEASURE( 1.00000000000000E-006 ), #217 );
#143 = CIRCLE( '', #218, 163.700000000000 );
#144 = CURVE_STYLE( '', #219, POSITIVE_LENGTH_MEASURE( 1.00000000000000E-006 ), #220 );
#145 = CIRCLE( '', #221, 163.700000000000 );
#146 = POINT_STYLE( ' ', #222, POSITIVE_LENGTH_MEASURE( 1.00000000000000E-006 ), #223 );
#147 = CARTESIAN_POINT( '', ( 0.000000000000000, 2.00468060120723E-014, 163.700000000000 ) );
#148 = POINT_STYLE( ' ', #224, POSITIVE_LENGTH_MEASURE( 1.00000000000000E-006 ), #225 );
#149 = CARTESIAN_POINT( '', ( 5000.00000000000, 0.000000000000000, -200.000000000000 ) );
#150 = CURVE_STYLE( '', #226, POSITIVE_LENGTH_MEASURE( 1.00000000000000E-006 ), #227 );
#151 = LINE( '', #228, #229 );
#152 = SURFACE_STYLE_USAGE( .BOTH., #230 );
#153 = CLOSED_SHELL( '', ( #65, #87, #53, #83, #91, #99 ) );
#154 = SURFACE_STYLE_USAGE( .BOTH., #231 );
#155 = FACE_OUTER_BOUND( '', #232, .T. );
#156 = CYLINDRICAL_SURFACE( '', #233, 200.000000000000 );
#157 = CURVE_STYLE( '', #234, POSITIVE_LENGTH_MEASURE( 1.00000000000000E-006 ), #235 );
#158 = CIRCLE( '', #236, 200.000000000000 );
#159 = SURFACE_STYLE_USAGE( .BOTH., #237 );
#160 = FACE_OUTER_BOUND( '', #238, .T. );
#161 = CYLINDRICAL_SURFACE( '', #239, 163.700000000000 );
#162 = CURVE_STYLE( '', #240, POSITIVE_LENGTH_MEASURE( 1.00000000000000E-006 ), #241 );
#163 = CIRCLE( '', #242, 200.000000000000 );
#164 = SURFACE_STYLE_USAGE( .BOTH., #243 );
#165 = FACE_OUTER_BOUND( '', #244, .T. );
#166 = FACE_BOUND( '', #245, .T. );
#167 = PLANE( '', #246 );
#168 = CURVE_STYLE( '', #247, POSITIVE_LENGTH_MEASURE( 1.00000000000000E-006 ), #248 );
#169 = LINE( '', #249, #250 );
#170 = CURVE_STYLE( '', #251, POSITIVE_LENGTH_MEASURE( 1.00000000000000E-006 ), #252 );
#171 = CIRCLE( '', #253, 163.700000000000 );
#172 = POINT_STYLE( ' ', #254, POSITIVE_LENGTH_MEASURE( 1.00000000000000E-006 ), #255 );
#173 = CARTESIAN_POINT( '', ( 5000.00000000000, 2.44921270764475E-014, 200.000000000000 ) );
#174 = SURFACE_STYLE_USAGE( .BOTH., #256 );
#175 = FACE_OUTER_BOUND( '', #257, .T. );
#176 = FACE_BOUND( '', #258, .T. );
#177 = PLANE( '', #259 );
#178 = POINT_STYLE( ' ', #260, POSITIVE_LENGTH_MEASURE( 1.00000000000000E-006 ), #261 );
#179 = CARTESIAN_POINT( '', ( 0.000000000000000, 2.44921270764475E-014, 200.000000000000 ) );
#180 = CURVE_STYLE( '', #262, POSITIVE_LENGTH_MEASURE( 1.00000000000000E-006 ), #263 );
#181 = CIRCLE( '', #264, 163.700000000000 );
#182 = PRODUCT_CONTEXT( '', #37, 'mechanical' );
#183 = PRODUCT_DEFINITION_FORMATION_WITH_SPECIFIED_SOURCE( ' ', 'NONE', #104, .NOT_KNOWN. );
#184 = CARTESIAN_POINT( '', ( 0.000000000000000, 0.000000000000000, 0.000000000000000 ) );
#185 = DIRECTION( '', ( 0.000000000000000, 0.000000000000000, 1.00000000000000 ) );
#186 = DIRECTION( '', ( 1.00000000000000, 0.000000000000000, 0.000000000000000 ) );
#187 =  ( NAMED_UNIT( #112 )LENGTH_UNIT(  )SI_UNIT( .MILLI., .METRE. ) );
#188 = DRAUGHTING_PRE_DEFINED_CURVE_FONT( 'continuous' );
#189 = COLOUR_RGB( '', 0.689999997615810, 0.689999997615810, 0.689999997615810 );
#190 = AXIS2_PLACEMENT_3D( '', #266, #267, #268 );
#191 = SURFACE_SIDE_STYLE( '', ( #269 ) );
#192 = EDGE_LOOP( '', ( #270, #271, #272, #273 ) );
#193 = AXIS2_PLACEMENT_3D( '', #274, #275, #276 );
#194 = PRE_DEFINED_MARKER( '' );
#195 = COLOUR_RGB( '', 0.689999997615810, 0.689999997615810, 0.689999997615810 );
#196 = PRE_DEFINED_MARKER( '' );
#197 = COLOUR_RGB( '', 0.689999997615810, 0.689999997615810, 0.689999997615810 );
#198 = PRE_DEFINED_MARKER( '' );
#199 = COLOUR_RGB( '', 0.689999997615810, 0.689999997615810, 0.689999997615810 );
#200 = DRAUGHTING_PRE_DEFINED_CURVE_FONT( 'continuous' );
#201 = COLOUR_RGB( '', 0.689999997615810, 0.689999997615810, 0.689999997615810 );
#202 = CARTESIAN_POINT( '', ( 0.000000000000000, 2.44921270764475E-014, 200.000000000000 ) );
#203 = VECTOR( '', #277, 1.00000000000000 );
#204 = DRAUGHTING_PRE_DEFINED_CURVE_FONT( 'continuous' );
#205 = COLOUR_RGB( '', 0.689999997615810, 0.689999997615810, 0.689999997615810 );
#206 = AXIS2_PLACEMENT_3D( '', #278, #279, #280 );
#207 = SURFACE_SIDE_STYLE( '', ( #281 ) );
#208 = EDGE_LOOP( '', ( #282, #283, #284, #285 ) );
#209 = AXIS2_PLACEMENT_3D( '', #286, #287, #288 );
#210 = DRAUGHTING_PRE_DEFINED_CURVE_FONT( 'continuous' );
#211 = COLOUR_RGB( '', 0.689999997615810, 0.689999997615810, 0.689999997615810 );
#212 = CARTESIAN_POINT( '', ( 0.000000000000000, -2.00468060120723E-014, -163.700000000000 ) );
#213 = VECTOR( '', #289, 1.00000000000000 );
#214 = PRE_DEFINED_MARKER( '' );
#215 = COLOUR_RGB( '', 0.689999997615810, 0.689999997615810, 0.689999997615810 );
#216 = DRAUGHTING_PRE_DEFINED_CURVE_FONT( 'continuous' );
#217 = COLOUR_RGB( '', 0.689999997615810, 0.689999997615810, 0.689999997615810 );
#218 = AXIS2_PLACEMENT_3D( '', #290, #291, #292 );
#219 = DRAUGHTING_PRE_DEFINED_CURVE_FONT( 'continuous' );
#220 = COLOUR_RGB( '', 0.689999997615810, 0.689999997615810, 0.689999997615810 );
#221 = AXIS2_PLACEMENT_3D( '', #293, #294, #295 );
#222 = PRE_DEFINED_MARKER( '' );
#223 = COLOUR_RGB( '', 0.689999997615810, 0.689999997615810, 0.689999997615810 );
#224 = PRE_DEFINED_MARKER( '' );
#225 = COLOUR_RGB( '', 0.689999997615810, 0.689999997615810, 0.689999997615810 );
#226 = DRAUGHTING_PRE_DEFINED_CURVE_FONT( 'continuous' );
#227 = COLOUR_RGB( '', 0.689999997615810, 0.689999997615810, 0.689999997615810 );
#228 = CARTESIAN_POINT( '', ( 0.000000000000000, 2.00468060120723E-014, 163.700000000000 ) );
#229 = VECTOR( '', #296, 1.00000000000000 );
#230 = SURFACE_SIDE_STYLE( '', ( #297 ) );
#231 = SURFACE_SIDE_STYLE( '', ( #298 ) );
#232 = EDGE_LOOP( '', ( #299, #300, #301, #302 ) );
#233 = AXIS2_PLACEMENT_3D( '', #303, #304, #305 );
#234 = DRAUGHTING_PRE_DEFINED_CURVE_FONT( 'continuous' );
#235 = COLOUR_RGB( '', 0.689999997615810, 0.689999997615810, 0.689999997615810 );
#236 = AXIS2_PLACEMENT_3D( '', #306, #307, #308 );
#237 = SURFACE_SIDE_STYLE( '', ( #309 ) );
#238 = EDGE_LOOP( '', ( #310, #311, #312, #313 ) );
#239 = AXIS2_PLACEMENT_3D( '', #314, #315, #316 );
#240 = DRAUGHTING_PRE_DEFINED_CURVE_FONT( 'continuous' );
#241 = COLOUR_RGB( '', 0.689999997615810, 0.689999997615810, 0.689999997615810 );
#242 = AXIS2_PLACEMENT_3D( '', #317, #318, #319 );
#243 = SURFACE_SIDE_STYLE( '', ( #320 ) );
#244 = EDGE_LOOP( '', ( #321, #322 ) );
#245 = EDGE_LOOP( '', ( #323, #324 ) );
#246 = AXIS2_PLACEMENT_3D( '', #325, #326, #327 );
#247 = DRAUGHTING_PRE_DEFINED_CURVE_FONT( 'continuous' );
#248 = COLOUR_RGB( '', 0.689999997615810, 0.689999997615810, 0.689999997615810 );
#249 = CARTESIAN_POINT( '', ( 0.000000000000000, -2.44921270764475E-014, -200.000000000000 ) );
#250 = VECTOR( '', #328, 1.00000000000000 );
#251 = DRAUGHTING_PRE_DEFINED_CURVE_FONT( 'continuous' );
#252 = COLOUR_RGB( '', 0.689999997615810, 0.689999997615810, 0.689999997615810 );
#253 = AXIS2_PLACEMENT_3D( '', #329, #330, #331 );
#254 = PRE_DEFINED_MARKER( '' );
#255 = COLOUR_RGB( '', 0.689999997615810, 0.689999997615810, 0.689999997615810 );
#256 = SURFACE_SIDE_STYLE( '', ( #332 ) );
#257 = EDGE_LOOP( '', ( #333, #334 ) );
#258 = EDGE_LOOP( '', ( #335, #336 ) );
#259 = AXIS2_PLACEMENT_3D( '', #337, #338, #339 );
#260 = PRE_DEFINED_MARKER( '' );
#261 = COLOUR_RGB( '', 0.689999997615810, 0.689999997615810, 0.689999997615810 );
#262 = DRAUGHTING_PRE_DEFINED_CURVE_FONT( 'continuous' );
#263 = COLOUR_RGB( '', 0.689999997615810, 0.689999997615810, 0.689999997615810 );
#264 = AXIS2_PLACEMENT_3D( '', #340, #341, #342 );
#266 = CARTESIAN_POINT( '', ( 5000.00000000000, 0.000000000000000, 0.000000000000000 ) );
#267 = DIRECTION( '', ( -1.00000000000000, 0.000000000000000, 0.000000000000000 ) );
#268 = DIRECTION( '', ( 0.000000000000000, 0.000000000000000, -1.00000000000000 ) );
#269 = SURFACE_STYLE_FILL_AREA( #343 );
#270 = ORIENTED_EDGE( '', *, *, #67, .T. );
#271 = ORIENTED_EDGE( '', *, *, #95, .T. );
#272 = ORIENTED_EDGE( '', *, *, #79, .T. );
#273 = ORIENTED_EDGE( '', *, *, #73, .F. );
#274 = CARTESIAN_POINT( '', ( 0.000000000000000, 0.000000000000000, 0.000000000000000 ) );
#275 = DIRECTION( '', ( -1.00000000000000, -0.000000000000000, -0.000000000000000 ) );
#276 = DIRECTION( '', ( 0.000000000000000, 0.000000000000000, -1.00000000000000 ) );
#277 = DIRECTION( '', ( -1.00000000000000, -0.000000000000000, -0.000000000000000 ) );
#278 = CARTESIAN_POINT( '', ( 0.000000000000000, 0.000000000000000, 0.000000000000000 ) );
#279 = DIRECTION( '', ( 1.00000000000000, -0.000000000000000, 0.000000000000000 ) );
#280 = DIRECTION( '', ( 0.000000000000000, 0.000000000000000, -1.00000000000000 ) );
#281 = SURFACE_STYLE_FILL_AREA( #344 );
#282 = ORIENTED_EDGE( '', *, *, #93, .F. );
#283 = ORIENTED_EDGE( '', *, *, #85, .T. );
#284 = ORIENTED_EDGE( '', *, *, #61, .F. );
#285 = ORIENTED_EDGE( '', *, *, #51, .T. );
#286 = CARTESIAN_POINT( '', ( 0.000000000000000, 0.000000000000000, 0.000000000000000 ) );
#287 = DIRECTION( '', ( -1.00000000000000, -0.000000000000000, -0.000000000000000 ) );
#288 = DIRECTION( '', ( 0.000000000000000, 0.000000000000000, -1.00000000000000 ) );
#289 = DIRECTION( '', ( 1.00000000000000, 0.000000000000000, 0.000000000000000 ) );
#290 = CARTESIAN_POINT( '', ( 5000.00000000000, 0.000000000000000, 0.000000000000000 ) );
#291 = DIRECTION( '', ( 1.00000000000000, 0.000000000000000, 0.000000000000000 ) );
#292 = DIRECTION( '', ( 0.000000000000000, 0.000000000000000, -1.00000000000000 ) );
#293 = CARTESIAN_POINT( '', ( 0.000000000000000, 0.000000000000000, 0.000000000000000 ) );
#294 = DIRECTION( '', ( 1.00000000000000, -0.000000000000000, 0.000000000000000 ) );
#295 = DIRECTION( '', ( 0.000000000000000, 0.000000000000000, -1.00000000000000 ) );
#296 = DIRECTION( '', ( -1.00000000000000, 0.000000000000000, 0.000000000000000 ) );
#297 = SURFACE_STYLE_FILL_AREA( #345 );
#298 = SURFACE_STYLE_FILL_AREA( #346 );
#299 = ORIENTED_EDGE( '', *, *, #93, .T. );
#300 = ORIENTED_EDGE( '', *, *, #89, .T. );
#301 = ORIENTED_EDGE( '', *, *, #61, .T. );
#302 = ORIENTED_EDGE( '', *, *, #63, .T. );
#303 = CARTESIAN_POINT( '', ( 0.000000000000000, 0.000000000000000, 0.000000000000000 ) );
#304 = DIRECTION( '', ( -1.00000000000000, -0.000000000000000, -0.000000000000000 ) );
#305 = DIRECTION( '', ( 0.000000000000000, 0.000000000000000, -1.00000000000000 ) );
#306 = CARTESIAN_POINT( '', ( 0.000000000000000, 0.000000000000000, 0.000000000000000 ) );
#307 = DIRECTION( '', ( 1.00000000000000, -0.000000000000000, 0.000000000000000 ) );
#308 = DIRECTION( '', ( 0.000000000000000, 0.000000000000000, -1.00000000000000 ) );
#309 = SURFACE_STYLE_FILL_AREA( #347 );
#310 = ORIENTED_EDGE( '', *, *, #67, .F. );
#311 = ORIENTED_EDGE( '', *, *, #103, .F. );
#312 = ORIENTED_EDGE( '', *, *, #79, .F. );
#313 = ORIENTED_EDGE( '', *, *, #71, .T. );
#314 = CARTESIAN_POINT( '', ( 0.000000000000000, 0.000000000000000, 0.000000000000000 ) );
#315 = DIRECTION( '', ( -1.00000000000000, -0.000000000000000, -0.000000000000000 ) );
#316 = DIRECTION( '', ( 0.000000000000000, 0.000000000000000, -1.00000000000000 ) );
#317 = CARTESIAN_POINT( '', ( 5000.00000000000, 0.000000000000000, 0.000000000000000 ) );
#318 = DIRECTION( '', ( -1.00000000000000, 0.000000000000000, 0.000000000000000 ) );
#319 = DIRECTION( '', ( 0.000000000000000, 0.000000000000000, -1.00000000000000 ) );
#320 = SURFACE_STYLE_FILL_AREA( #348 );
#321 = ORIENTED_EDGE( '', *, *, #89, .F. );
#322 = ORIENTED_EDGE( '', *, *, #51, .F. );
#323 = ORIENTED_EDGE( '', *, *, #95, .F. );
#324 = ORIENTED_EDGE( '', *, *, #71, .F. );
#325 = CARTESIAN_POINT( '', ( 5000.00000000000, 0.000000000000000, 0.000000000000000 ) );
#326 = DIRECTION( '', ( 1.00000000000000, 0.000000000000000, 0.000000000000000 ) );
#327 = DIRECTION( '', ( 0.000000000000000, 0.000000000000000, -1.00000000000000 ) );
#328 = DIRECTION( '', ( 1.00000000000000, 0.000000000000000, 0.000000000000000 ) );
#329 = CARTESIAN_POINT( '', ( 5000.00000000000, 0.000000000000000, 0.000000000000000 ) );
#330 = DIRECTION( '', ( 1.00000000000000, 0.000000000000000, 0.000000000000000 ) );
#331 = DIRECTION( '', ( 0.000000000000000, 0.000000000000000, -1.00000000000000 ) );
#332 = SURFACE_STYLE_FILL_AREA( #349 );
#333 = ORIENTED_EDGE( '', *, *, #85, .F. );
#334 = ORIENTED_EDGE( '', *, *, #63, .F. );
#335 = ORIENTED_EDGE( '', *, *, #73, .T. );
#336 = ORIENTED_EDGE( '', *, *, #103, .T. );
#337 = CARTESIAN_POINT( '', ( 0.000000000000000, 0.000000000000000, 0.000000000000000 ) );
#338 = DIRECTION( '', ( 1.00000000000000, 0.000000000000000, 0.000000000000000 ) );
#339 = DIRECTION( '', ( 0.000000000000000, 0.000000000000000, -1.00000000000000 ) );
#340 = CARTESIAN_POINT( '', ( 0.000000000000000, 0.000000000000000, 0.000000000000000 ) );
#341 = DIRECTION( '', ( 1.00000000000000, -0.000000000000000, 0.000000000000000 ) );
#342 = DIRECTION( '', ( 0.000000000000000, 0.000000000000000, -1.00000000000000 ) );
#343 = FILL_AREA_STYLE( '', ( #350 ) );
#344 = FILL_AREA_STYLE( '', ( #351 ) );
#345 = FILL_AREA_STYLE( '', ( #352 ) );
#346 = FILL_AREA_STYLE( '', ( #353 ) );
#347 = FILL_AREA_STYLE( '', ( #354 ) );
#348 = FILL_AREA_STYLE( '', ( #355 ) );
#349 = FILL_AREA_STYLE( '', ( #356 ) );
#350 = FILL_AREA_STYLE_COLOUR( '', #357 );
#351 = FILL_AREA_STYLE_COLOUR( '', #358 );
#352 = FILL_AREA_STYLE_COLOUR( '', #359 );
#353 = FILL_AREA_STYLE_COLOUR( '', #360 );
#354 = FILL_AREA_STYLE_COLOUR( '', #361 );
#355 = FILL_AREA_STYLE_COLOUR( '', #362 );
#356 = FILL_AREA_STYLE_COLOUR( '', #363 );
#357 = COLOUR_RGB( '', 0.689999997615810, 0.689999997615810, 0.689999997615810 );
#358 = COLOUR_RGB( '', 0.689999997615810, 0.689999997615810, 0.689999997615810 );
#359 = COLOUR_RGB( '', 0.689999997615810, 0.689999997615810, 0.689999997615810 );
#360 = COLOUR_RGB( '', 0.689999997615810, 0.689999997615810, 0.689999997615810 );
#361 = COLOUR_RGB( '', 0.689999997615810, 0.689999997615810, 0.689999997615810 );
#362 = COLOUR_RGB( '', 0.689999997615810, 0.689999997615810, 0.689999997615810 );
#363 = COLOUR_RGB( '', 0.689999997615810, 0.689999997615810, 0.689999997615810 );
ENDSEC;
END-ISO-10303-21;
