ISO-10303-21;
HEADER;
FILE_DESCRIPTION( ( 'STEP AP203' ), '1' );
FILE_NAME( 'p:/temp/worker_29/temp/exporttempdir_1392_407_8IgMk/format_0/30302020033(architecture400).stp', '2022-04-27T10:37:06', ( 'License CC BY-ND 4.0' ), ( 'CADENAS' ), ' ', 'PARTsolutions', ' ' );
FILE_SCHEMA( ( 'CONFIG_CONTROL_DESIGN' ) );
ENDSEC;
DATA;
#1 = DESIGN_CONTEXT( '', #27, 'design' );
#2 = APPLICATION_PROTOCOL_DEFINITION( 'international standard', 'config_control_design', 1994, #27 );
#3 = PRODUCT_CATEGORY_RELATIONSHIP( 'NONE', 'NONE', #28, #29 );
#4 = DATE_AND_TIME( #30, #31 );
#5 = DATE_TIME_ROLE( 'creation_date' );
#6 = DATE_TIME_ROLE( 'classification_date' );
#7 = PERSON_AND_ORGANIZATION_ROLE( 'creator' );
#8 = PERSON_AND_ORGANIZATION_ROLE( 'design_supplier' );
#9 = PERSON_AND_ORGANIZATION_ROLE( 'classification_officer' );
#10 = PERSON_AND_ORGANIZATION_ROLE( 'design_owner' );
#11 = APPROVAL_PERSON_ORGANIZATION( #32, #33, #34 );
#12 = APPROVAL_DATE_TIME( #4, #33 );
#13 = CC_DESIGN_APPROVAL( #33, ( #35, #36, #37 ) );
#14 = CC_DESIGN_DATE_AND_TIME_ASSIGNMENT( #4, #5, ( #37 ) );
#15 = CC_DESIGN_DATE_AND_TIME_ASSIGNMENT( #4, #6, ( #35 ) );
#16 = CC_DESIGN_PERSON_AND_ORGANIZATION_ASSIGNMENT( #32, #10, ( #38 ) );
#17 = CC_DESIGN_PERSON_AND_ORGANIZATION_ASSIGNMENT( #32, #7, ( #37 ) );
#18 = CC_DESIGN_PERSON_AND_ORGANIZATION_ASSIGNMENT( #32, #7, ( #36 ) );
#19 = CC_DESIGN_PERSON_AND_ORGANIZATION_ASSIGNMENT( #32, #8, ( #36 ) );
#20 = CC_DESIGN_SECURITY_CLASSIFICATION( #35, ( #36 ) );
#21 = CC_DESIGN_PERSON_AND_ORGANIZATION_ASSIGNMENT( #32, #9, ( #35 ) );
#22 = SHAPE_DEFINITION_REPRESENTATION( #39, #40 );
#23 =  ( GEOMETRIC_REPRESENTATION_CONTEXT( 3 )GLOBAL_UNCERTAINTY_ASSIGNED_CONTEXT( ( #43 ) )GLOBAL_UNIT_ASSIGNED_CONTEXT( ( #45, #46, #47 ) )REPRESENTATION_CONTEXT( 'NONE', 'WORKSPACE' ) );
#27 = APPLICATION_CONTEXT( 'configuration controlled 3D designs of mechanical parts and assemblies' );
#28 = PRODUCT_CATEGORY( 'part', 'NONE' );
#29 = PRODUCT_RELATED_PRODUCT_CATEGORY( 'detail', ' ', ( #38 ) );
#30 = CALENDAR_DATE( 2022, 27, 3 );
#31 = LOCAL_TIME( 12, 37, 6.00000000000000, #49 );
#32 = PERSON_AND_ORGANIZATION( #50, #51 );
#33 = APPROVAL( #52, 'SOLID MODEL' );
#34 = APPROVAL_ROLE( 'APPROVED' );
#35 = SECURITY_CLASSIFICATION( '', '', #53 );
#36 = PRODUCT_DEFINITION_FORMATION_WITH_SPECIFIED_SOURCE( ' ', 'NONE', #38, .NOT_KNOWN. );
#37 = PRODUCT_DEFINITION( 'NONE', 'NONE', #36, #1 );
#38 = PRODUCT( '_30302020033(architecture400)', '_30302020033(architecture400)', 'PART-_30302020033(architecture400)-DESC', ( #54 ) );
#39 = PRODUCT_DEFINITION_SHAPE( 'NONE', 'NONE', #37 );
#40 = ADVANCED_BREP_SHAPE_REPRESENTATION( '_30302020033(architecture400)', ( #55, #56 ), #23 );
#43 = UNCERTAINTY_MEASURE_WITH_UNIT( LENGTH_MEASURE( 0.00100000000000000 ), #45, '', '' );
#45 =  ( CONVERSION_BASED_UNIT( 'MILLIMETRE', #59 )LENGTH_UNIT(  )NAMED_UNIT( #62 ) );
#46 =  ( NAMED_UNIT( #64 )PLANE_ANGLE_UNIT(  )SI_UNIT( $, .RADIAN. ) );
#47 =  ( NAMED_UNIT( #64 )SI_UNIT( $, .STERADIAN. )SOLID_ANGLE_UNIT(  ) );
#49 = COORDINATED_UNIVERSAL_TIME_OFFSET( 1, 0, .AHEAD. );
#50 = PERSON( '', 'UNSPECIFIED', $, $, $, $ );
#51 = ORGANIZATION( 'UNSPECIFIED', 'UNSPECIFIED', 'UNSPECIFIED' );
#52 = APPROVAL_STATUS( 'approved' );
#53 = SECURITY_CLASSIFICATION_LEVEL( 'unclassified' );
#54 = MECHANICAL_CONTEXT( '', #27, 'mechanical' );
#55 = MANIFOLD_SOLID_BREP( '_30302020033(architecture400)', #70 );
#56 = AXIS2_PLACEMENT_3D( '', #71, #72, #73 );
#59 = LENGTH_MEASURE_WITH_UNIT( LENGTH_MEASURE( 1.00000000000000 ), #74 );
#62 = DIMENSIONAL_EXPONENTS( 1.00000000000000, 0.000000000000000, 0.000000000000000, 0.000000000000000, 0.000000000000000, 0.000000000000000, 0.000000000000000 );
#64 = DIMENSIONAL_EXPONENTS( 0.000000000000000, 0.000000000000000, 0.000000000000000, 0.000000000000000, 0.000000000000000, 0.000000000000000, 0.000000000000000 );
#70 = CLOSED_SHELL( '', ( #75, #76, #77, #78, #79, #80, #81 ) );
#71 = CARTESIAN_POINT( '', ( 0.000000000000000, 0.000000000000000, 0.000000000000000 ) );
#72 = DIRECTION( '', ( 0.000000000000000, 0.000000000000000, 1.00000000000000 ) );
#73 = DIRECTION( '', ( 1.00000000000000, 0.000000000000000, 0.000000000000000 ) );
#74 =  ( LENGTH_UNIT(  )NAMED_UNIT( #62 )SI_UNIT( .MILLI., .METRE. ) );
#75 = ADVANCED_FACE( '', ( #83, #84 ), #85, .F. );
#76 = ADVANCED_FACE( '', ( #86, #87 ), #88, .F. );
#77 = ADVANCED_FACE( '', ( #89, #90 ), #91, .F. );
#78 = ADVANCED_FACE( '', ( #92, #93 ), #94, .T. );
#79 = ADVANCED_FACE( '', ( #95, #96 ), #97, .T. );
#80 = ADVANCED_FACE( '', ( #98 ), #99, .F. );
#81 = ADVANCED_FACE( '', ( #100 ), #101, .F. );
#83 = FACE_OUTER_BOUND( '', #102, .T. );
#84 = FACE_OUTER_BOUND( '', #103, .T. );
#85 = TOROIDAL_SURFACE( '', #104, 87.6000000000000, 6.20000000000000 );
#86 = FACE_OUTER_BOUND( '', #105, .T. );
#87 = FACE_OUTER_BOUND( '', #106, .T. );
#88 = CYLINDRICAL_SURFACE( '', #107, 93.8000000000000 );
#89 = FACE_BOUND( '', #108, .T. );
#90 = FACE_OUTER_BOUND( '', #109, .T. );
#91 = PLANE( '', #110 );
#92 = FACE_OUTER_BOUND( '', #111, .T. );
#93 = FACE_OUTER_BOUND( '', #112, .T. );
#94 = CYLINDRICAL_SURFACE( '', #113, 100.000000000000 );
#95 = FACE_OUTER_BOUND( '', #114, .T. );
#96 = FACE_BOUND( '', #115, .T. );
#97 = CONICAL_SURFACE( '', #116, 93.8000000000000, 0.785398163400000 );
#98 = FACE_OUTER_BOUND( '', #117, .T. );
#99 = PLANE( '', #118 );
#100 = FACE_OUTER_BOUND( '', #119, .T. );
#101 = PLANE( '', #120 );
#102 = EDGE_LOOP( '', ( #121 ) );
#103 = EDGE_LOOP( '', ( #122 ) );
#104 = AXIS2_PLACEMENT_3D( '', #123, #124, #125 );
#105 = EDGE_LOOP( '', ( #126 ) );
#106 = EDGE_LOOP( '', ( #127 ) );
#107 = AXIS2_PLACEMENT_3D( '', #128, #129, #130 );
#108 = EDGE_LOOP( '', ( #131 ) );
#109 = EDGE_LOOP( '', ( #132 ) );
#110 = AXIS2_PLACEMENT_3D( '', #133, #134, #135 );
#111 = EDGE_LOOP( '', ( #136 ) );
#112 = EDGE_LOOP( '', ( #137 ) );
#113 = AXIS2_PLACEMENT_3D( '', #138, #139, #140 );
#114 = EDGE_LOOP( '', ( #141 ) );
#115 = EDGE_LOOP( '', ( #142 ) );
#116 = AXIS2_PLACEMENT_3D( '', #143, #144, #145 );
#117 = EDGE_LOOP( '', ( #146 ) );
#118 = AXIS2_PLACEMENT_3D( '', #147, #148, #149 );
#119 = EDGE_LOOP( '', ( #150 ) );
#120 = AXIS2_PLACEMENT_3D( '', #151, #152, #153 );
#121 = ORIENTED_EDGE( '', *, *, #154, .F. );
#122 = ORIENTED_EDGE( '', *, *, #155, .T. );
#123 = CARTESIAN_POINT( '', ( -8.80000000000001, 0.000000000000000, 0.000000000000000 ) );
#124 = DIRECTION( '', ( 1.00000000000000, 0.000000000000000, -0.000000000000000 ) );
#125 = DIRECTION( '', ( -0.000000000000000, 0.000000000000000, -1.00000000000000 ) );
#126 = ORIENTED_EDGE( '', *, *, #155, .F. );
#127 = ORIENTED_EDGE( '', *, *, #156, .T. );
#128 = CARTESIAN_POINT( '', ( -15.0000000000000, 0.000000000000000, 0.000000000000000 ) );
#129 = DIRECTION( '', ( -1.00000000000000, -0.000000000000000, 0.000000000000000 ) );
#130 = DIRECTION( '', ( -0.000000000000000, 0.000000000000000, -1.00000000000000 ) );
#131 = ORIENTED_EDGE( '', *, *, #156, .F. );
#132 = ORIENTED_EDGE( '', *, *, #157, .T. );
#133 = CARTESIAN_POINT( '', ( 0.000000000000000, 100.000000000000, 0.000000000000000 ) );
#134 = DIRECTION( '', ( -1.00000000000000, 0.000000000000000, 0.000000000000000 ) );
#135 = DIRECTION( '', ( 0.000000000000000, 0.000000000000000, 1.00000000000000 ) );
#136 = ORIENTED_EDGE( '', *, *, #157, .F. );
#137 = ORIENTED_EDGE( '', *, *, #158, .T. );
#138 = CARTESIAN_POINT( '', ( -15.0000000000000, 0.000000000000000, 0.000000000000000 ) );
#139 = DIRECTION( '', ( -1.00000000000000, -0.000000000000000, 0.000000000000000 ) );
#140 = DIRECTION( '', ( -0.000000000000000, 0.000000000000000, -1.00000000000000 ) );
#141 = ORIENTED_EDGE( '', *, *, #158, .F. );
#142 = ORIENTED_EDGE( '', *, *, #159, .T. );
#143 = CARTESIAN_POINT( '', ( -35.0000000000000, 0.000000000000000, 0.000000000000000 ) );
#144 = DIRECTION( '', ( 1.00000000000000, -0.000000000000000, -0.000000000000000 ) );
#145 = DIRECTION( '', ( -0.000000000000000, 0.000000000000000, -1.00000000000000 ) );
#146 = ORIENTED_EDGE( '', *, *, #159, .F. );
#147 = CARTESIAN_POINT( '', ( -35.0000000000000, 0.000000000000000, 0.000000000000000 ) );
#148 = DIRECTION( '', ( 1.00000000000000, 0.000000000000000, -0.000000000000000 ) );
#149 = DIRECTION( '', ( -0.000000000000000, 0.000000000000000, -1.00000000000000 ) );
#150 = ORIENTED_EDGE( '', *, *, #154, .T. );
#151 = CARTESIAN_POINT( '', ( -15.0000000000000, 87.6000000000000, 0.000000000000000 ) );
#152 = DIRECTION( '', ( -1.00000000000000, 0.000000000000000, 0.000000000000000 ) );
#153 = DIRECTION( '', ( 0.000000000000000, 0.000000000000000, 1.00000000000000 ) );
#154 = EDGE_CURVE( '', #160, #160, #161, .T. );
#155 = EDGE_CURVE( '', #162, #162, #163, .T. );
#156 = EDGE_CURVE( '', #164, #164, #165, .T. );
#157 = EDGE_CURVE( '', #166, #166, #167, .T. );
#158 = EDGE_CURVE( '', #168, #168, #169, .T. );
#159 = EDGE_CURVE( '', #170, #170, #171, .T. );
#160 = VERTEX_POINT( '', #172 );
#161 = CIRCLE( '', #173, 87.6000000000000 );
#162 = VERTEX_POINT( '', #174 );
#163 = CIRCLE( '', #175, 93.8000000000000 );
#164 = VERTEX_POINT( '', #176 );
#165 = CIRCLE( '', #177, 93.8000000000000 );
#166 = VERTEX_POINT( '', #178 );
#167 = CIRCLE( '', #179, 100.000000000000 );
#168 = VERTEX_POINT( '', #180 );
#169 = CIRCLE( '', #181, 100.000000000000 );
#170 = VERTEX_POINT( '', #182 );
#171 = CIRCLE( '', #183, 93.8000000000000 );
#172 = CARTESIAN_POINT( '', ( -15.0000000000000, 0.000000000000000, -87.6000000000000 ) );
#173 = AXIS2_PLACEMENT_3D( '', #184, #185, #186 );
#174 = CARTESIAN_POINT( '', ( -8.80000000000005, 0.000000000000000, -93.8000000000000 ) );
#175 = AXIS2_PLACEMENT_3D( '', #187, #188, #189 );
#176 = CARTESIAN_POINT( '', ( 0.000000000000000, 0.000000000000000, -93.8000000000001 ) );
#177 = AXIS2_PLACEMENT_3D( '', #190, #191, #192 );
#178 = CARTESIAN_POINT( '', ( 0.000000000000000, 0.000000000000000, -100.000000000000 ) );
#179 = AXIS2_PLACEMENT_3D( '', #193, #194, #195 );
#180 = CARTESIAN_POINT( '', ( -28.8000000000000, 0.000000000000000, -100.000000000000 ) );
#181 = AXIS2_PLACEMENT_3D( '', #196, #197, #198 );
#182 = CARTESIAN_POINT( '', ( -35.0000000000000, 0.000000000000000, -93.8000000000000 ) );
#183 = AXIS2_PLACEMENT_3D( '', #199, #200, #201 );
#184 = CARTESIAN_POINT( '', ( -15.0000000000000, 0.000000000000000, 0.000000000000000 ) );
#185 = DIRECTION( '', ( 1.00000000000000, 0.000000000000000, -0.000000000000000 ) );
#186 = DIRECTION( '', ( -0.000000000000000, 0.000000000000000, -1.00000000000000 ) );
#187 = CARTESIAN_POINT( '', ( -8.80000000000005, 0.000000000000000, 0.000000000000000 ) );
#188 = DIRECTION( '', ( 1.00000000000000, 0.000000000000000, -0.000000000000000 ) );
#189 = DIRECTION( '', ( -0.000000000000000, 0.000000000000000, -1.00000000000000 ) );
#190 = CARTESIAN_POINT( '', ( 0.000000000000000, 0.000000000000000, 0.000000000000000 ) );
#191 = DIRECTION( '', ( 1.00000000000000, 0.000000000000000, -0.000000000000000 ) );
#192 = DIRECTION( '', ( -0.000000000000000, 0.000000000000000, -1.00000000000000 ) );
#193 = CARTESIAN_POINT( '', ( 0.000000000000000, 0.000000000000000, 0.000000000000000 ) );
#194 = DIRECTION( '', ( 1.00000000000000, 0.000000000000000, -0.000000000000000 ) );
#195 = DIRECTION( '', ( -0.000000000000000, 0.000000000000000, -1.00000000000000 ) );
#196 = CARTESIAN_POINT( '', ( -28.8000000000000, 0.000000000000000, 0.000000000000000 ) );
#197 = DIRECTION( '', ( 1.00000000000000, 0.000000000000000, -0.000000000000000 ) );
#198 = DIRECTION( '', ( -0.000000000000000, 0.000000000000000, -1.00000000000000 ) );
#199 = CARTESIAN_POINT( '', ( -35.0000000000000, 0.000000000000000, 0.000000000000000 ) );
#200 = DIRECTION( '', ( 1.00000000000000, 0.000000000000000, -0.000000000000000 ) );
#201 = DIRECTION( '', ( -0.000000000000000, 0.000000000000000, -1.00000000000000 ) );
ENDSEC;
END-ISO-10303-21;
