ISO-10303-21;
HEADER;
/* Generated by software containing ST-Developer
 * from STEP Tools, Inc. (www.steptools.com) 
 */

FILE_DESCRIPTION(
/* description */ (''),
/* implementation_level */ '2;1');

FILE_NAME(
/* name */ 
'Q:\\Ric010\\FF7\\FIPlastiCAD\\FIP\\Lavoro\\PVC Fittings\\PVC Fittings
 STEP\\TRIV\\TRIV040025.ipt.stp',
/* time_stamp */ '2013-10-01T14:56:24+02:00',
/* author */ ('bfaro'),
/* organization */ (''),
/* preprocessor_version */ 'ST-DEVELOPER v15.2',
/* originating_system */ 'Autodesk Inventor 2014',
/* authorisation */ '');

FILE_SCHEMA (('AUTOMOTIVE_DESIGN { 1 0 10303 214 3 1 1 }'));
ENDSEC;

DATA;
#10=SHAPE_REPRESENTATION_RELATIONSHIP('SRR','None',#427,#11);
#11=ADVANCED_BREP_SHAPE_REPRESENTATION($,(#181),#418);
#12=STYLED_ITEM($,(#435),#181);
#13=PLANE($,#202);
#14=PLANE($,#203);
#15=PLANE($,#204);
#16=PLANE($,#205);
#17=PLANE($,#206);
#18=PLANE($,#207);
#19=FACE_BOUND($,#60,.T.);
#20=FACE_BOUND($,#61,.T.);
#21=FACE_BOUND($,#62,.T.);
#22=FACE_BOUND($,#63,.T.);
#23=FACE_BOUND($,#65,.T.);
#24=FACE_BOUND($,#66,.T.);
#25=FACE_BOUND($,#67,.T.);
#26=FACE_BOUND($,#68,.T.);
#27=FACE_BOUND($,#70,.T.);
#28=FACE_BOUND($,#72,.T.);
#29=FACE_BOUND($,#74,.T.);
#30=FACE_BOUND($,#76,.T.);
#31=FACE_BOUND($,#77,.T.);
#32=FACE_BOUND($,#78,.T.);
#33=FACE_BOUND($,#80,.T.);
#34=FACE_BOUND($,#82,.T.);
#35=FACE_BOUND($,#83,.T.);
#36=FACE_BOUND($,#84,.T.);
#37=FACE_BOUND($,#85,.T.);
#38=FACE_BOUND($,#86,.T.);
#39=CIRCLE($,#184,12.);
#40=CIRCLE($,#186,19.);
#41=CIRCLE($,#187,19.);
#42=CIRCLE($,#189,20.);
#43=CIRCLE($,#190,20.);
#44=CIRCLE($,#192,25.);
#45=CIRCLE($,#193,25.);
#46=CIRCLE($,#195,17.);
#47=CIRCLE($,#197,20.);
#48=CIRCLE($,#198,20.);
#49=CIRCLE($,#200,12.5);
#50=CIRCLE($,#201,12.5);
#51=FACE_OUTER_BOUND($,#59,.T.);
#52=FACE_OUTER_BOUND($,#64,.T.);
#53=FACE_OUTER_BOUND($,#69,.T.);
#54=FACE_OUTER_BOUND($,#71,.T.);
#55=FACE_OUTER_BOUND($,#73,.T.);
#56=FACE_OUTER_BOUND($,#75,.T.);
#57=FACE_OUTER_BOUND($,#79,.T.);
#58=FACE_OUTER_BOUND($,#81,.T.);
#59=EDGE_LOOP($,(#126));
#60=EDGE_LOOP($,(#127));
#61=EDGE_LOOP($,(#128));
#62=EDGE_LOOP($,(#129));
#63=EDGE_LOOP($,(#130));
#64=EDGE_LOOP($,(#131));
#65=EDGE_LOOP($,(#132));
#66=EDGE_LOOP($,(#133,#134,#135,#136));
#67=EDGE_LOOP($,(#137));
#68=EDGE_LOOP($,(#138));
#69=EDGE_LOOP($,(#139,#140,#141,#142));
#70=EDGE_LOOP($,(#143));
#71=EDGE_LOOP($,(#144));
#72=EDGE_LOOP($,(#145));
#73=EDGE_LOOP($,(#146));
#74=EDGE_LOOP($,(#147));
#75=EDGE_LOOP($,(#148));
#76=EDGE_LOOP($,(#149));
#77=EDGE_LOOP($,(#150));
#78=EDGE_LOOP($,(#151));
#79=EDGE_LOOP($,(#152));
#80=EDGE_LOOP($,(#153));
#81=EDGE_LOOP($,(#154));
#82=EDGE_LOOP($,(#155));
#83=EDGE_LOOP($,(#156));
#84=EDGE_LOOP($,(#157));
#85=EDGE_LOOP($,(#158));
#86=EDGE_LOOP($,(#159));
#87=B_SPLINE_CURVE_WITH_KNOTS($,3,(#263,#264,#265,#266,#267,#268,#269,#270,
#271,#272,#273,#274,#275,#276,#277,#278,#279,#280,#281,#282,#283,#284,#285,
#286,#287,#288,#289,#290,#291,#292,#293,#294,#295,#296,#297,#298,#299,#300,
#301,#302,#303,#304,#305,#306,#307,#308,#309,#310,#311,#312),
 .UNSPECIFIED.,.T.,.F.,(4,2,2,2,2,2,2,2,2,2,2,2,2,2,2,2,2,2,2,2,2,2,2,2,
4),(0.,0.235142122887245,0.470284245774489,0.940568491548978,1.4069348967465,
1.64011809934526,1.87330130194402,2.10648450454278,2.33966770714155,2.80603411233907,
3.27631835811356,3.5114604810008,3.74660260388805,3.98174472677046,4.21688684965288,
4.68717109541772,5.15353750061265,5.38672070321012,5.61990390580759,5.85308710840506,
6.08627031100253,6.55263671619746,7.0229209619623,7.25806308484472,7.49320520772713),
 .UNSPECIFIED.);
#88=B_SPLINE_CURVE_WITH_KNOTS($,3,(#328,#329,#330,#331,#332,#333,#334,#335,
#336,#337,#338,#339,#340,#341,#342,#343),.UNSPECIFIED.,.F.,.F.,(4,2,2,2,
2,2,2,4),(5.34786915751292,5.6841645441173,6.02045993072167,6.69305070393042,
7.02523896200567,7.35742722008093,7.68961547815618,8.02180373623143),
 .UNSPECIFIED.);
#89=B_SPLINE_CURVE_WITH_KNOTS($,3,(#345,#346,#347,#348,#349,#350,#351,#352,
#353,#354,#355,#356,#357,#358,#359,#360),.UNSPECIFIED.,.F.,.F.,(4,2,2,2,
2,2,2,4),(-5.34786915751292,-5.01157377090562,-4.67527838429831,-4.0026876110837,
-3.67049935300189,-3.33831109492008,-3.00612283683827,-2.67393457875646),
 .UNSPECIFIED.);
#90=B_SPLINE_CURVE_WITH_KNOTS($,3,(#362,#363,#364,#365,#366,#367,#368,#369,
#370,#371,#372,#373,#374,#375,#376,#377),.UNSPECIFIED.,.F.,.F.,(4,2,2,2,
2,2,2,4),(8.02180373619348,8.35399199427528,8.68618025235709,9.0183685104389,
9.35055676852071,10.0231475417353,10.3594429283426,10.6957383149499),
 .UNSPECIFIED.);
#91=B_SPLINE_CURVE_WITH_KNOTS($,3,(#378,#379,#380,#381,#382,#383,#384,#385,
#386,#387,#388,#389,#390,#391,#392,#393),.UNSPECIFIED.,.F.,.F.,(4,2,2,2,
2,2,2,4),(-2.67393457871851,-2.34174632064325,-2.009558062568,-1.67736980449275,
-1.34518154641749,-0.672590773208745,-0.336295386604371,2.22044604925031E-015),
 .UNSPECIFIED.);
#92=VERTEX_POINT($,#262);
#93=VERTEX_POINT($,#313);
#94=VERTEX_POINT($,#316);
#95=VERTEX_POINT($,#318);
#96=VERTEX_POINT($,#321);
#97=VERTEX_POINT($,#323);
#98=VERTEX_POINT($,#326);
#99=VERTEX_POINT($,#327);
#100=VERTEX_POINT($,#344);
#101=VERTEX_POINT($,#361);
#102=VERTEX_POINT($,#394);
#103=VERTEX_POINT($,#396);
#104=VERTEX_POINT($,#399);
#105=VERTEX_POINT($,#402);
#106=VERTEX_POINT($,#404);
#107=VERTEX_POINT($,#407);
#108=VERTEX_POINT($,#409);
#109=EDGE_CURVE($,#92,#92,#87,.T.);
#110=EDGE_CURVE($,#93,#93,#39,.T.);
#111=EDGE_CURVE($,#94,#94,#40,.T.);
#112=EDGE_CURVE($,#95,#95,#41,.T.);
#113=EDGE_CURVE($,#96,#96,#42,.T.);
#114=EDGE_CURVE($,#97,#97,#43,.T.);
#115=EDGE_CURVE($,#98,#99,#88,.T.);
#116=EDGE_CURVE($,#98,#100,#89,.T.);
#117=EDGE_CURVE($,#100,#101,#90,.T.);
#118=EDGE_CURVE($,#99,#101,#91,.T.);
#119=EDGE_CURVE($,#102,#102,#44,.T.);
#120=EDGE_CURVE($,#103,#103,#45,.T.);
#121=EDGE_CURVE($,#104,#104,#46,.T.);
#122=EDGE_CURVE($,#105,#105,#47,.T.);
#123=EDGE_CURVE($,#106,#106,#48,.T.);
#124=EDGE_CURVE($,#107,#107,#49,.T.);
#125=EDGE_CURVE($,#108,#108,#50,.T.);
#126=ORIENTED_EDGE($,*,*,#109,.F.);
#127=ORIENTED_EDGE($,*,*,#110,.F.);
#128=ORIENTED_EDGE($,*,*,#109,.T.);
#129=ORIENTED_EDGE($,*,*,#111,.F.);
#130=ORIENTED_EDGE($,*,*,#112,.F.);
#131=ORIENTED_EDGE($,*,*,#113,.T.);
#132=ORIENTED_EDGE($,*,*,#114,.F.);
#133=ORIENTED_EDGE($,*,*,#115,.F.);
#134=ORIENTED_EDGE($,*,*,#116,.T.);
#135=ORIENTED_EDGE($,*,*,#117,.T.);
#136=ORIENTED_EDGE($,*,*,#118,.F.);
#137=ORIENTED_EDGE($,*,*,#119,.T.);
#138=ORIENTED_EDGE($,*,*,#120,.F.);
#139=ORIENTED_EDGE($,*,*,#116,.F.);
#140=ORIENTED_EDGE($,*,*,#115,.T.);
#141=ORIENTED_EDGE($,*,*,#118,.T.);
#142=ORIENTED_EDGE($,*,*,#117,.F.);
#143=ORIENTED_EDGE($,*,*,#121,.F.);
#144=ORIENTED_EDGE($,*,*,#122,.T.);
#145=ORIENTED_EDGE($,*,*,#123,.F.);
#146=ORIENTED_EDGE($,*,*,#124,.T.);
#147=ORIENTED_EDGE($,*,*,#125,.F.);
#148=ORIENTED_EDGE($,*,*,#119,.F.);
#149=ORIENTED_EDGE($,*,*,#114,.T.);
#150=ORIENTED_EDGE($,*,*,#111,.T.);
#151=ORIENTED_EDGE($,*,*,#113,.F.);
#152=ORIENTED_EDGE($,*,*,#120,.T.);
#153=ORIENTED_EDGE($,*,*,#122,.F.);
#154=ORIENTED_EDGE($,*,*,#121,.T.);
#155=ORIENTED_EDGE($,*,*,#124,.F.);
#156=ORIENTED_EDGE($,*,*,#112,.T.);
#157=ORIENTED_EDGE($,*,*,#123,.T.);
#158=ORIENTED_EDGE($,*,*,#110,.T.);
#159=ORIENTED_EDGE($,*,*,#125,.T.);
#160=CYLINDRICAL_SURFACE($,#183,12.);
#161=CYLINDRICAL_SURFACE($,#185,19.);
#162=CYLINDRICAL_SURFACE($,#188,20.);
#163=CYLINDRICAL_SURFACE($,#191,25.);
#164=CYLINDRICAL_SURFACE($,#194,17.);
#165=CYLINDRICAL_SURFACE($,#196,20.);
#166=CYLINDRICAL_SURFACE($,#199,12.5);
#167=ADVANCED_FACE($,(#51,#19),#160,.F.);
#168=ADVANCED_FACE($,(#20,#21,#22),#161,.F.);
#169=ADVANCED_FACE($,(#52,#23),#162,.F.);
#170=ADVANCED_FACE($,(#24,#25,#26),#163,.T.);
#171=ADVANCED_FACE($,(#53,#27),#164,.T.);
#172=ADVANCED_FACE($,(#54,#28),#165,.F.);
#173=ADVANCED_FACE($,(#55,#29),#166,.F.);
#174=ADVANCED_FACE($,(#56,#30),#13,.T.);
#175=ADVANCED_FACE($,(#31,#32),#14,.T.);
#176=ADVANCED_FACE($,(#57,#33),#15,.T.);
#177=ADVANCED_FACE($,(#58,#34),#16,.T.);
#178=ADVANCED_FACE($,(#35,#36),#17,.T.);
#179=ADVANCED_FACE($,(#37,#38),#18,.T.);
#180=CLOSED_SHELL($,(#167,#168,#169,#170,#171,#172,#173,#174,#175,#176,
#177,#178,#179));
#181=MANIFOLD_SOLID_BREP('Solido1',#180);
#182=AXIS2_PLACEMENT_3D('placement',#260,#208,#209);
#183=AXIS2_PLACEMENT_3D($,#261,#210,#211);
#184=AXIS2_PLACEMENT_3D($,#314,#212,#213);
#185=AXIS2_PLACEMENT_3D($,#315,#214,#215);
#186=AXIS2_PLACEMENT_3D($,#317,#216,#217);
#187=AXIS2_PLACEMENT_3D($,#319,#218,#219);
#188=AXIS2_PLACEMENT_3D($,#320,#220,#221);
#189=AXIS2_PLACEMENT_3D($,#322,#222,#223);
#190=AXIS2_PLACEMENT_3D($,#324,#224,#225);
#191=AXIS2_PLACEMENT_3D($,#325,#226,#227);
#192=AXIS2_PLACEMENT_3D($,#395,#228,#229);
#193=AXIS2_PLACEMENT_3D($,#397,#230,#231);
#194=AXIS2_PLACEMENT_3D($,#398,#232,#233);
#195=AXIS2_PLACEMENT_3D($,#400,#234,#235);
#196=AXIS2_PLACEMENT_3D($,#401,#236,#237);
#197=AXIS2_PLACEMENT_3D($,#403,#238,#239);
#198=AXIS2_PLACEMENT_3D($,#405,#240,#241);
#199=AXIS2_PLACEMENT_3D($,#406,#242,#243);
#200=AXIS2_PLACEMENT_3D($,#408,#244,#245);
#201=AXIS2_PLACEMENT_3D($,#410,#246,#247);
#202=AXIS2_PLACEMENT_3D($,#411,#248,#249);
#203=AXIS2_PLACEMENT_3D($,#412,#250,#251);
#204=AXIS2_PLACEMENT_3D($,#413,#252,#253);
#205=AXIS2_PLACEMENT_3D($,#414,#254,#255);
#206=AXIS2_PLACEMENT_3D($,#415,#256,#257);
#207=AXIS2_PLACEMENT_3D($,#416,#258,#259);
#208=DIRECTION('axis',(0.,0.,1.));
#209=DIRECTION('refdir',(1.,0.,0.));
#210=DIRECTION('center_axis',(-1.,0.,-4.48965650981301E-011));
#211=DIRECTION('ref_axis',(-4.48965650981301E-011,0.,1.));
#212=DIRECTION('center_axis',(-1.,0.,-4.489664E-011));
#213=DIRECTION('ref_axis',(-4.48965650981301E-011,0.,1.));
#214=DIRECTION('center_axis',(0.,0.,-1.));
#215=DIRECTION('ref_axis',(-1.,0.,0.));
#216=DIRECTION('center_axis',(0.,0.,1.));
#217=DIRECTION('ref_axis',(-1.,0.,0.));
#218=DIRECTION('center_axis',(0.,0.,-1.));
#219=DIRECTION('ref_axis',(-1.,0.,0.));
#220=DIRECTION('center_axis',(0.,0.,1.));
#221=DIRECTION('ref_axis',(1.,0.,0.));
#222=DIRECTION('center_axis',(0.,0.,1.));
#223=DIRECTION('ref_axis',(1.,0.,0.));
#224=DIRECTION('center_axis',(0.,0.,1.));
#225=DIRECTION('ref_axis',(1.,0.,0.));
#226=DIRECTION('center_axis',(0.,0.,1.));
#227=DIRECTION('ref_axis',(1.,0.,0.));
#228=DIRECTION('center_axis',(0.,0.,1.));
#229=DIRECTION('ref_axis',(1.,0.,0.));
#230=DIRECTION('center_axis',(0.,0.,1.));
#231=DIRECTION('ref_axis',(1.,0.,0.));
#232=DIRECTION('center_axis',(1.,0.,4.489664E-011));
#233=DIRECTION('ref_axis',(4.489664E-011,0.,-1.));
#234=DIRECTION('center_axis',(1.,0.,4.489664E-011));
#235=DIRECTION('ref_axis',(4.489664E-011,0.,-1.));
#236=DIRECTION('center_axis',(0.,0.,1.));
#237=DIRECTION('ref_axis',(1.,0.,0.));
#238=DIRECTION('center_axis',(0.,0.,1.));
#239=DIRECTION('ref_axis',(1.,0.,0.));
#240=DIRECTION('center_axis',(0.,0.,1.));
#241=DIRECTION('ref_axis',(1.,0.,0.));
#242=DIRECTION('center_axis',(1.,7.18886964771736E-015,4.48947418316097E-011));
#243=DIRECTION('ref_axis',(4.48945769448983E-011,0.,-1.));
#244=DIRECTION('center_axis',(1.,0.,4.489664E-011));
#245=DIRECTION('ref_axis',(4.489664E-011,0.,-1.));
#246=DIRECTION('center_axis',(1.,0.,4.489664E-011));
#247=DIRECTION('ref_axis',(4.489664E-011,0.,-1.));
#248=DIRECTION('center_axis',(0.,0.,-1.));
#249=DIRECTION('ref_axis',(-1.,0.,0.));
#250=DIRECTION('center_axis',(0.,0.,-1.));
#251=DIRECTION('ref_axis',(-1.,0.,0.));
#252=DIRECTION('center_axis',(0.,0.,1.));
#253=DIRECTION('ref_axis',(1.,0.,0.));
#254=DIRECTION('center_axis',(1.,0.,4.489664E-011));
#255=DIRECTION('ref_axis',(4.48963533017377E-011,0.,-1.));
#256=DIRECTION('center_axis',(0.,0.,1.));
#257=DIRECTION('ref_axis',(1.,0.,0.));
#258=DIRECTION('center_axis',(1.,0.,4.489664E-011));
#259=DIRECTION('ref_axis',(4.48967085731056E-011,0.,-1.));
#260=CARTESIAN_POINT('',(0.,0.,0.));
#261=CARTESIAN_POINT('Origin',(22.,0.,48.000000000988));
#262=CARTESIAN_POINT('',(14.7309198626562,12.,48.0000000006616));
#263=CARTESIAN_POINT('Ctrl Pts',(14.7309198626562,12.,48.0000000006616));
#264=CARTESIAN_POINT('Ctrl Pts',(14.7309198626562,12.,48.7838070769525));
#265=CARTESIAN_POINT('Ctrl Pts',(14.7954003934087,11.9221035230636,49.5824272084163));
#266=CARTESIAN_POINT('Ctrl Pts',(15.0443805513316,11.6063361440693,51.1517598224027));
#267=CARTESIAN_POINT('Ctrl Pts',(15.2282006048041,11.3686430912949,51.922615825078));
#268=CARTESIAN_POINT('Ctrl Pts',(15.8911564596912,10.4425856992606,54.1224489720498));
#269=CARTESIAN_POINT('Ctrl Pts',(16.4782664731797,9.53055843280174,55.4400043164155));
#270=CARTESIAN_POINT('Ctrl Pts',(17.5173870729467,7.44871230219847,57.5218504470654));
#271=CARTESIAN_POINT('Ctrl Pts',(18.0483703089638,6.12897747239932,58.4398062669047));
#272=CARTESIAN_POINT('Ctrl Pts',(18.6068140015559,3.91962793228743,59.3699164678013));
#273=CARTESIAN_POINT('Ctrl Pts',(18.754576922969,3.14525750320012,59.6081570642508));
#274=CARTESIAN_POINT('Ctrl Pts',(18.9512269695926,1.57410186176493,59.923261236906));
#275=CARTESIAN_POINT('Ctrl Pts',(19.,0.777277341995871,60.0000000008533));
#276=CARTESIAN_POINT('Ctrl Pts',(19.,-0.777277341995871,60.0000000008533));
#277=CARTESIAN_POINT('Ctrl Pts',(18.9512269695926,-1.57410186176493,59.923261236906));
#278=CARTESIAN_POINT('Ctrl Pts',(18.754576922969,-3.14525750320011,59.6081570642508));
#279=CARTESIAN_POINT('Ctrl Pts',(18.6068140015559,-3.91962793228742,59.3699164678013));
#280=CARTESIAN_POINT('Ctrl Pts',(18.0483703089638,-6.12897747239932,58.4398062669047));
#281=CARTESIAN_POINT('Ctrl Pts',(17.5173870729467,-7.44871230219847,57.5218504470654));
#282=CARTESIAN_POINT('Ctrl Pts',(16.4782664731797,-9.53055843280174,55.4400043164155));
#283=CARTESIAN_POINT('Ctrl Pts',(15.8911564596912,-10.4425856992606,54.1224489720498));
#284=CARTESIAN_POINT('Ctrl Pts',(15.2282006048041,-11.3686430912949,51.922615825078));
#285=CARTESIAN_POINT('Ctrl Pts',(15.0443805513316,-11.6063361440693,51.1517598224027));
#286=CARTESIAN_POINT('Ctrl Pts',(14.7954003934087,-11.9221035230636,49.5824272084163));
#287=CARTESIAN_POINT('Ctrl Pts',(14.7309198626562,-12.,48.7838070769525));
#288=CARTESIAN_POINT('Ctrl Pts',(14.7309198626562,-12.,47.2161929243869));
#289=CARTESIAN_POINT('Ctrl Pts',(14.7954003934062,-11.9221035230667,46.4175727929387));
#290=CARTESIAN_POINT('Ctrl Pts',(15.0443805513242,-11.6063361440789,44.8482401789854));
#291=CARTESIAN_POINT('Ctrl Pts',(15.2282006047944,-11.3686430913078,44.0773841763276));
#292=CARTESIAN_POINT('Ctrl Pts',(15.8911564596772,-10.4425856992815,41.8775510294135));
#293=CARTESIAN_POINT('Ctrl Pts',(16.4782664731668,-9.53055843282363,40.5599956850929));
#294=CARTESIAN_POINT('Ctrl Pts',(17.5173870729416,-7.44871230221259,38.4781495545159));
#295=CARTESIAN_POINT('Ctrl Pts',(18.0483703089636,-6.12897747240145,37.5601937347168));
#296=CARTESIAN_POINT('Ctrl Pts',(18.6068140015574,-3.91962793228083,36.6300835338675));
#297=CARTESIAN_POINT('Ctrl Pts',(18.7545769229703,-3.1452575031922,36.3918429374317));
#298=CARTESIAN_POINT('Ctrl Pts',(18.9512269695932,-1.57410186175815,36.0767387647955));
#299=CARTESIAN_POINT('Ctrl Pts',(19.,-0.777277341991562,36.0000000008533));
#300=CARTESIAN_POINT('Ctrl Pts',(19.,0.777277341991559,36.0000000008533));
#301=CARTESIAN_POINT('Ctrl Pts',(18.9512269695932,1.57410186175815,36.0767387647954));
#302=CARTESIAN_POINT('Ctrl Pts',(18.7545769229703,3.1452575031922,36.3918429374317));
#303=CARTESIAN_POINT('Ctrl Pts',(18.6068140015574,3.91962793228083,36.6300835338675));
#304=CARTESIAN_POINT('Ctrl Pts',(18.0483703089636,6.12897747240146,37.5601937347168));
#305=CARTESIAN_POINT('Ctrl Pts',(17.5173870729416,7.44871230221259,38.4781495545159));
#306=CARTESIAN_POINT('Ctrl Pts',(16.4782664731668,9.53055843282364,40.5599956850929));
#307=CARTESIAN_POINT('Ctrl Pts',(15.8911564596772,10.4425856992815,41.8775510294135));
#308=CARTESIAN_POINT('Ctrl Pts',(15.2282006047944,11.3686430913079,44.0773841763276));
#309=CARTESIAN_POINT('Ctrl Pts',(15.0443805513242,11.6063361440789,44.8482401789854));
#310=CARTESIAN_POINT('Ctrl Pts',(14.7954003934062,11.9221035230667,46.4175727929387));
#311=CARTESIAN_POINT('Ctrl Pts',(14.7309198626562,12.,47.2161929243869));
#312=CARTESIAN_POINT('Ctrl Pts',(14.7309198626562,12.,48.0000000006616));
#313=CARTESIAN_POINT('',(22.0000000005388,1.46957615897682E-015,36.000000000988));
#314=CARTESIAN_POINT('Origin',(22.,0.,48.000000000988));
#315=CARTESIAN_POINT('Origin',(0.,0.,70.));
#316=CARTESIAN_POINT('',(19.,2.32682891837997E-015,26.));
#317=CARTESIAN_POINT('Origin',(0.,0.,26.));
#318=CARTESIAN_POINT('',(19.,2.32682891837997E-015,70.));
#319=CARTESIAN_POINT('Origin',(0.,0.,70.));
#320=CARTESIAN_POINT('Origin',(0.,0.,13.));
#321=CARTESIAN_POINT('',(-20.,-2.449213E-015,26.));
#322=CARTESIAN_POINT('Origin',(0.,0.,26.));
#323=CARTESIAN_POINT('',(-20.,-2.449213E-015,0.));
#324=CARTESIAN_POINT('Origin',(0.,0.,0.));
#325=CARTESIAN_POINT('Origin',(0.,0.,0.));
#326=CARTESIAN_POINT('',(18.330302779823,-17.,48.000000000823));
#327=CARTESIAN_POINT('',(25.,-2.04697370165263E-015,31.0000000011224));
#328=CARTESIAN_POINT('Ctrl Pts',(18.3303027798234,-17.,48.000000000823));
#329=CARTESIAN_POINT('Ctrl Pts',(18.3303027798234,-17.,46.8790153788084));
#330=CARTESIAN_POINT('Ctrl Pts',(18.4363299076947,-16.8876605561954,45.7421924680731));
#331=CARTESIAN_POINT('Ctrl Pts',(18.839190194145,-16.4370390094023,43.5150782002629));
#332=CARTESIAN_POINT('Ctrl Pts',(19.1346855485994,-16.0990326325104,42.4244892797849));
#333=CARTESIAN_POINT('Ctrl Pts',(20.1894997484417,-14.7866175524854,39.3157099874254));
#334=CARTESIAN_POINT('Ctrl Pts',(21.1097520225148,-13.4988919873726,37.4572614279679));
#335=CARTESIAN_POINT('Ctrl Pts',(22.3206396970107,-11.2908026985764,35.2491721392408));
#336=CARTESIAN_POINT('Ctrl Pts',(22.7264936749741,-10.4629562779865,34.5562832076765));
#337=CARTESIAN_POINT('Ctrl Pts',(23.4781044966159,-8.64555250218529,33.3213966163242));
#338=CARTESIAN_POINT('Ctrl Pts',(23.8234504678706,-7.6558737057,32.7793276453986));
#339=CARTESIAN_POINT('Ctrl Pts',(24.3955067827571,-5.57031855292635,31.8986698930368));
#340=CARTESIAN_POINT('Ctrl Pts',(24.6224927498946,-4.47220077464454,31.5593554155539));
#341=CARTESIAN_POINT('Ctrl Pts',(24.9248251257624,-2.24071895737962,31.1099273925957));
#342=CARTESIAN_POINT('Ctrl Pts',(25.,-1.10729419358418,31.0000000011224));
#343=CARTESIAN_POINT('Ctrl Pts',(25.,-6.93889390390723E-017,31.0000000011224));
#344=CARTESIAN_POINT('',(25.,-6.123032E-015,65.000000001122));
#345=CARTESIAN_POINT('Ctrl Pts',(18.3303027798234,-17.,48.000000000823));
#346=CARTESIAN_POINT('Ctrl Pts',(18.3303027798234,-17.,49.1209846228473));
#347=CARTESIAN_POINT('Ctrl Pts',(18.4363299076962,-16.8876605561937,50.2578075335924));
#348=CARTESIAN_POINT('Ctrl Pts',(18.8391901941452,-16.4370390094021,52.4849218014281));
#349=CARTESIAN_POINT('Ctrl Pts',(19.1346855485966,-16.0990326325134,53.5755107219219));
#350=CARTESIAN_POINT('Ctrl Pts',(20.1894997484242,-14.7866175525082,56.684290014342));
#351=CARTESIAN_POINT('Ctrl Pts',(21.1097520224798,-13.4988919874237,58.5427385738569));
#352=CARTESIAN_POINT('Ctrl Pts',(22.3206396969668,-11.2908026986628,60.7508278626868));
#353=CARTESIAN_POINT('Ctrl Pts',(22.7264936749324,-10.4629562780772,61.4437167942939));
#354=CARTESIAN_POINT('Ctrl Pts',(23.4781044965816,-8.64555250227837,62.6786033857295));
#355=CARTESIAN_POINT('Ctrl Pts',(23.8234504678417,-7.6558737057911,63.2206723566954));
#356=CARTESIAN_POINT('Ctrl Pts',(24.3955067827393,-5.57031855300546,64.101330109127));
#357=CARTESIAN_POINT('Ctrl Pts',(24.6224927498828,-4.47220077471348,64.4406445866393));
#358=CARTESIAN_POINT('Ctrl Pts',(24.9248251257594,-2.24071895741994,64.8900726096381));
#359=CARTESIAN_POINT('Ctrl Pts',(25.,-1.10729419360603,65.0000000011224));
#360=CARTESIAN_POINT('Ctrl Pts',(25.,-2.0122792321331E-015,65.0000000011224));
#361=CARTESIAN_POINT('',(18.330302779823,17.,48.000000000823));
#362=CARTESIAN_POINT('Ctrl Pts',(25.,2.70616862252382E-015,65.0000000011224));
#363=CARTESIAN_POINT('Ctrl Pts',(25.,1.10729419360603,65.0000000011224));
#364=CARTESIAN_POINT('Ctrl Pts',(24.9248251257594,2.24071895741994,64.8900726096381));
#365=CARTESIAN_POINT('Ctrl Pts',(24.6224927498828,4.47220077471349,64.4406445866393));
#366=CARTESIAN_POINT('Ctrl Pts',(24.3955067827393,5.57031855300547,64.101330109127));
#367=CARTESIAN_POINT('Ctrl Pts',(23.8234504678417,7.65587370579111,63.2206723566954));
#368=CARTESIAN_POINT('Ctrl Pts',(23.4781044965816,8.64555250227837,62.6786033857295));
#369=CARTESIAN_POINT('Ctrl Pts',(22.7264936749324,10.4629562780772,61.4437167942939));
#370=CARTESIAN_POINT('Ctrl Pts',(22.3206396969668,11.2908026986628,60.7508278626868));
#371=CARTESIAN_POINT('Ctrl Pts',(21.1097520224798,13.4988919874237,58.5427385738569));
#372=CARTESIAN_POINT('Ctrl Pts',(20.1894997484242,14.7866175525082,56.684290014342));
#373=CARTESIAN_POINT('Ctrl Pts',(19.1346855485966,16.0990326325134,53.5755107219219));
#374=CARTESIAN_POINT('Ctrl Pts',(18.8391901941452,16.4370390094021,52.4849218014281));
#375=CARTESIAN_POINT('Ctrl Pts',(18.4363299076962,16.8876605561937,50.2578075335924));
#376=CARTESIAN_POINT('Ctrl Pts',(18.3303027798234,17.,49.1209846228473));
#377=CARTESIAN_POINT('Ctrl Pts',(18.3303027798234,17.,48.000000000823));
#378=CARTESIAN_POINT('Ctrl Pts',(25.,-4.02455846426619E-015,31.0000000011224));
#379=CARTESIAN_POINT('Ctrl Pts',(25.,1.10729419358417,31.0000000011224));
#380=CARTESIAN_POINT('Ctrl Pts',(24.9248251257624,2.24071895737962,31.1099273925957));
#381=CARTESIAN_POINT('Ctrl Pts',(24.6224927498946,4.47220077464454,31.5593554155539));
#382=CARTESIAN_POINT('Ctrl Pts',(24.3955067827571,5.57031855292635,31.8986698930368));
#383=CARTESIAN_POINT('Ctrl Pts',(23.8234504678706,7.65587370570001,32.7793276453986));
#384=CARTESIAN_POINT('Ctrl Pts',(23.4781044966159,8.6455525021853,33.3213966163242));
#385=CARTESIAN_POINT('Ctrl Pts',(22.7264936749741,10.4629562779865,34.5562832076765));
#386=CARTESIAN_POINT('Ctrl Pts',(22.3206396970107,11.2908026985764,35.2491721392408));
#387=CARTESIAN_POINT('Ctrl Pts',(21.1097520225148,13.4988919873726,37.4572614279679));
#388=CARTESIAN_POINT('Ctrl Pts',(20.1894997484417,14.7866175524854,39.3157099874254));
#389=CARTESIAN_POINT('Ctrl Pts',(19.1346855485994,16.0990326325104,42.4244892797849));
#390=CARTESIAN_POINT('Ctrl Pts',(18.839190194145,16.4370390094023,43.5150782002629));
#391=CARTESIAN_POINT('Ctrl Pts',(18.4363299076947,16.8876605561954,45.742192468073));
#392=CARTESIAN_POINT('Ctrl Pts',(18.3303027798234,17.,46.8790153788084));
#393=CARTESIAN_POINT('Ctrl Pts',(18.3303027798234,17.,48.000000000823));
#394=CARTESIAN_POINT('',(25.,-6.123032E-015,0.));
#395=CARTESIAN_POINT('Origin',(0.,0.,0.));
#396=CARTESIAN_POINT('',(-25.,-3.061516E-015,96.));
#397=CARTESIAN_POINT('Origin',(0.,0.,96.));
#398=CARTESIAN_POINT('Origin',(0.,0.,48.));
#399=CARTESIAN_POINT('',(40.9999999992368,-2.081831E-015,65.0000000018408));
#400=CARTESIAN_POINT('Origin',(41.,0.,48.000000001841));
#401=CARTESIAN_POINT('Origin',(0.,0.,83.));
#402=CARTESIAN_POINT('',(-20.,-2.449213E-015,96.));
#403=CARTESIAN_POINT('Origin',(0.,0.,96.));
#404=CARTESIAN_POINT('',(-20.,-2.449213E-015,70.));
#405=CARTESIAN_POINT('Origin',(0.,0.,70.));
#406=CARTESIAN_POINT('Origin',(31.5,0.,48.0000000014146));
#407=CARTESIAN_POINT('',(40.9999999994388,-1.530758E-015,60.5000000018411));
#408=CARTESIAN_POINT('Origin',(41.,0.,48.000000001841));
#409=CARTESIAN_POINT('',(21.9999999994388,-1.530758E-015,60.500000000988));
#410=CARTESIAN_POINT('Origin',(22.,0.,48.000000000988));
#411=CARTESIAN_POINT('Origin',(0.,0.,0.));
#412=CARTESIAN_POINT('Origin',(0.,0.,26.));
#413=CARTESIAN_POINT('Origin',(0.,0.,96.));
#414=CARTESIAN_POINT('Origin',(41.,0.,48.000000001841));
#415=CARTESIAN_POINT('Origin',(0.,0.,70.));
#416=CARTESIAN_POINT('Origin',(22.,0.,48.000000000988));
#417=UNCERTAINTY_MEASURE_WITH_UNIT(LENGTH_MEASURE(0.01),#419,
'DISTANCE_ACCURACY_VALUE',
'Maximum model space distance between geometric entities at asserted c
onnectivities');
#418=(
GEOMETRIC_REPRESENTATION_CONTEXT(3)
GLOBAL_UNCERTAINTY_ASSIGNED_CONTEXT((#417))
GLOBAL_UNIT_ASSIGNED_CONTEXT((#419,#422,#420))
REPRESENTATION_CONTEXT('','3D')
);
#419=(
LENGTH_UNIT()
NAMED_UNIT(*)
SI_UNIT(.MILLI.,.METRE.)
);
#420=(
NAMED_UNIT(*)
SI_UNIT($,.STERADIAN.)
SOLID_ANGLE_UNIT()
);
#421=DIMENSIONAL_EXPONENTS(0.,0.,0.,0.,0.,0.,0.);
#422=(
CONVERSION_BASED_UNIT('degree',#424)
NAMED_UNIT(#421)
PLANE_ANGLE_UNIT()
);
#423=(
NAMED_UNIT(*)
PLANE_ANGLE_UNIT()
SI_UNIT($,.RADIAN.)
);
#424=PLANE_ANGLE_MEASURE_WITH_UNIT(PLANE_ANGLE_MEASURE(0.01745329252),#423);
#425=SHAPE_DEFINITION_REPRESENTATION(#426,#427);
#426=PRODUCT_DEFINITION_SHAPE('',$,#429);
#427=SHAPE_REPRESENTATION('',(#182),#418);
#428=PRODUCT_DEFINITION_CONTEXT('3D Mechanical Parts',#432,'design');
#429=PRODUCT_DEFINITION('TRIV040025','TRIV040025',#430,#428);
#430=PRODUCT_DEFINITION_FORMATION('',$,#434);
#431=APPLICATION_PROTOCOL_DEFINITION('international standard',
'automotive_design',2009,#432);
#432=APPLICATION_CONTEXT(
'Core Data for Automotive Mechanical Design Process');
#433=PRODUCT_CONTEXT('3D Mechanical Parts',#432,'mechanical');
#434=PRODUCT('TRIV040025','TRIV040025',$,(#433));
#435=PRESENTATION_STYLE_ASSIGNMENT((#436));
#436=SURFACE_STYLE_USAGE(.BOTH.,#437);
#437=SURFACE_SIDE_STYLE($,(#438));
#438=SURFACE_STYLE_FILL_AREA(#439);
#439=FILL_AREA_STYLE($,(#440));
#440=FILL_AREA_STYLE_COLOUR($,#441);
#441=COLOUR_RGB('',0.509803921568627,0.509803921568627,0.588235294117647);
ENDSEC;
END-ISO-10303-21;
