ISO-10303-21;
HEADER;
/* Generated by software containing ST-Developer
 * from STEP Tools, Inc. (www.steptools.com) 
 */

FILE_DESCRIPTION(
/* description */ (''),
/* implementation_level */ '2;1');

FILE_NAME(
/* name */ 
'Q:\\Ric010\\FF7\\FIPlastiCAD\\FIP\\Lavoro\\PVC Fittings\\PVC Fittings
 STEP\\QRV\\QRV063.ipt.stp',
/* time_stamp */ '2013-10-01T14:53:04+02:00',
/* author */ ('bfaro'),
/* organization */ (''),
/* preprocessor_version */ 'ST-DEVELOPER v15.2',
/* originating_system */ 'Autodesk Inventor 2014',
/* authorisation */ '');

FILE_SCHEMA (('AUTOMOTIVE_DESIGN { 1 0 10303 214 3 1 1 }'));
ENDSEC;

DATA;
#10=SHAPE_REPRESENTATION_RELATIONSHIP('SRR','None',#369,#11);
#11=ADVANCED_BREP_SHAPE_REPRESENTATION($,(#201),#360);
#12=STYLED_ITEM($,(#377),#201);
#13=CONICAL_SURFACE($,#226,36.8474515098364,22.4999999999999);
#14=CONICAL_SURFACE($,#228,37.468771853396,22.5000000000002);
#15=CONICAL_SURFACE($,#230,38.0900921969557,22.4999999999999);
#16=CONICAL_SURFACE($,#232,38.7114125405153,22.5000000000002);
#17=CONICAL_SURFACE($,#234,39.332732884075,22.5000000000005);
#18=CONICAL_SURFACE($,#236,39.9540532276346,22.4999999999999);
#19=TOROIDAL_SURFACE($,#210,40.,2.00000000000001);
#20=TOROIDAL_SURFACE($,#214,37.5,0.499999999999998);
#21=CYLINDRICAL_SURFACE($,#206,45.);
#22=CYLINDRICAL_SURFACE($,#212,38.);
#23=CYLINDRICAL_SURFACE($,#218,31.5);
#24=CYLINDRICAL_SURFACE($,#222,25.);
#25=FACE_BOUND($,#60,.T.);
#26=FACE_BOUND($,#62,.T.);
#27=FACE_BOUND($,#63,.T.);
#28=FACE_BOUND($,#64,.T.);
#29=FACE_BOUND($,#66,.T.);
#30=FACE_BOUND($,#68,.T.);
#31=FACE_BOUND($,#70,.T.);
#32=FACE_BOUND($,#71,.T.);
#33=FACE_BOUND($,#72,.T.);
#34=FACE_BOUND($,#74,.T.);
#35=FACE_BOUND($,#75,.T.);
#36=FACE_BOUND($,#76,.T.);
#37=FACE_BOUND($,#78,.T.);
#38=FACE_BOUND($,#80,.T.);
#39=FACE_BOUND($,#82,.T.);
#40=FACE_BOUND($,#84,.T.);
#41=FACE_BOUND($,#86,.T.);
#42=FACE_BOUND($,#88,.T.);
#43=FACE_BOUND($,#90,.T.);
#44=FACE_BOUND($,#92,.T.);
#45=FACE_OUTER_BOUND($,#59,.T.);
#46=FACE_OUTER_BOUND($,#61,.T.);
#47=FACE_OUTER_BOUND($,#65,.T.);
#48=FACE_OUTER_BOUND($,#67,.T.);
#49=FACE_OUTER_BOUND($,#69,.T.);
#50=FACE_OUTER_BOUND($,#73,.T.);
#51=FACE_OUTER_BOUND($,#77,.T.);
#52=FACE_OUTER_BOUND($,#79,.T.);
#53=FACE_OUTER_BOUND($,#81,.T.);
#54=FACE_OUTER_BOUND($,#83,.T.);
#55=FACE_OUTER_BOUND($,#85,.T.);
#56=FACE_OUTER_BOUND($,#87,.T.);
#57=FACE_OUTER_BOUND($,#89,.T.);
#58=FACE_OUTER_BOUND($,#91,.T.);
#59=EDGE_LOOP($,(#144));
#60=EDGE_LOOP($,(#145));
#61=EDGE_LOOP($,(#146));
#62=EDGE_LOOP($,(#147));
#63=EDGE_LOOP($,(#148));
#64=EDGE_LOOP($,(#149));
#65=EDGE_LOOP($,(#150));
#66=EDGE_LOOP($,(#151));
#67=EDGE_LOOP($,(#152));
#68=EDGE_LOOP($,(#153));
#69=EDGE_LOOP($,(#154));
#70=EDGE_LOOP($,(#155));
#71=EDGE_LOOP($,(#156));
#72=EDGE_LOOP($,(#157));
#73=EDGE_LOOP($,(#158));
#74=EDGE_LOOP($,(#159));
#75=EDGE_LOOP($,(#160));
#76=EDGE_LOOP($,(#161));
#77=EDGE_LOOP($,(#162));
#78=EDGE_LOOP($,(#163));
#79=EDGE_LOOP($,(#164));
#80=EDGE_LOOP($,(#165));
#81=EDGE_LOOP($,(#166));
#82=EDGE_LOOP($,(#167));
#83=EDGE_LOOP($,(#168));
#84=EDGE_LOOP($,(#169));
#85=EDGE_LOOP($,(#170));
#86=EDGE_LOOP($,(#171));
#87=EDGE_LOOP($,(#172));
#88=EDGE_LOOP($,(#173));
#89=EDGE_LOOP($,(#174));
#90=EDGE_LOOP($,(#175));
#91=EDGE_LOOP($,(#176));
#92=EDGE_LOOP($,(#177));
#93=CIRCLE($,#204,45.);
#94=CIRCLE($,#205,40.2647133994144);
#95=CIRCLE($,#207,45.);
#96=CIRCLE($,#209,40.);
#97=CIRCLE($,#211,38.);
#98=CIRCLE($,#213,38.);
#99=CIRCLE($,#215,37.5);
#100=CIRCLE($,#217,31.5);
#101=CIRCLE($,#219,31.5);
#102=CIRCLE($,#221,25.);
#103=CIRCLE($,#223,25.);
#104=CIRCLE($,#225,36.5367913380566);
#105=CIRCLE($,#227,37.1581116816162);
#106=CIRCLE($,#229,37.7794320251758);
#107=CIRCLE($,#231,38.4007523687355);
#108=CIRCLE($,#233,39.0220727122951);
#109=CIRCLE($,#235,39.6433930558548);
#110=VERTEX_POINT($,#309);
#111=VERTEX_POINT($,#311);
#112=VERTEX_POINT($,#314);
#113=VERTEX_POINT($,#317);
#114=VERTEX_POINT($,#320);
#115=VERTEX_POINT($,#323);
#116=VERTEX_POINT($,#326);
#117=VERTEX_POINT($,#329);
#118=VERTEX_POINT($,#332);
#119=VERTEX_POINT($,#335);
#120=VERTEX_POINT($,#338);
#121=VERTEX_POINT($,#341);
#122=VERTEX_POINT($,#344);
#123=VERTEX_POINT($,#347);
#124=VERTEX_POINT($,#350);
#125=VERTEX_POINT($,#353);
#126=VERTEX_POINT($,#356);
#127=EDGE_CURVE($,#110,#110,#93,.T.);
#128=EDGE_CURVE($,#111,#111,#94,.T.);
#129=EDGE_CURVE($,#112,#112,#95,.T.);
#130=EDGE_CURVE($,#113,#113,#96,.T.);
#131=EDGE_CURVE($,#114,#114,#97,.T.);
#132=EDGE_CURVE($,#115,#115,#98,.T.);
#133=EDGE_CURVE($,#116,#116,#99,.T.);
#134=EDGE_CURVE($,#117,#117,#100,.T.);
#135=EDGE_CURVE($,#118,#118,#101,.T.);
#136=EDGE_CURVE($,#119,#119,#102,.T.);
#137=EDGE_CURVE($,#120,#120,#103,.T.);
#138=EDGE_CURVE($,#121,#121,#104,.T.);
#139=EDGE_CURVE($,#122,#122,#105,.T.);
#140=EDGE_CURVE($,#123,#123,#106,.T.);
#141=EDGE_CURVE($,#124,#124,#107,.T.);
#142=EDGE_CURVE($,#125,#125,#108,.T.);
#143=EDGE_CURVE($,#126,#126,#109,.T.);
#144=ORIENTED_EDGE($,*,*,#127,.F.);
#145=ORIENTED_EDGE($,*,*,#128,.T.);
#146=ORIENTED_EDGE($,*,*,#129,.F.);
#147=ORIENTED_EDGE($,*,*,#127,.T.);
#148=ORIENTED_EDGE($,*,*,#130,.F.);
#149=ORIENTED_EDGE($,*,*,#129,.T.);
#150=ORIENTED_EDGE($,*,*,#131,.F.);
#151=ORIENTED_EDGE($,*,*,#130,.T.);
#152=ORIENTED_EDGE($,*,*,#132,.F.);
#153=ORIENTED_EDGE($,*,*,#131,.T.);
#154=ORIENTED_EDGE($,*,*,#133,.F.);
#155=ORIENTED_EDGE($,*,*,#132,.T.);
#156=ORIENTED_EDGE($,*,*,#134,.F.);
#157=ORIENTED_EDGE($,*,*,#133,.T.);
#158=ORIENTED_EDGE($,*,*,#135,.F.);
#159=ORIENTED_EDGE($,*,*,#134,.T.);
#160=ORIENTED_EDGE($,*,*,#136,.F.);
#161=ORIENTED_EDGE($,*,*,#135,.T.);
#162=ORIENTED_EDGE($,*,*,#137,.F.);
#163=ORIENTED_EDGE($,*,*,#136,.T.);
#164=ORIENTED_EDGE($,*,*,#138,.F.);
#165=ORIENTED_EDGE($,*,*,#137,.T.);
#166=ORIENTED_EDGE($,*,*,#139,.F.);
#167=ORIENTED_EDGE($,*,*,#138,.T.);
#168=ORIENTED_EDGE($,*,*,#140,.F.);
#169=ORIENTED_EDGE($,*,*,#139,.T.);
#170=ORIENTED_EDGE($,*,*,#141,.F.);
#171=ORIENTED_EDGE($,*,*,#140,.T.);
#172=ORIENTED_EDGE($,*,*,#142,.F.);
#173=ORIENTED_EDGE($,*,*,#141,.T.);
#174=ORIENTED_EDGE($,*,*,#143,.F.);
#175=ORIENTED_EDGE($,*,*,#142,.T.);
#176=ORIENTED_EDGE($,*,*,#128,.F.);
#177=ORIENTED_EDGE($,*,*,#143,.T.);
#178=PLANE($,#203);
#179=PLANE($,#208);
#180=PLANE($,#216);
#181=PLANE($,#220);
#182=PLANE($,#224);
#183=ADVANCED_FACE($,(#45,#25),#178,.T.);
#184=ADVANCED_FACE($,(#46,#26),#21,.T.);
#185=ADVANCED_FACE($,(#27,#28),#179,.T.);
#186=ADVANCED_FACE($,(#47,#29),#19,.F.);
#187=ADVANCED_FACE($,(#48,#30),#22,.T.);
#188=ADVANCED_FACE($,(#49,#31),#20,.T.);
#189=ADVANCED_FACE($,(#32,#33),#180,.T.);
#190=ADVANCED_FACE($,(#50,#34),#23,.F.);
#191=ADVANCED_FACE($,(#35,#36),#181,.T.);
#192=ADVANCED_FACE($,(#51,#37),#24,.F.);
#193=ADVANCED_FACE($,(#52,#38),#182,.T.);
#194=ADVANCED_FACE($,(#53,#39),#13,.T.);
#195=ADVANCED_FACE($,(#54,#40),#14,.F.);
#196=ADVANCED_FACE($,(#55,#41),#15,.T.);
#197=ADVANCED_FACE($,(#56,#42),#16,.F.);
#198=ADVANCED_FACE($,(#57,#43),#17,.T.);
#199=ADVANCED_FACE($,(#58,#44),#18,.F.);
#200=CLOSED_SHELL($,(#183,#184,#185,#186,#187,#188,#189,#190,#191,#192,
#193,#194,#195,#196,#197,#198,#199));
#201=MANIFOLD_SOLID_BREP('Solido1',#200);
#202=AXIS2_PLACEMENT_3D('placement',#307,#237,#238);
#203=AXIS2_PLACEMENT_3D($,#308,#239,#240);
#204=AXIS2_PLACEMENT_3D($,#310,#241,#242);
#205=AXIS2_PLACEMENT_3D($,#312,#243,#244);
#206=AXIS2_PLACEMENT_3D($,#313,#245,#246);
#207=AXIS2_PLACEMENT_3D($,#315,#247,#248);
#208=AXIS2_PLACEMENT_3D($,#316,#249,#250);
#209=AXIS2_PLACEMENT_3D($,#318,#251,#252);
#210=AXIS2_PLACEMENT_3D($,#319,#253,#254);
#211=AXIS2_PLACEMENT_3D($,#321,#255,#256);
#212=AXIS2_PLACEMENT_3D($,#322,#257,#258);
#213=AXIS2_PLACEMENT_3D($,#324,#259,#260);
#214=AXIS2_PLACEMENT_3D($,#325,#261,#262);
#215=AXIS2_PLACEMENT_3D($,#327,#263,#264);
#216=AXIS2_PLACEMENT_3D($,#328,#265,#266);
#217=AXIS2_PLACEMENT_3D($,#330,#267,#268);
#218=AXIS2_PLACEMENT_3D($,#331,#269,#270);
#219=AXIS2_PLACEMENT_3D($,#333,#271,#272);
#220=AXIS2_PLACEMENT_3D($,#334,#273,#274);
#221=AXIS2_PLACEMENT_3D($,#336,#275,#276);
#222=AXIS2_PLACEMENT_3D($,#337,#277,#278);
#223=AXIS2_PLACEMENT_3D($,#339,#279,#280);
#224=AXIS2_PLACEMENT_3D($,#340,#281,#282);
#225=AXIS2_PLACEMENT_3D($,#342,#283,#284);
#226=AXIS2_PLACEMENT_3D($,#343,#285,#286);
#227=AXIS2_PLACEMENT_3D($,#345,#287,#288);
#228=AXIS2_PLACEMENT_3D($,#346,#289,#290);
#229=AXIS2_PLACEMENT_3D($,#348,#291,#292);
#230=AXIS2_PLACEMENT_3D($,#349,#293,#294);
#231=AXIS2_PLACEMENT_3D($,#351,#295,#296);
#232=AXIS2_PLACEMENT_3D($,#352,#297,#298);
#233=AXIS2_PLACEMENT_3D($,#354,#299,#300);
#234=AXIS2_PLACEMENT_3D($,#355,#301,#302);
#235=AXIS2_PLACEMENT_3D($,#357,#303,#304);
#236=AXIS2_PLACEMENT_3D($,#358,#305,#306);
#237=DIRECTION('axis',(0.,0.,1.));
#238=DIRECTION('refdir',(1.,0.,0.));
#239=DIRECTION('center_axis',(0.,0.,-1.));
#240=DIRECTION('ref_axis',(-1.,0.,0.));
#241=DIRECTION('center_axis',(0.,0.,1.));
#242=DIRECTION('ref_axis',(0.,-1.,0.));
#243=DIRECTION('center_axis',(0.,0.,1.));
#244=DIRECTION('ref_axis',(0.,-1.,0.));
#245=DIRECTION('center_axis',(0.,0.,1.));
#246=DIRECTION('ref_axis',(0.,-1.,0.));
#247=DIRECTION('center_axis',(0.,0.,1.));
#248=DIRECTION('ref_axis',(0.,-1.,0.));
#249=DIRECTION('center_axis',(0.,0.,1.));
#250=DIRECTION('ref_axis',(1.,0.,0.));
#251=DIRECTION('center_axis',(0.,0.,1.));
#252=DIRECTION('ref_axis',(0.,-1.,0.));
#253=DIRECTION('center_axis',(0.,0.,1.));
#254=DIRECTION('ref_axis',(1.,0.,0.));
#255=DIRECTION('center_axis',(0.,0.,1.));
#256=DIRECTION('ref_axis',(0.,-1.,0.));
#257=DIRECTION('center_axis',(0.,0.,1.));
#258=DIRECTION('ref_axis',(0.,-1.,0.));
#259=DIRECTION('center_axis',(0.,0.,1.));
#260=DIRECTION('ref_axis',(0.,-1.,0.));
#261=DIRECTION('center_axis',(0.,0.,1.));
#262=DIRECTION('ref_axis',(1.,0.,0.));
#263=DIRECTION('center_axis',(0.,0.,1.));
#264=DIRECTION('ref_axis',(0.,-1.,0.));
#265=DIRECTION('center_axis',(0.,0.,1.));
#266=DIRECTION('ref_axis',(1.,0.,0.));
#267=DIRECTION('center_axis',(0.,0.,1.));
#268=DIRECTION('ref_axis',(0.,-1.,0.));
#269=DIRECTION('center_axis',(0.,0.,1.));
#270=DIRECTION('ref_axis',(0.,-1.,0.));
#271=DIRECTION('center_axis',(0.,0.,1.));
#272=DIRECTION('ref_axis',(0.,-1.,0.));
#273=DIRECTION('center_axis',(0.,0.,1.));
#274=DIRECTION('ref_axis',(1.,0.,0.));
#275=DIRECTION('center_axis',(0.,0.,1.));
#276=DIRECTION('ref_axis',(0.,-1.,0.));
#277=DIRECTION('center_axis',(0.,0.,1.));
#278=DIRECTION('ref_axis',(0.,-1.,0.));
#279=DIRECTION('center_axis',(0.,0.,1.));
#280=DIRECTION('ref_axis',(0.,-1.,0.));
#281=DIRECTION('center_axis',(0.,0.,-1.));
#282=DIRECTION('ref_axis',(-1.,0.,0.));
#283=DIRECTION('center_axis',(0.,0.,1.));
#284=DIRECTION('ref_axis',(0.,-1.,0.));
#285=DIRECTION('center_axis',(0.,0.,1.));
#286=DIRECTION('ref_axis',(0.,-1.,0.));
#287=DIRECTION('center_axis',(0.,0.,1.));
#288=DIRECTION('ref_axis',(0.,-1.,0.));
#289=DIRECTION('center_axis',(0.,0.,-1.));
#290=DIRECTION('ref_axis',(0.,-1.,0.));
#291=DIRECTION('center_axis',(0.,0.,1.));
#292=DIRECTION('ref_axis',(0.,-1.,0.));
#293=DIRECTION('center_axis',(0.,0.,1.));
#294=DIRECTION('ref_axis',(0.,-1.,0.));
#295=DIRECTION('center_axis',(0.,0.,1.));
#296=DIRECTION('ref_axis',(0.,-1.,0.));
#297=DIRECTION('center_axis',(0.,0.,-1.));
#298=DIRECTION('ref_axis',(0.,-1.,0.));
#299=DIRECTION('center_axis',(0.,0.,1.));
#300=DIRECTION('ref_axis',(0.,-1.,0.));
#301=DIRECTION('center_axis',(0.,0.,1.));
#302=DIRECTION('ref_axis',(0.,-1.,0.));
#303=DIRECTION('center_axis',(0.,0.,1.));
#304=DIRECTION('ref_axis',(0.,-1.,0.));
#305=DIRECTION('center_axis',(0.,0.,-1.));
#306=DIRECTION('ref_axis',(0.,-1.,0.));
#307=CARTESIAN_POINT('',(0.,0.,0.));
#308=CARTESIAN_POINT('Origin',(0.,-42.6323566997072,-2.34605250375751E-014));
#309=CARTESIAN_POINT('',(0.,-45.,-1.0547118733939E-014));
#310=CARTESIAN_POINT('Origin',(0.,0.,-1.0547118733939E-014));
#311=CARTESIAN_POINT('',(0.,-40.2647133994144,-3.63739313412112E-014));
#312=CARTESIAN_POINT('Origin',(0.,0.,-3.63738986847162E-014));
#313=CARTESIAN_POINT('Origin',(0.,0.,4.49999999999999));
#314=CARTESIAN_POINT('',(0.,-45.,8.99999999999999));
#315=CARTESIAN_POINT('Origin',(0.,0.,8.99999999999999));
#316=CARTESIAN_POINT('Origin',(0.,-42.5,8.99999999999999));
#317=CARTESIAN_POINT('',(0.,-40.,8.99999999999999));
#318=CARTESIAN_POINT('Origin',(0.,0.,8.99999999999999));
#319=CARTESIAN_POINT('Origin',(0.,0.,11.));
#320=CARTESIAN_POINT('',(0.,-38.,11.));
#321=CARTESIAN_POINT('Origin',(0.,0.,11.));
#322=CARTESIAN_POINT('Origin',(0.,0.,25.75));
#323=CARTESIAN_POINT('',(0.,-38.,40.5));
#324=CARTESIAN_POINT('Origin',(0.,0.,40.5));
#325=CARTESIAN_POINT('Origin',(0.,0.,40.5));
#326=CARTESIAN_POINT('',(0.,-37.5,41.));
#327=CARTESIAN_POINT('Origin',(0.,0.,41.));
#328=CARTESIAN_POINT('Origin',(0.,-34.5,41.));
#329=CARTESIAN_POINT('',(0.,-31.5,41.));
#330=CARTESIAN_POINT('Origin',(0.,0.,41.));
#331=CARTESIAN_POINT('Origin',(0.,0.,22.));
#332=CARTESIAN_POINT('',(0.,-31.5,2.99999999999997));
#333=CARTESIAN_POINT('Origin',(0.,0.,2.99999999999997));
#334=CARTESIAN_POINT('Origin',(0.,-28.25,2.99999999999996));
#335=CARTESIAN_POINT('',(0.,-25.,2.99999999999996));
#336=CARTESIAN_POINT('Origin',(0.,0.,2.99999999999996));
#337=CARTESIAN_POINT('Origin',(0.,0.,1.49999999999996));
#338=CARTESIAN_POINT('',(0.,-25.,-3.16163180645992E-014));
#339=CARTESIAN_POINT('Origin',(0.,0.,-3.16164195518498E-014));
#340=CARTESIAN_POINT('Origin',(0.,-30.7683956690283,-3.35787910686708E-014));
#341=CARTESIAN_POINT('',(0.,-36.5367913380566,-3.55412640727423E-014));
#342=CARTESIAN_POINT('Origin',(0.,0.,-3.55412314162473E-014));
#343=CARTESIAN_POINT('Origin',(0.,0.,0.749999999999964));
#344=CARTESIAN_POINT('',(0.,-37.1581116816162,1.49999999999996));
#345=CARTESIAN_POINT('Origin',(0.,0.,1.49999999999996));
#346=CARTESIAN_POINT('Origin',(0.,0.,0.749999999999964));
#347=CARTESIAN_POINT('',(0.,-37.7794320251758,-3.63739313412112E-014));
#348=CARTESIAN_POINT('Origin',(0.,0.,-3.63738986847162E-014));
#349=CARTESIAN_POINT('Origin',(0.,0.,0.749999999999964));
#350=CARTESIAN_POINT('',(0.,-38.4007523687355,1.49999999999996));
#351=CARTESIAN_POINT('Origin',(0.,0.,1.49999999999996));
#352=CARTESIAN_POINT('Origin',(0.,0.,0.749999999999964));
#353=CARTESIAN_POINT('',(0.,-39.0220727122951,-3.63739313412112E-014));
#354=CARTESIAN_POINT('Origin',(0.,0.,-3.63738986847162E-014));
#355=CARTESIAN_POINT('Origin',(0.,0.,0.749999999999964));
#356=CARTESIAN_POINT('',(0.,-39.6433930558548,1.49999999999996));
#357=CARTESIAN_POINT('Origin',(0.,0.,1.49999999999996));
#358=CARTESIAN_POINT('Origin',(0.,0.,0.749999999999964));
#359=UNCERTAINTY_MEASURE_WITH_UNIT(LENGTH_MEASURE(0.01),#361,
'DISTANCE_ACCURACY_VALUE',
'Maximum model space distance between geometric entities at asserted c
onnectivities');
#360=(
GEOMETRIC_REPRESENTATION_CONTEXT(3)
GLOBAL_UNCERTAINTY_ASSIGNED_CONTEXT((#359))
GLOBAL_UNIT_ASSIGNED_CONTEXT((#361,#364,#362))
REPRESENTATION_CONTEXT('','3D')
);
#361=(
LENGTH_UNIT()
NAMED_UNIT(*)
SI_UNIT(.MILLI.,.METRE.)
);
#362=(
NAMED_UNIT(*)
SI_UNIT($,.STERADIAN.)
SOLID_ANGLE_UNIT()
);
#363=DIMENSIONAL_EXPONENTS(0.,0.,0.,0.,0.,0.,0.);
#364=(
CONVERSION_BASED_UNIT('degree',#366)
NAMED_UNIT(#363)
PLANE_ANGLE_UNIT()
);
#365=(
NAMED_UNIT(*)
PLANE_ANGLE_UNIT()
SI_UNIT($,.RADIAN.)
);
#366=PLANE_ANGLE_MEASURE_WITH_UNIT(PLANE_ANGLE_MEASURE(0.01745329252),#365);
#367=SHAPE_DEFINITION_REPRESENTATION(#368,#369);
#368=PRODUCT_DEFINITION_SHAPE('',$,#371);
#369=SHAPE_REPRESENTATION('',(#202),#360);
#370=PRODUCT_DEFINITION_CONTEXT('3D Mechanical Parts',#374,'design');
#371=PRODUCT_DEFINITION('QRV063','QRV063',#372,#370);
#372=PRODUCT_DEFINITION_FORMATION('',$,#376);
#373=APPLICATION_PROTOCOL_DEFINITION('international standard',
'automotive_design',2009,#374);
#374=APPLICATION_CONTEXT(
'Core Data for Automotive Mechanical Design Process');
#375=PRODUCT_CONTEXT('3D Mechanical Parts',#374,'mechanical');
#376=PRODUCT('QRV063','QRV063',$,(#375));
#377=PRESENTATION_STYLE_ASSIGNMENT((#378));
#378=SURFACE_STYLE_USAGE(.BOTH.,#379);
#379=SURFACE_SIDE_STYLE($,(#380));
#380=SURFACE_STYLE_FILL_AREA(#381);
#381=FILL_AREA_STYLE($,(#382));
#382=FILL_AREA_STYLE_COLOUR($,#383);
#383=COLOUR_RGB('',0.509803921568627,0.509803921568627,0.588235294117647);
ENDSEC;
END-ISO-10303-21;
