ISO-10303-21;
HEADER;
/* Generated by software containing ST-Developer
 * from STEP Tools, Inc. (www.steptools.com) 
 */

FILE_DESCRIPTION(
/* description */ (''),
/* implementation_level */ '2;1');

FILE_NAME(
/* name */ 
'Q:\\Ric010\\FF7\\FIPlastiCAD\\FIP\\Lavoro\\PVC Fittings\\PVC Fittings
 STEP\\TRIV\\TRIV032025.ipt.stp',
/* time_stamp */ '2013-10-01T14:56:22+02:00',
/* author */ ('bfaro'),
/* organization */ (''),
/* preprocessor_version */ 'ST-DEVELOPER v15.2',
/* originating_system */ 'Autodesk Inventor 2014',
/* authorisation */ '');

FILE_SCHEMA (('AUTOMOTIVE_DESIGN { 1 0 10303 214 3 1 1 }'));
ENDSEC;

DATA;
#10=SHAPE_REPRESENTATION_RELATIONSHIP('SRR','None',#435,#11);
#11=ADVANCED_BREP_SHAPE_REPRESENTATION($,(#181),#426);
#12=STYLED_ITEM($,(#443),#181);
#13=PLANE($,#202);
#14=PLANE($,#203);
#15=PLANE($,#204);
#16=PLANE($,#205);
#17=PLANE($,#206);
#18=PLANE($,#207);
#19=FACE_BOUND($,#60,.T.);
#20=FACE_BOUND($,#61,.T.);
#21=FACE_BOUND($,#62,.T.);
#22=FACE_BOUND($,#63,.T.);
#23=FACE_BOUND($,#65,.T.);
#24=FACE_BOUND($,#66,.T.);
#25=FACE_BOUND($,#67,.T.);
#26=FACE_BOUND($,#68,.T.);
#27=FACE_BOUND($,#70,.T.);
#28=FACE_BOUND($,#72,.T.);
#29=FACE_BOUND($,#74,.T.);
#30=FACE_BOUND($,#76,.T.);
#31=FACE_BOUND($,#77,.T.);
#32=FACE_BOUND($,#78,.T.);
#33=FACE_BOUND($,#80,.T.);
#34=FACE_BOUND($,#82,.T.);
#35=FACE_BOUND($,#83,.T.);
#36=FACE_BOUND($,#84,.T.);
#37=FACE_BOUND($,#85,.T.);
#38=FACE_BOUND($,#86,.T.);
#39=CIRCLE($,#184,12.);
#40=CIRCLE($,#186,15.5);
#41=CIRCLE($,#187,15.5);
#42=CIRCLE($,#189,16.);
#43=CIRCLE($,#190,16.);
#44=CIRCLE($,#192,20.5);
#45=CIRCLE($,#193,20.5);
#46=CIRCLE($,#195,17.);
#47=CIRCLE($,#197,16.);
#48=CIRCLE($,#198,16.);
#49=CIRCLE($,#200,12.5);
#50=CIRCLE($,#201,12.5);
#51=FACE_OUTER_BOUND($,#59,.T.);
#52=FACE_OUTER_BOUND($,#64,.T.);
#53=FACE_OUTER_BOUND($,#69,.T.);
#54=FACE_OUTER_BOUND($,#71,.T.);
#55=FACE_OUTER_BOUND($,#73,.T.);
#56=FACE_OUTER_BOUND($,#75,.T.);
#57=FACE_OUTER_BOUND($,#79,.T.);
#58=FACE_OUTER_BOUND($,#81,.T.);
#59=EDGE_LOOP($,(#126));
#60=EDGE_LOOP($,(#127));
#61=EDGE_LOOP($,(#128));
#62=EDGE_LOOP($,(#129));
#63=EDGE_LOOP($,(#130));
#64=EDGE_LOOP($,(#131));
#65=EDGE_LOOP($,(#132));
#66=EDGE_LOOP($,(#133,#134,#135,#136));
#67=EDGE_LOOP($,(#137));
#68=EDGE_LOOP($,(#138));
#69=EDGE_LOOP($,(#139,#140,#141,#142));
#70=EDGE_LOOP($,(#143));
#71=EDGE_LOOP($,(#144));
#72=EDGE_LOOP($,(#145));
#73=EDGE_LOOP($,(#146));
#74=EDGE_LOOP($,(#147));
#75=EDGE_LOOP($,(#148));
#76=EDGE_LOOP($,(#149));
#77=EDGE_LOOP($,(#150));
#78=EDGE_LOOP($,(#151));
#79=EDGE_LOOP($,(#152));
#80=EDGE_LOOP($,(#153));
#81=EDGE_LOOP($,(#154));
#82=EDGE_LOOP($,(#155));
#83=EDGE_LOOP($,(#156));
#84=EDGE_LOOP($,(#157));
#85=EDGE_LOOP($,(#158));
#86=EDGE_LOOP($,(#159));
#87=B_SPLINE_CURVE_WITH_KNOTS($,3,(#263,#264,#265,#266,#267,#268,#269,#270,
#271,#272,#273,#274,#275,#276,#277,#278,#279,#280,#281,#282,#283,#284,#285,
#286,#287,#288,#289,#290,#291,#292,#293,#294,#295,#296,#297,#298,#299,#300,
#301,#302,#303,#304,#305,#306,#307,#308,#309,#310,#311,#312),
 .UNSPECIFIED.,.T.,.F.,(4,2,2,2,2,2,2,2,2,2,2,2,2,2,2,2,2,2,2,2,2,2,2,2,
4),(0.,0.243674869047111,0.487349738094221,0.974699476188442,1.44967469683745,
1.68716230716195,1.92464991748646,2.16213752781096,2.39962513813546,2.87460035878447,
3.36195009687869,3.6056249659258,3.84929983497291,4.09297470401347,4.33664957305403,
4.82399931113515,5.29897453178112,5.5364621421041,5.77394975242709,6.0114373627514,
6.24892497307571,6.72390019372433,7.21124993180274,7.45492480084194,7.69859966988115),
 .UNSPECIFIED.);
#88=B_SPLINE_CURVE_WITH_KNOTS($,3,(#328,#329,#330,#331,#332,#333,#334,#335,
#336,#337,#338,#339,#340,#341,#342,#343,#344,#345),.UNSPECIFIED.,.F.,.F.,
(4,2,2,2,2,2,2,2,4),(5.54165485217013,5.89495358744341,6.24825232271668,
6.60155105798996,6.95484979326323,7.29425791449864,7.63366603573404,7.97307415696944,
8.31248227820484),.UNSPECIFIED.);
#89=B_SPLINE_CURVE_WITH_KNOTS($,3,(#347,#348,#349,#350,#351,#352,#353,#354,
#355,#356,#357,#358,#359,#360,#361,#362,#363,#364),.UNSPECIFIED.,.F.,.F.,
(4,2,2,2,2,2,2,2,4),(-5.54165485217013,-5.18835611689075,-4.83505738161137,
-4.481758646332,-4.12845991105262,-3.78905178981073,-3.44964366856883,-3.11023554732694,
-2.77082742608505),.UNSPECIFIED.);
#90=B_SPLINE_CURVE_WITH_KNOTS($,3,(#366,#367,#368,#369,#370,#371,#372,#373,
#374,#375,#376,#377,#378,#379,#380,#381,#382,#383),.UNSPECIFIED.,.F.,.F.,
(4,2,2,2,2,2,2,2,4),(8.31248227815509,8.65189039939698,8.99129852063888,
9.33070664188077,9.67011476312266,10.023413498402,10.3767122336814,10.7300109689608,
11.0833097042402),.UNSPECIFIED.);
#91=B_SPLINE_CURVE_WITH_KNOTS($,3,(#384,#385,#386,#387,#388,#389,#390,#391,
#392,#393,#394,#395,#396,#397,#398,#399,#400,#401),.UNSPECIFIED.,.F.,.F.,
(4,2,2,2,2,2,2,2,4),(-2.77082742603502,-2.43141930480174,-2.09201118356846,
-1.75260306233518,-1.4131949411019,-1.05989620582644,-0.70659747055097,
-0.353298735275503,-3.59712259978551E-014),.UNSPECIFIED.);
#92=VERTEX_POINT($,#262);
#93=VERTEX_POINT($,#313);
#94=VERTEX_POINT($,#316);
#95=VERTEX_POINT($,#318);
#96=VERTEX_POINT($,#321);
#97=VERTEX_POINT($,#323);
#98=VERTEX_POINT($,#326);
#99=VERTEX_POINT($,#327);
#100=VERTEX_POINT($,#346);
#101=VERTEX_POINT($,#365);
#102=VERTEX_POINT($,#402);
#103=VERTEX_POINT($,#404);
#104=VERTEX_POINT($,#407);
#105=VERTEX_POINT($,#410);
#106=VERTEX_POINT($,#412);
#107=VERTEX_POINT($,#415);
#108=VERTEX_POINT($,#417);
#109=EDGE_CURVE($,#92,#92,#87,.T.);
#110=EDGE_CURVE($,#93,#93,#39,.T.);
#111=EDGE_CURVE($,#94,#94,#40,.T.);
#112=EDGE_CURVE($,#95,#95,#41,.T.);
#113=EDGE_CURVE($,#96,#96,#42,.T.);
#114=EDGE_CURVE($,#97,#97,#43,.T.);
#115=EDGE_CURVE($,#98,#99,#88,.T.);
#116=EDGE_CURVE($,#98,#100,#89,.T.);
#117=EDGE_CURVE($,#100,#101,#90,.T.);
#118=EDGE_CURVE($,#99,#101,#91,.T.);
#119=EDGE_CURVE($,#102,#102,#44,.T.);
#120=EDGE_CURVE($,#103,#103,#45,.T.);
#121=EDGE_CURVE($,#104,#104,#46,.T.);
#122=EDGE_CURVE($,#105,#105,#47,.T.);
#123=EDGE_CURVE($,#106,#106,#48,.T.);
#124=EDGE_CURVE($,#107,#107,#49,.T.);
#125=EDGE_CURVE($,#108,#108,#50,.T.);
#126=ORIENTED_EDGE($,*,*,#109,.F.);
#127=ORIENTED_EDGE($,*,*,#110,.F.);
#128=ORIENTED_EDGE($,*,*,#109,.T.);
#129=ORIENTED_EDGE($,*,*,#111,.F.);
#130=ORIENTED_EDGE($,*,*,#112,.F.);
#131=ORIENTED_EDGE($,*,*,#113,.T.);
#132=ORIENTED_EDGE($,*,*,#114,.F.);
#133=ORIENTED_EDGE($,*,*,#115,.F.);
#134=ORIENTED_EDGE($,*,*,#116,.T.);
#135=ORIENTED_EDGE($,*,*,#117,.T.);
#136=ORIENTED_EDGE($,*,*,#118,.F.);
#137=ORIENTED_EDGE($,*,*,#119,.T.);
#138=ORIENTED_EDGE($,*,*,#120,.F.);
#139=ORIENTED_EDGE($,*,*,#116,.F.);
#140=ORIENTED_EDGE($,*,*,#115,.T.);
#141=ORIENTED_EDGE($,*,*,#118,.T.);
#142=ORIENTED_EDGE($,*,*,#117,.F.);
#143=ORIENTED_EDGE($,*,*,#121,.F.);
#144=ORIENTED_EDGE($,*,*,#122,.T.);
#145=ORIENTED_EDGE($,*,*,#123,.F.);
#146=ORIENTED_EDGE($,*,*,#124,.T.);
#147=ORIENTED_EDGE($,*,*,#125,.F.);
#148=ORIENTED_EDGE($,*,*,#119,.F.);
#149=ORIENTED_EDGE($,*,*,#114,.T.);
#150=ORIENTED_EDGE($,*,*,#111,.T.);
#151=ORIENTED_EDGE($,*,*,#113,.F.);
#152=ORIENTED_EDGE($,*,*,#120,.T.);
#153=ORIENTED_EDGE($,*,*,#122,.F.);
#154=ORIENTED_EDGE($,*,*,#121,.T.);
#155=ORIENTED_EDGE($,*,*,#124,.F.);
#156=ORIENTED_EDGE($,*,*,#112,.T.);
#157=ORIENTED_EDGE($,*,*,#123,.T.);
#158=ORIENTED_EDGE($,*,*,#110,.T.);
#159=ORIENTED_EDGE($,*,*,#125,.T.);
#160=CYLINDRICAL_SURFACE($,#183,12.);
#161=CYLINDRICAL_SURFACE($,#185,15.5);
#162=CYLINDRICAL_SURFACE($,#188,16.);
#163=CYLINDRICAL_SURFACE($,#191,20.5);
#164=CYLINDRICAL_SURFACE($,#194,17.);
#165=CYLINDRICAL_SURFACE($,#196,16.);
#166=CYLINDRICAL_SURFACE($,#199,12.5);
#167=ADVANCED_FACE($,(#51,#19),#160,.F.);
#168=ADVANCED_FACE($,(#20,#21,#22),#161,.F.);
#169=ADVANCED_FACE($,(#52,#23),#162,.F.);
#170=ADVANCED_FACE($,(#24,#25,#26),#163,.T.);
#171=ADVANCED_FACE($,(#53,#27),#164,.T.);
#172=ADVANCED_FACE($,(#54,#28),#165,.F.);
#173=ADVANCED_FACE($,(#55,#29),#166,.F.);
#174=ADVANCED_FACE($,(#56,#30),#13,.T.);
#175=ADVANCED_FACE($,(#31,#32),#14,.T.);
#176=ADVANCED_FACE($,(#57,#33),#15,.T.);
#177=ADVANCED_FACE($,(#58,#34),#16,.T.);
#178=ADVANCED_FACE($,(#35,#36),#17,.T.);
#179=ADVANCED_FACE($,(#37,#38),#18,.T.);
#180=CLOSED_SHELL($,(#167,#168,#169,#170,#171,#172,#173,#174,#175,#176,
#177,#178,#179));
#181=MANIFOLD_SOLID_BREP('Solido1',#180);
#182=AXIS2_PLACEMENT_3D('placement',#260,#208,#209);
#183=AXIS2_PLACEMENT_3D($,#261,#210,#211);
#184=AXIS2_PLACEMENT_3D($,#314,#212,#213);
#185=AXIS2_PLACEMENT_3D($,#315,#214,#215);
#186=AXIS2_PLACEMENT_3D($,#317,#216,#217);
#187=AXIS2_PLACEMENT_3D($,#319,#218,#219);
#188=AXIS2_PLACEMENT_3D($,#320,#220,#221);
#189=AXIS2_PLACEMENT_3D($,#322,#222,#223);
#190=AXIS2_PLACEMENT_3D($,#324,#224,#225);
#191=AXIS2_PLACEMENT_3D($,#325,#226,#227);
#192=AXIS2_PLACEMENT_3D($,#403,#228,#229);
#193=AXIS2_PLACEMENT_3D($,#405,#230,#231);
#194=AXIS2_PLACEMENT_3D($,#406,#232,#233);
#195=AXIS2_PLACEMENT_3D($,#408,#234,#235);
#196=AXIS2_PLACEMENT_3D($,#409,#236,#237);
#197=AXIS2_PLACEMENT_3D($,#411,#238,#239);
#198=AXIS2_PLACEMENT_3D($,#413,#240,#241);
#199=AXIS2_PLACEMENT_3D($,#414,#242,#243);
#200=AXIS2_PLACEMENT_3D($,#416,#244,#245);
#201=AXIS2_PLACEMENT_3D($,#418,#246,#247);
#202=AXIS2_PLACEMENT_3D($,#419,#248,#249);
#203=AXIS2_PLACEMENT_3D($,#420,#250,#251);
#204=AXIS2_PLACEMENT_3D($,#421,#252,#253);
#205=AXIS2_PLACEMENT_3D($,#422,#254,#255);
#206=AXIS2_PLACEMENT_3D($,#423,#256,#257);
#207=AXIS2_PLACEMENT_3D($,#424,#258,#259);
#208=DIRECTION('axis',(0.,0.,1.));
#209=DIRECTION('refdir',(1.,0.,0.));
#210=DIRECTION('center_axis',(-1.,0.,-4.48965434469768E-011));
#211=DIRECTION('ref_axis',(-4.48965434469768E-011,0.,1.));
#212=DIRECTION('center_axis',(-1.,0.,-4.489664E-011));
#213=DIRECTION('ref_axis',(-4.48965434469768E-011,0.,1.));
#214=DIRECTION('center_axis',(0.,0.,-1.));
#215=DIRECTION('ref_axis',(-1.,0.,0.));
#216=DIRECTION('center_axis',(0.,0.,1.));
#217=DIRECTION('ref_axis',(-1.,0.,0.));
#218=DIRECTION('center_axis',(0.,0.,-1.));
#219=DIRECTION('ref_axis',(-1.,0.,0.));
#220=DIRECTION('center_axis',(0.,0.,1.));
#221=DIRECTION('ref_axis',(1.,0.,0.));
#222=DIRECTION('center_axis',(0.,0.,1.));
#223=DIRECTION('ref_axis',(1.,0.,0.));
#224=DIRECTION('center_axis',(0.,0.,1.));
#225=DIRECTION('ref_axis',(1.,0.,0.));
#226=DIRECTION('center_axis',(0.,0.,1.));
#227=DIRECTION('ref_axis',(1.,0.,0.));
#228=DIRECTION('center_axis',(0.,0.,1.));
#229=DIRECTION('ref_axis',(1.,0.,0.));
#230=DIRECTION('center_axis',(0.,0.,1.));
#231=DIRECTION('ref_axis',(1.,0.,0.));
#232=DIRECTION('center_axis',(1.,0.,4.489664E-011));
#233=DIRECTION('ref_axis',(4.489664E-011,0.,-1.));
#234=DIRECTION('center_axis',(1.,0.,4.489664E-011));
#235=DIRECTION('ref_axis',(4.489664E-011,0.,-1.));
#236=DIRECTION('center_axis',(0.,0.,1.));
#237=DIRECTION('ref_axis',(1.,0.,0.));
#238=DIRECTION('center_axis',(0.,0.,1.));
#239=DIRECTION('ref_axis',(1.,0.,0.));
#240=DIRECTION('center_axis',(0.,0.,1.));
#241=DIRECTION('ref_axis',(1.,0.,0.));
#242=DIRECTION('center_axis',(1.,-4.93891807893567E-016,4.48995014480215E-011));
#243=DIRECTION('ref_axis',(4.48995507440486E-011,0.,-1.));
#244=DIRECTION('center_axis',(1.,0.,4.489664E-011));
#245=DIRECTION('ref_axis',(4.489664E-011,0.,-1.));
#246=DIRECTION('center_axis',(1.,0.,4.489664E-011));
#247=DIRECTION('ref_axis',(4.489664E-011,0.,-1.));
#248=DIRECTION('center_axis',(0.,0.,-1.));
#249=DIRECTION('ref_axis',(-1.,0.,0.));
#250=DIRECTION('center_axis',(0.,0.,-1.));
#251=DIRECTION('ref_axis',(-1.,0.,0.));
#252=DIRECTION('center_axis',(0.,0.,1.));
#253=DIRECTION('ref_axis',(1.,0.,0.));
#254=DIRECTION('center_axis',(1.,0.,4.489664E-011));
#255=DIRECTION('ref_axis',(4.48963533017377E-011,0.,-1.));
#256=DIRECTION('center_axis',(0.,0.,1.));
#257=DIRECTION('ref_axis',(1.,0.,0.));
#258=DIRECTION('center_axis',(1.,0.,4.489664E-011));
#259=DIRECTION('ref_axis',(4.48967085731056E-011,0.,-1.));
#260=CARTESIAN_POINT('',(0.,0.,0.));
#261=CARTESIAN_POINT('Origin',(17.5,0.,39.500000000786));
#262=CARTESIAN_POINT('',(9.81070843517429,12.,39.5000000004408));
#263=CARTESIAN_POINT('Ctrl Pts',(9.81070843517429,12.,39.5000000004408));
#264=CARTESIAN_POINT('Ctrl Pts',(9.81070843517429,12.,40.3122495639312));
#265=CARTESIAN_POINT('Ctrl Pts',(9.91462277311425,11.9168671897231,41.1232943406754));
#266=CARTESIAN_POINT('Ctrl Pts',(10.2906814672865,11.5936768395598,42.6989789257321));
#267=CARTESIAN_POINT('Ctrl Pts',(10.5610050235847,11.3537805489212,43.4640858021283));
#268=CARTESIAN_POINT('Ctrl Pts',(11.5005626038538,10.4287898423151,45.6424448147998));
#269=CARTESIAN_POINT('Ctrl Pts',(12.2891134082217,9.52784120617765,46.9427215428598));
#270=CARTESIAN_POINT('Ctrl Pts',(13.6358129514099,7.46919365008424,49.0013690989974));
#271=CARTESIAN_POINT('Ctrl Pts',(14.3039313188428,6.16677088179011,49.917532867847));
#272=CARTESIAN_POINT('Ctrl Pts',(15.0052619565314,3.96074434033863,50.8556603795258));
#273=CARTESIAN_POINT('Ctrl Pts',(15.1906872020011,3.18371103043497,51.0981736242307));
#274=CARTESIAN_POINT('Ctrl Pts',(15.4381225729209,1.59917635812492,51.4204145198962));
#275=CARTESIAN_POINT('Ctrl Pts',(15.5,0.791625367748344,51.5000000006962));
#276=CARTESIAN_POINT('Ctrl Pts',(15.5,-0.791625367748344,51.5000000006962));
#277=CARTESIAN_POINT('Ctrl Pts',(15.4381225729209,-1.59917635812492,51.4204145198962));
#278=CARTESIAN_POINT('Ctrl Pts',(15.1906872020011,-3.18371103043496,51.0981736242307));
#279=CARTESIAN_POINT('Ctrl Pts',(15.0052619565314,-3.96074434033862,50.8556603795258));
#280=CARTESIAN_POINT('Ctrl Pts',(14.3039313188428,-6.16677088179011,49.917532867847));
#281=CARTESIAN_POINT('Ctrl Pts',(13.6358129514099,-7.46919365008424,49.0013690989974));
#282=CARTESIAN_POINT('Ctrl Pts',(12.2891134082217,-9.52784120617765,46.9427215428598));
#283=CARTESIAN_POINT('Ctrl Pts',(11.5005626038538,-10.4287898423151,45.6424448147998));
#284=CARTESIAN_POINT('Ctrl Pts',(10.5610050235847,-11.3537805489212,43.4640858021283));
#285=CARTESIAN_POINT('Ctrl Pts',(10.2906814672865,-11.5936768395598,42.6989789257321));
#286=CARTESIAN_POINT('Ctrl Pts',(9.91462277311425,-11.9168671897231,41.1232943406754));
#287=CARTESIAN_POINT('Ctrl Pts',(9.81070843517429,-12.,40.3122495639312));
#288=CARTESIAN_POINT('Ctrl Pts',(9.81070843517429,-12.,38.6877504369723));
#289=CARTESIAN_POINT('Ctrl Pts',(9.91462277310918,-11.9168671897272,37.8767056602487));
#290=CARTESIAN_POINT('Ctrl Pts',(10.290681467273,-11.5936768395717,36.3010210752371));
#291=CARTESIAN_POINT('Ctrl Pts',(10.5610050235678,-11.3537805489368,35.5359141988653));
#292=CARTESIAN_POINT('Ctrl Pts',(11.500562603831,-10.4287898423396,33.3575551862753));
#293=CARTESIAN_POINT('Ctrl Pts',(12.2891134082006,-9.52784120620398,32.0572784582789));
#294=CARTESIAN_POINT('Ctrl Pts',(13.6358129514007,-7.46919365010406,29.9986309022394));
#295=CARTESIAN_POINT('Ctrl Pts',(14.3039313188413,-6.1667708817954,29.0824671334399));
#296=CARTESIAN_POINT('Ctrl Pts',(15.0052619565333,-3.96074434033246,28.1443396218198));
#297=CARTESIAN_POINT('Ctrl Pts',(15.1906872020028,-3.18371103042676,27.9018263771317));
#298=CARTESIAN_POINT('Ctrl Pts',(15.4381225729216,-1.59917635811726,27.5795854814897));
#299=CARTESIAN_POINT('Ctrl Pts',(15.5,-0.791625367743284,27.5000000006962));
#300=CARTESIAN_POINT('Ctrl Pts',(15.5,0.791625367747698,27.5000000006962));
#301=CARTESIAN_POINT('Ctrl Pts',(15.438122572921,1.59917635812591,27.5795854814905));
#302=CARTESIAN_POINT('Ctrl Pts',(15.1906872019996,3.18371103044308,27.9018263771359));
#303=CARTESIAN_POINT('Ctrl Pts',(15.0052619565282,3.96074434035223,28.1443396218264));
#304=CARTESIAN_POINT('Ctrl Pts',(14.3039313188298,6.16677088182393,29.0824671334556));
#305=CARTESIAN_POINT('Ctrl Pts',(13.6358129513834,7.46919365013628,29.9986309022636));
#306=CARTESIAN_POINT('Ctrl Pts',(12.2891134081815,9.52784120622733,32.0572784583105));
#307=CARTESIAN_POINT('Ctrl Pts',(11.5005626038168,10.4287898423547,33.3575551863028));
#308=CARTESIAN_POINT('Ctrl Pts',(10.5610050235608,11.3537805489432,35.5359141988843));
#309=CARTESIAN_POINT('Ctrl Pts',(10.2906814672683,11.5936768395757,36.3010210752529));
#310=CARTESIAN_POINT('Ctrl Pts',(9.91462277310803,11.9168671897281,37.8767056602573));
#311=CARTESIAN_POINT('Ctrl Pts',(9.81070843517429,12.,38.6877504369768));
#312=CARTESIAN_POINT('Ctrl Pts',(9.81070843517429,12.,39.5000000004408));
#313=CARTESIAN_POINT('',(17.5000000005388,1.46957615897682E-015,27.500000000786));
#314=CARTESIAN_POINT('Origin',(17.5,0.,39.500000000786));
#315=CARTESIAN_POINT('Origin',(0.,0.,57.));
#316=CARTESIAN_POINT('',(15.5,1.8982025386784E-015,22.));
#317=CARTESIAN_POINT('Origin',(0.,0.,22.));
#318=CARTESIAN_POINT('',(15.5,1.8982025386784E-015,57.));
#319=CARTESIAN_POINT('Origin',(0.,0.,57.));
#320=CARTESIAN_POINT('Origin',(2.22044604925031E-015,0.,11.));
#321=CARTESIAN_POINT('',(-16.,-1.95937E-015,22.));
#322=CARTESIAN_POINT('Origin',(0.,0.,22.));
#323=CARTESIAN_POINT('',(-16.,-1.95937E-015,0.));
#324=CARTESIAN_POINT('Origin',(0.,0.,0.));
#325=CARTESIAN_POINT('Origin',(0.,0.,0.));
#326=CARTESIAN_POINT('',(11.45643923739,-17.,39.500000000514));
#327=CARTESIAN_POINT('',(20.5,-4.592274E-015,22.50000000092));
#328=CARTESIAN_POINT('Ctrl Pts',(11.4564392373896,-17.,39.5000000005144));
#329=CARTESIAN_POINT('Ctrl Pts',(11.4564392373896,-17.,38.3223375496034));
#330=CARTESIAN_POINT('Ctrl Pts',(11.6428109723324,-16.8775460011175,37.1665804421731));
#331=CARTESIAN_POINT('Ctrl Pts',(12.2855071064437,-16.4156303856576,34.9367242575931));
#332=CARTESIAN_POINT('Ctrl Pts',(12.738188535487,-16.0761164611155,33.8615876366995));
#333=CARTESIAN_POINT('Ctrl Pts',(13.7652067851545,-15.2059876317657,31.8181284515196));
#334=CARTESIAN_POINT('Ctrl Pts',(14.3391980367939,-14.674545394427,30.8489902857957));
#335=CARTESIAN_POINT('Ctrl Pts',(15.4911495239258,-13.4528498708063,29.0499721627474));
#336=CARTESIAN_POINT('Ctrl Pts',(16.0691225683512,-12.7620810893731,28.220450529752));
#337=CARTESIAN_POINT('Ctrl Pts',(17.1212238154587,-11.308693750943,26.7670631913691));
#338=CARTESIAN_POINT('Ctrl Pts',(17.6376785942672,-10.4972419964495,26.0840275728687));
#339=CARTESIAN_POINT('Ctrl Pts',(18.5881758618904,-8.70399413358346,24.8568824385474));
#340=CARTESIAN_POINT('Ctrl Pts',(19.0219059509746,-7.72203746215523,24.3127656091034));
#341=CARTESIAN_POINT('Ctrl Pts',(19.7397024756794,-5.6397630220153,23.4228411021657));
#342=CARTESIAN_POINT('Ctrl Pts',(20.0242931587296,-4.53697517461308,23.0762543615567));
#343=CARTESIAN_POINT('Ctrl Pts',(20.4045394892394,-2.28281153191367,22.6147302048319));
#344=CARTESIAN_POINT('Ctrl Pts',(20.5,-1.13136040411802,22.5000000009204));
#345=CARTESIAN_POINT('Ctrl Pts',(20.5,0.,22.5000000009204));
#346=CARTESIAN_POINT('',(20.5,-5.020886E-015,56.50000000092));
#347=CARTESIAN_POINT('Ctrl Pts',(11.4564392373896,-17.,39.5000000005144));
#348=CARTESIAN_POINT('Ctrl Pts',(11.4564392373896,-17.,40.6776624514456));
#349=CARTESIAN_POINT('Ctrl Pts',(11.6428109723376,-16.8775460011139,41.8334195588963));
#350=CARTESIAN_POINT('Ctrl Pts',(12.2855071064504,-16.4156303856526,44.0632757435272));
#351=CARTESIAN_POINT('Ctrl Pts',(12.7381885354907,-16.0761164611123,45.1384123644513));
#352=CARTESIAN_POINT('Ctrl Pts',(13.7652067851475,-15.2059876317717,47.181871549703));
#353=CARTESIAN_POINT('Ctrl Pts',(14.3391980367794,-14.6745453944405,48.1510097154674));
#354=CARTESIAN_POINT('Ctrl Pts',(15.4911495238975,-13.4528498708382,49.9500278386013));
#355=CARTESIAN_POINT('Ctrl Pts',(16.0691225683167,-12.7620810894159,50.7795494716417));
#356=CARTESIAN_POINT('Ctrl Pts',(17.1212238154181,-11.3086937510038,52.2329368101137));
#357=CARTESIAN_POINT('Ctrl Pts',(17.6376785942268,-10.4972419965171,52.915972428662));
#358=CARTESIAN_POINT('Ctrl Pts',(18.5881758618549,-8.70399413365901,54.1431175630767));
#359=CARTESIAN_POINT('Ctrl Pts',(19.0219059509438,-7.72203746223184,54.6872343925661));
#360=CARTESIAN_POINT('Ctrl Pts',(19.7397024756595,-5.63976302208569,55.5771588995825));
#361=CARTESIAN_POINT('Ctrl Pts',(20.024293158716,-4.53697517467607,55.9237456402248));
#362=CARTESIAN_POINT('Ctrl Pts',(20.4045394892358,-2.28281153195228,56.385269796996));
#363=CARTESIAN_POINT('Ctrl Pts',(20.5,-1.13136040413963,56.5000000009204));
#364=CARTESIAN_POINT('Ctrl Pts',(20.5,-2.22044604925031E-015,56.5000000009204));
#365=CARTESIAN_POINT('',(11.45643923739,17.,39.500000000514));
#366=CARTESIAN_POINT('Ctrl Pts',(20.5,2.08166817117217E-015,56.5000000009204));
#367=CARTESIAN_POINT('Ctrl Pts',(20.5,1.13136040413962,56.5000000009204));
#368=CARTESIAN_POINT('Ctrl Pts',(20.4045394892358,2.28281153195227,56.385269796996));
#369=CARTESIAN_POINT('Ctrl Pts',(20.024293158716,4.53697517467607,55.9237456402248));
#370=CARTESIAN_POINT('Ctrl Pts',(19.7397024756595,5.63976302208568,55.5771588995825));
#371=CARTESIAN_POINT('Ctrl Pts',(19.0219059509438,7.72203746223184,54.6872343925661));
#372=CARTESIAN_POINT('Ctrl Pts',(18.5881758618549,8.70399413365901,54.1431175630767));
#373=CARTESIAN_POINT('Ctrl Pts',(17.6376785942268,10.4972419965171,52.915972428662));
#374=CARTESIAN_POINT('Ctrl Pts',(17.1212238154181,11.3086937510038,52.2329368101137));
#375=CARTESIAN_POINT('Ctrl Pts',(16.0691225683167,12.7620810894159,50.7795494716417));
#376=CARTESIAN_POINT('Ctrl Pts',(15.4911495238975,13.4528498708382,49.9500278386013));
#377=CARTESIAN_POINT('Ctrl Pts',(14.3391980367794,14.6745453944405,48.1510097154674));
#378=CARTESIAN_POINT('Ctrl Pts',(13.7652067851475,15.2059876317717,47.181871549703));
#379=CARTESIAN_POINT('Ctrl Pts',(12.7381885354907,16.0761164611123,45.1384123644513));
#380=CARTESIAN_POINT('Ctrl Pts',(12.2855071064504,16.4156303856526,44.0632757435272));
#381=CARTESIAN_POINT('Ctrl Pts',(11.6428109723376,16.8775460011139,41.8334195588963));
#382=CARTESIAN_POINT('Ctrl Pts',(11.4564392373896,17.,40.6776624514456));
#383=CARTESIAN_POINT('Ctrl Pts',(11.4564392373896,17.,39.5000000005144));
#384=CARTESIAN_POINT('Ctrl Pts',(20.5,-4.09394740330526E-015,22.5000000009204));
#385=CARTESIAN_POINT('Ctrl Pts',(20.5,1.13136040411094,22.5000000009204));
#386=CARTESIAN_POINT('Ctrl Pts',(20.4045394892406,2.28281153189987,22.6147302048305));
#387=CARTESIAN_POINT('Ctrl Pts',(20.0242931587351,4.53697517458714,23.07625436155));
#388=CARTESIAN_POINT('Ctrl Pts',(19.739702475688,5.63976302198394,23.4228411021551));
#389=CARTESIAN_POINT('Ctrl Pts',(19.0219059509907,7.72203746211475,24.3127656090833));
#390=CARTESIAN_POINT('Ctrl Pts',(18.5881758619109,8.70399413353926,24.8568824385216));
#391=CARTESIAN_POINT('Ctrl Pts',(17.6376785942966,10.4972419963997,26.0840275728303));
#392=CARTESIAN_POINT('Ctrl Pts',(17.1212238154927,11.3086937508913,26.7670631913236));
#393=CARTESIAN_POINT('Ctrl Pts',(16.069122568387,12.7620810893287,28.220450529701));
#394=CARTESIAN_POINT('Ctrl Pts',(15.4911495239584,13.4528498707692,29.049972162699));
#395=CARTESIAN_POINT('Ctrl Pts',(14.3391980368191,14.6745453944027,30.8489902857537));
#396=CARTESIAN_POINT('Ctrl Pts',(13.7652067851756,15.2059876317468,31.8181284514814));
#397=CARTESIAN_POINT('Ctrl Pts',(12.7381885354999,16.0761164611056,33.8615876366701));
#398=CARTESIAN_POINT('Ctrl Pts',(12.2855071064524,16.4156303856512,34.9367242575685));
#399=CARTESIAN_POINT('Ctrl Pts',(11.6428109723347,16.877546001116,37.1665804421596));
#400=CARTESIAN_POINT('Ctrl Pts',(11.4564392373896,17.,38.3223375495961));
#401=CARTESIAN_POINT('Ctrl Pts',(11.4564392373896,17.,39.5000000005144));
#402=CARTESIAN_POINT('',(20.5,-5.020886E-015,0.));
#403=CARTESIAN_POINT('Origin',(0.,0.,0.));
#404=CARTESIAN_POINT('',(-20.5,-2.510443E-015,79.));
#405=CARTESIAN_POINT('Origin',(0.,0.,79.));
#406=CARTESIAN_POINT('Origin',(0.,0.,39.5));
#407=CARTESIAN_POINT('',(36.4999999992368,-2.081831E-015,56.5000000016387));
#408=CARTESIAN_POINT('Origin',(36.5,0.,39.500000001639));
#409=CARTESIAN_POINT('Origin',(2.22044604925031E-015,0.,68.));
#410=CARTESIAN_POINT('',(-16.,-1.95937E-015,79.));
#411=CARTESIAN_POINT('Origin',(0.,0.,79.));
#412=CARTESIAN_POINT('',(-16.,-1.95937E-015,57.));
#413=CARTESIAN_POINT('Origin',(0.,0.,57.));
#414=CARTESIAN_POINT('Origin',(27.,0.,39.5000000012125));
#415=CARTESIAN_POINT('',(36.4999999994388,-1.530758E-015,52.000000001639));
#416=CARTESIAN_POINT('Origin',(36.5,0.,39.500000001639));
#417=CARTESIAN_POINT('',(17.4999999994388,-1.530758E-015,52.000000000786));
#418=CARTESIAN_POINT('Origin',(17.5,0.,39.500000000786));
#419=CARTESIAN_POINT('Origin',(0.,0.,0.));
#420=CARTESIAN_POINT('Origin',(0.,0.,22.));
#421=CARTESIAN_POINT('Origin',(0.,0.,79.));
#422=CARTESIAN_POINT('Origin',(36.5,0.,39.500000001639));
#423=CARTESIAN_POINT('Origin',(0.,0.,57.));
#424=CARTESIAN_POINT('Origin',(17.5,0.,39.500000000786));
#425=UNCERTAINTY_MEASURE_WITH_UNIT(LENGTH_MEASURE(0.01),#427,
'DISTANCE_ACCURACY_VALUE',
'Maximum model space distance between geometric entities at asserted c
onnectivities');
#426=(
GEOMETRIC_REPRESENTATION_CONTEXT(3)
GLOBAL_UNCERTAINTY_ASSIGNED_CONTEXT((#425))
GLOBAL_UNIT_ASSIGNED_CONTEXT((#427,#430,#428))
REPRESENTATION_CONTEXT('','3D')
);
#427=(
LENGTH_UNIT()
NAMED_UNIT(*)
SI_UNIT(.MILLI.,.METRE.)
);
#428=(
NAMED_UNIT(*)
SI_UNIT($,.STERADIAN.)
SOLID_ANGLE_UNIT()
);
#429=DIMENSIONAL_EXPONENTS(0.,0.,0.,0.,0.,0.,0.);
#430=(
CONVERSION_BASED_UNIT('degree',#432)
NAMED_UNIT(#429)
PLANE_ANGLE_UNIT()
);
#431=(
NAMED_UNIT(*)
PLANE_ANGLE_UNIT()
SI_UNIT($,.RADIAN.)
);
#432=PLANE_ANGLE_MEASURE_WITH_UNIT(PLANE_ANGLE_MEASURE(0.01745329252),#431);
#433=SHAPE_DEFINITION_REPRESENTATION(#434,#435);
#434=PRODUCT_DEFINITION_SHAPE('',$,#437);
#435=SHAPE_REPRESENTATION('',(#182),#426);
#436=PRODUCT_DEFINITION_CONTEXT('3D Mechanical Parts',#440,'design');
#437=PRODUCT_DEFINITION('TRIV032025','TRIV032025',#438,#436);
#438=PRODUCT_DEFINITION_FORMATION('',$,#442);
#439=APPLICATION_PROTOCOL_DEFINITION('international standard',
'automotive_design',2009,#440);
#440=APPLICATION_CONTEXT(
'Core Data for Automotive Mechanical Design Process');
#441=PRODUCT_CONTEXT('3D Mechanical Parts',#440,'mechanical');
#442=PRODUCT('TRIV032025','TRIV032025',$,(#441));
#443=PRESENTATION_STYLE_ASSIGNMENT((#444));
#444=SURFACE_STYLE_USAGE(.BOTH.,#445);
#445=SURFACE_SIDE_STYLE($,(#446));
#446=SURFACE_STYLE_FILL_AREA(#447);
#447=FILL_AREA_STYLE($,(#448));
#448=FILL_AREA_STYLE_COLOUR($,#449);
#449=COLOUR_RGB('',0.509803921568627,0.509803921568627,0.588235294117647);
ENDSEC;
END-ISO-10303-21;
