ISO-10303-21;
HEADER;
/****************************************************************
 * Generated by software with PDE/Lib inside                    *
 * PDElib Version v51a, created Mon 03/22/2010                  *
 * International Technegroup Inc. (www.iti-oh.com)              *
 ****************************************************************/
FILE_DESCRIPTION((''),'2;1');
FILE_NAME('R:\\Neue Zeichnungdateien ab Januar 2010\\Edelstahlprodukte\\Schieneneinh\S\dnger\\Step\\118037.stp','2010-08-05T15:30:48',('DMK009'),(''),'Autodesk Inventor 2010','Autodesk Inventor 2010','');
FILE_SCHEMA(('AUTOMOTIVE_DESIGN { 1 0 10303 214 1 1 1 1 }'));
ENDSEC;
DATA;
#5=APPLICATION_CONTEXT('automotive design');
#6=APPLICATION_PROTOCOL_DEFINITION('International Standard','automotive_design',2001,#5);
#7=PRODUCT_CONTEXT('',#5,'mechanical');
#8=PRODUCT('Edelstahlschiebemutter f\S\|r 38x24 bis 40x120','Edelstahlschiebemutter f\S\|r 38x24 bis 40x120',$,(#7));
#9=PRODUCT_RELATED_PRODUCT_CATEGORY('part',$,(#8));
#10=PRODUCT_DEFINITION_FORMATION('',$,#8);
#11=PRODUCT_DEFINITION_CONTEXT('part definition',#5,'design');
#12=PRODUCT_DEFINITION('',$,#10,#11);
#18=(NAMED_UNIT(*)PLANE_ANGLE_UNIT()SI_UNIT($,.RADIAN.));
#19=DIMENSIONAL_EXPONENTS(0.0,0.0,0.0,0.0,0.0,0.0,0.0);
#20=PLANE_ANGLE_MEASURE_WITH_UNIT(PLANE_ANGLE_MEASURE(0.017453292500000),#18);
#24=(CONVERSION_BASED_UNIT('DEGREE',#20)NAMED_UNIT(#19)PLANE_ANGLE_UNIT());
#28=(NAMED_UNIT(*)SI_UNIT($,.STERADIAN.)SOLID_ANGLE_UNIT());
#32=(LENGTH_UNIT()NAMED_UNIT(*)SI_UNIT(.MILLI.,.METRE.));
#34=UNCERTAINTY_MEASURE_WITH_UNIT(LENGTH_MEASURE(0.010000000000000),#32,'DISTANCE_ACCURACY_VALUE','');
#36=(GEOMETRIC_REPRESENTATION_CONTEXT(3)GLOBAL_UNCERTAINTY_ASSIGNED_CONTEXT((#34))GLOBAL_UNIT_ASSIGNED_CONTEXT((#24,#28,#32))REPRESENTATION_CONTEXT('None','None'));
#37=AXIS2_PLACEMENT_3D('',#38,#39,#40);
#38=CARTESIAN_POINT('',(0.0,0.0,0.0));
#39=DIRECTION('',(0.0,0.0,1.0));
#40=DIRECTION('',(1.0,0.0,0.0));
#41=SHAPE_REPRESENTATION('',(#37),#36);
#42=PRODUCT_DEFINITION_SHAPE('','',#12);
#43=SHAPE_DEFINITION_REPRESENTATION(#42,#41);
#49=(NAMED_UNIT(*)PLANE_ANGLE_UNIT()SI_UNIT($,.RADIAN.));
#50=DIMENSIONAL_EXPONENTS(0.0,0.0,0.0,0.0,0.0,0.0,0.0);
#51=PLANE_ANGLE_MEASURE_WITH_UNIT(PLANE_ANGLE_MEASURE(0.017453292500000),#49);
#55=(CONVERSION_BASED_UNIT('DEGREE',#51)NAMED_UNIT(#50)PLANE_ANGLE_UNIT());
#59=(NAMED_UNIT(*)SI_UNIT($,.STERADIAN.)SOLID_ANGLE_UNIT());
#63=(LENGTH_UNIT()NAMED_UNIT(*)SI_UNIT(.MILLI.,.METRE.));
#65=UNCERTAINTY_MEASURE_WITH_UNIT(LENGTH_MEASURE(0.000001000000000),#63,'DISTANCE_ACCURACY_VALUE','');
#67=(GEOMETRIC_REPRESENTATION_CONTEXT(3)GLOBAL_UNCERTAINTY_ASSIGNED_CONTEXT((#65))GLOBAL_UNIT_ASSIGNED_CONTEXT((#55,#59,#63))REPRESENTATION_CONTEXT('','3D'));
#68=CARTESIAN_POINT('',(-3.323500000000000,-4.069979E-016,6.0));
#69=CARTESIAN_POINT('',(-3.323500000000000,-4.069979E-016,0.0));
#70=CARTESIAN_POINT('',(-3.323499999999999,-3.323500000000000,6.0));
#71=CARTESIAN_POINT('',(-3.323499999999999,-3.323500000000000,0.0));
#72=CARTESIAN_POINT('',(4.069979E-016,-3.323500000000000,6.0));
#73=CARTESIAN_POINT('',(4.069979E-016,-3.323500000000000,0.0));
#74=CARTESIAN_POINT('',(3.323500000000000,-3.323499999999999,6.0));
#75=CARTESIAN_POINT('',(3.323500000000000,-3.323499999999999,0.0));
#76=CARTESIAN_POINT('',(3.323500000000000,4.069979E-016,6.0));
#77=CARTESIAN_POINT('',(3.323500000000000,4.069979E-016,0.0));
#78=CARTESIAN_POINT('',(3.323499999999999,3.323500000000000,6.0));
#79=CARTESIAN_POINT('',(3.323499999999999,3.323500000000000,0.0));
#80=CARTESIAN_POINT('',(-4.069979E-016,3.323500000000000,6.0));
#81=CARTESIAN_POINT('',(-4.069979E-016,3.323500000000000,0.0));
#82=CARTESIAN_POINT('',(-3.323500000000000,3.323499999999999,6.0));
#83=CARTESIAN_POINT('',(-3.323500000000000,3.323499999999999,0.0));
#84=CARTESIAN_POINT('',(-3.323500000000000,-4.069979E-016,6.0));
#85=CARTESIAN_POINT('',(-3.323500000000000,-4.069979E-016,0.0));
#93=(BOUNDED_SURFACE()B_SPLINE_SURFACE(1,2,((#68,#70,#72,#74,#76,#78,#80,#82,#84),(#69,#71,#73,#75,#77,#79,#81,#83,#85)),.UNSPECIFIED.,.F.,.T.,.U.)B_SPLINE_SURFACE_WITH_KNOTS((2,2),(3,2,2,2,3),(-12.188140001722131,-10.382814290875132),(0.0,5.220541592102839,10.441083184205677,15.661624776308516,20.882166368411355),.UNSPECIFIED.)GEOMETRIC_REPRESENTATION_ITEM()RATIONAL_B_SPLINE_SURFACE(((1.0,0.707106781186548,1.0,0.707106781186548,1.0,0.707106781186548,1.0,0.707106781186548,1.0),(1.0,0.707106781186548,1.0,0.707106781186548,1.0,0.707106781186548,1.0,0.707106781186548,1.0)))REPRESENTATION_ITEM('')SURFACE());
#94=CARTESIAN_POINT('',(-3.323500000000000,-4.069979E-016,0.0));
#95=VERTEX_POINT('',#94);
#96=CARTESIAN_POINT('',(0.0,0.0,0.0));
#97=DIRECTION('',(0.0,0.0,1.0));
#98=DIRECTION('',(1.0,0.0,0.0));
#99=AXIS2_PLACEMENT_3D('',#96,#97,#98);
#100=CIRCLE('',#99,3.323500000000000);
#101=EDGE_CURVE('',#95,#95,#100,.T.);
#102=ORIENTED_EDGE('',*,*,#101,.F.);
#103=EDGE_LOOP('',(#102));
#104=FACE_OUTER_BOUND('',#103,.T.);
#105=CARTESIAN_POINT('',(3.323500000000000,0.0,6.000000000000001));
#106=VERTEX_POINT('',#105);
#107=CARTESIAN_POINT('',(0.0,0.0,6.000000000000001));
#108=DIRECTION('',(0.0,0.0,-1.0));
#109=DIRECTION('',(1.0,0.0,0.0));
#110=AXIS2_PLACEMENT_3D('',#107,#108,#109);
#111=CIRCLE('',#110,3.323500000000000);
#112=EDGE_CURVE('',#106,#106,#111,.T.);
#113=ORIENTED_EDGE('',*,*,#112,.F.);
#114=EDGE_LOOP('',(#113));
#115=FACE_BOUND('',#114,.T.);
#116=ADVANCED_FACE('',(#104,#115),#93,.F.);
#117=CARTESIAN_POINT('',(-16.399999999999999,-11.500000000000004,0.0));
#118=DIRECTION('',(-1.0,0.0,0.0));
#119=DIRECTION('',(0.0,0.0,1.0));
#120=AXIS2_PLACEMENT_3D('',#117,#118,#119);
#121=PLANE('',#120);
#122=CARTESIAN_POINT('',(-16.399999999999999,-11.500000000000004,6.000000000000001));
#123=VERTEX_POINT('',#122);
#124=CARTESIAN_POINT('',(-16.399999999999999,11.500000000000000,6.000000000000001));
#125=VERTEX_POINT('',#124);
#126=CARTESIAN_POINT('',(-16.399999999999999,-11.500000000000004,6.000000000000001));
#127=DIRECTION('',(0.0,1.0,0.0));
#128=VECTOR('',#127,23.000000000000004);
#129=LINE('',#126,#128);
#130=EDGE_CURVE('',#123,#125,#129,.T.);
#131=ORIENTED_EDGE('',*,*,#130,.T.);
#132=CARTESIAN_POINT('',(-16.399999999999999,11.500000000000000,0.0));
#133=VERTEX_POINT('',#132);
#134=CARTESIAN_POINT('',(-16.399999999999999,11.500000000000000,0.0));
#135=DIRECTION('',(0.0,0.0,1.0));
#136=VECTOR('',#135,6.000000000000001);
#137=LINE('',#134,#136);
#138=EDGE_CURVE('',#133,#125,#137,.T.);
#139=ORIENTED_EDGE('',*,*,#138,.F.);
#140=CARTESIAN_POINT('',(-16.399999999999999,-11.500000000000004,0.0));
#141=VERTEX_POINT('',#140);
#142=CARTESIAN_POINT('',(-16.399999999999999,11.500000000000000,0.0));
#143=DIRECTION('',(0.0,-1.0,0.0));
#144=VECTOR('',#143,23.000000000000004);
#145=LINE('',#142,#144);
#146=EDGE_CURVE('',#133,#141,#145,.T.);
#147=ORIENTED_EDGE('',*,*,#146,.T.);
#148=CARTESIAN_POINT('',(-16.399999999999999,-11.500000000000004,0.0));
#149=DIRECTION('',(0.0,0.0,1.0));
#150=VECTOR('',#149,6.000000000000001);
#151=LINE('',#148,#150);
#152=EDGE_CURVE('',#141,#123,#151,.T.);
#153=ORIENTED_EDGE('',*,*,#152,.T.);
#154=EDGE_LOOP('',(#131,#139,#147,#153));
#155=FACE_OUTER_BOUND('',#154,.T.);
#156=ADVANCED_FACE('',(#155),#121,.T.);
#157=CARTESIAN_POINT('',(-16.399999999999999,11.500000000000000,0.0));
#158=DIRECTION('',(0.0,1.0,0.0));
#159=DIRECTION('',(0.0,0.0,1.0));
#160=AXIS2_PLACEMENT_3D('',#157,#158,#159);
#161=PLANE('',#160);
#162=CARTESIAN_POINT('',(16.399999999999999,11.500000000000000,6.000000000000001));
#163=VERTEX_POINT('',#162);
#164=CARTESIAN_POINT('',(-16.399999999999999,11.500000000000000,6.000000000000001));
#165=DIRECTION('',(1.0,0.0,0.0));
#166=VECTOR('',#165,32.799999999999997);
#167=LINE('',#164,#166);
#168=EDGE_CURVE('',#125,#163,#167,.T.);
#169=ORIENTED_EDGE('',*,*,#168,.T.);
#170=CARTESIAN_POINT('',(16.399999999999999,11.500000000000000,0.0));
#171=VERTEX_POINT('',#170);
#172=CARTESIAN_POINT('',(16.399999999999999,11.500000000000000,0.0));
#173=DIRECTION('',(0.0,0.0,1.0));
#174=VECTOR('',#173,6.000000000000001);
#175=LINE('',#172,#174);
#176=EDGE_CURVE('',#171,#163,#175,.T.);
#177=ORIENTED_EDGE('',*,*,#176,.F.);
#178=CARTESIAN_POINT('',(16.399999999999999,11.500000000000000,0.0));
#179=DIRECTION('',(-1.0,0.0,0.0));
#180=VECTOR('',#179,32.799999999999997);
#181=LINE('',#178,#180);
#182=EDGE_CURVE('',#171,#133,#181,.T.);
#183=ORIENTED_EDGE('',*,*,#182,.T.);
#184=ORIENTED_EDGE('',*,*,#138,.T.);
#185=EDGE_LOOP('',(#169,#177,#183,#184));
#186=FACE_OUTER_BOUND('',#185,.T.);
#187=ADVANCED_FACE('',(#186),#161,.T.);
#188=CARTESIAN_POINT('',(16.399999999999999,11.500000000000000,0.0));
#189=DIRECTION('',(1.0,0.0,0.0));
#190=DIRECTION('',(0.0,0.0,-1.0));
#191=AXIS2_PLACEMENT_3D('',#188,#189,#190);
#192=PLANE('',#191);
#193=CARTESIAN_POINT('',(16.399999999999999,-11.500000000000000,6.000000000000001));
#194=VERTEX_POINT('',#193);
#195=CARTESIAN_POINT('',(16.399999999999999,11.500000000000000,6.000000000000001));
#196=DIRECTION('',(0.0,-1.0,0.0));
#197=VECTOR('',#196,23.0);
#198=LINE('',#195,#197);
#199=EDGE_CURVE('',#163,#194,#198,.T.);
#200=ORIENTED_EDGE('',*,*,#199,.T.);
#201=CARTESIAN_POINT('',(16.399999999999999,-11.500000000000000,0.0));
#202=VERTEX_POINT('',#201);
#203=CARTESIAN_POINT('',(16.399999999999999,-11.500000000000000,0.0));
#204=DIRECTION('',(0.0,0.0,1.0));
#205=VECTOR('',#204,6.000000000000001);
#206=LINE('',#203,#205);
#207=EDGE_CURVE('',#202,#194,#206,.T.);
#208=ORIENTED_EDGE('',*,*,#207,.F.);
#209=CARTESIAN_POINT('',(16.399999999999999,-11.500000000000000,0.0));
#210=DIRECTION('',(0.0,1.0,0.0));
#211=VECTOR('',#210,23.0);
#212=LINE('',#209,#211);
#213=EDGE_CURVE('',#202,#171,#212,.T.);
#214=ORIENTED_EDGE('',*,*,#213,.T.);
#215=ORIENTED_EDGE('',*,*,#176,.T.);
#216=EDGE_LOOP('',(#200,#208,#214,#215));
#217=FACE_OUTER_BOUND('',#216,.T.);
#218=ADVANCED_FACE('',(#217),#192,.T.);
#219=CARTESIAN_POINT('',(16.399999999999999,-11.500000000000000,0.0));
#220=DIRECTION('',(0.0,-1.0,0.0));
#221=DIRECTION('',(0.0,0.0,-1.0));
#222=AXIS2_PLACEMENT_3D('',#219,#220,#221);
#223=PLANE('',#222);
#224=CARTESIAN_POINT('',(16.399999999999999,-11.500000000000000,6.000000000000001));
#225=DIRECTION('',(-1.0,0.0,0.0));
#226=VECTOR('',#225,32.799999999999997);
#227=LINE('',#224,#226);
#228=EDGE_CURVE('',#194,#123,#227,.T.);
#229=ORIENTED_EDGE('',*,*,#228,.T.);
#230=ORIENTED_EDGE('',*,*,#152,.F.);
#231=CARTESIAN_POINT('',(-16.399999999999999,-11.500000000000004,0.0));
#232=DIRECTION('',(1.0,0.0,0.0));
#233=VECTOR('',#232,32.799999999999997);
#234=LINE('',#231,#233);
#235=EDGE_CURVE('',#141,#202,#234,.T.);
#236=ORIENTED_EDGE('',*,*,#235,.T.);
#237=ORIENTED_EDGE('',*,*,#207,.T.);
#238=EDGE_LOOP('',(#229,#230,#236,#237));
#239=FACE_OUTER_BOUND('',#238,.T.);
#240=ADVANCED_FACE('',(#239),#223,.T.);
#241=CARTESIAN_POINT('',(-1.110223E-015,-1.110223E-015,0.0));
#242=DIRECTION('',(0.0,0.0,1.0));
#243=DIRECTION('',(1.0,0.0,0.0));
#244=AXIS2_PLACEMENT_3D('',#241,#242,#243);
#245=PLANE('',#244);
#246=ORIENTED_EDGE('',*,*,#235,.F.);
#247=ORIENTED_EDGE('',*,*,#146,.F.);
#248=ORIENTED_EDGE('',*,*,#182,.F.);
#249=ORIENTED_EDGE('',*,*,#213,.F.);
#250=EDGE_LOOP('',(#246,#247,#248,#249));
#251=FACE_OUTER_BOUND('',#250,.T.);
#252=ORIENTED_EDGE('',*,*,#101,.T.);
#253=EDGE_LOOP('',(#252));
#254=FACE_BOUND('',#253,.T.);
#255=ADVANCED_FACE('',(#251,#254),#245,.F.);
#256=CARTESIAN_POINT('',(-1.110223E-015,-1.054332E-015,6.000000000000001));
#257=DIRECTION('',(0.0,0.0,1.0));
#258=DIRECTION('',(1.0,0.0,0.0));
#259=AXIS2_PLACEMENT_3D('',#256,#257,#258);
#260=PLANE('',#259);
#261=ORIENTED_EDGE('',*,*,#130,.F.);
#262=ORIENTED_EDGE('',*,*,#228,.F.);
#263=ORIENTED_EDGE('',*,*,#199,.F.);
#264=ORIENTED_EDGE('',*,*,#168,.F.);
#265=EDGE_LOOP('',(#261,#262,#263,#264));
#266=FACE_OUTER_BOUND('',#265,.T.);
#267=ORIENTED_EDGE('',*,*,#112,.T.);
#268=EDGE_LOOP('',(#267));
#269=FACE_BOUND('',#268,.T.);
#270=ADVANCED_FACE('',(#266,#269),#260,.T.);
#271=CLOSED_SHELL('',(#116,#156,#187,#218,#240,#255,#270));
#272=MANIFOLD_SOLID_BREP('Volumenk\S\vrper1',#271);
#273=COLOUR_RGB('Standard',0.752941012382507,0.752941012382507,0.752941012382507);
#274=FILL_AREA_STYLE_COLOUR('Standard',#273);
#275=FILL_AREA_STYLE('Standard',(#274));
#276=SURFACE_STYLE_FILL_AREA(#275);
#277=SURFACE_SIDE_STYLE('Standard',(#276));
#278=SURFACE_STYLE_USAGE(.BOTH.,#277);
#279=PRESENTATION_STYLE_ASSIGNMENT((#278));
#280=STYLED_ITEM('',(#279),#272);
#281=MECHANICAL_DESIGN_GEOMETRIC_PRESENTATION_REPRESENTATION('',(#280),#36);
#282=ADVANCED_BREP_SHAPE_REPRESENTATION('ABSR',(#272),#36);
#283=SHAPE_REPRESENTATION_RELATIONSHIP('SRR','None',#282,#41);
ENDSEC;
END-ISO-10303-21;
