ISO-10303-21;
HEADER;
/* Generated by software containing ST-Developer
 * from STEP Tools, Inc. (www.steptools.com) 
 */

FILE_DESCRIPTION(
/* description */ (''),
/* implementation_level */ '2;1');

FILE_NAME(
/* name */ 
'Q:\\Ric010\\FF7\\FIPlastiCAD\\FIP\\Lavoro\\PVC Fittings\\PVC Fittings
 STEP\\TIV\\TIV110.ipt.stp',
/* time_stamp */ '2013-10-01T14:56:00+02:00',
/* author */ ('bfaro'),
/* organization */ (''),
/* preprocessor_version */ 'ST-DEVELOPER v15.2',
/* originating_system */ 'Autodesk Inventor 2014',
/* authorisation */ '');

FILE_SCHEMA (('AUTOMOTIVE_DESIGN { 1 0 10303 214 3 1 1 }'));
ENDSEC;

DATA;
#10=SHAPE_REPRESENTATION_RELATIONSHIP('SRR','None',#323,#11);
#11=ADVANCED_BREP_SHAPE_REPRESENTATION($,(#176),#314);
#12=STYLED_ITEM($,(#331),#176);
#13=PLANE($,#201);
#14=PLANE($,#202);
#15=PLANE($,#203);
#16=PLANE($,#204);
#17=PLANE($,#205);
#18=PLANE($,#206);
#19=FACE_OUTER_BOUND($,#62,.T.);
#20=FACE_OUTER_BOUND($,#64,.T.);
#21=FACE_OUTER_BOUND($,#69,.T.);
#22=FACE_OUTER_BOUND($,#71,.T.);
#23=FACE_OUTER_BOUND($,#73,.T.);
#24=FACE_OUTER_BOUND($,#75,.T.);
#25=FACE_OUTER_BOUND($,#79,.T.);
#26=FACE_OUTER_BOUND($,#81,.T.);
#27=CIRCLE($,#181,53.);
#28=CIRCLE($,#182,53.);
#29=CIRCLE($,#184,53.);
#30=CIRCLE($,#186,55.);
#31=CIRCLE($,#187,55.);
#32=CIRCLE($,#191,66.5);
#33=CIRCLE($,#192,66.5);
#34=CIRCLE($,#194,66.5);
#35=CIRCLE($,#196,55.);
#36=CIRCLE($,#197,55.);
#37=CIRCLE($,#199,55.);
#38=CIRCLE($,#200,55.);
#39=FACE_BOUND($,#59,.T.);
#40=FACE_BOUND($,#60,.T.);
#41=FACE_BOUND($,#61,.T.);
#42=FACE_BOUND($,#63,.T.);
#43=FACE_BOUND($,#65,.T.);
#44=FACE_BOUND($,#66,.T.);
#45=FACE_BOUND($,#67,.T.);
#46=FACE_BOUND($,#68,.T.);
#47=FACE_BOUND($,#70,.T.);
#48=FACE_BOUND($,#72,.T.);
#49=FACE_BOUND($,#74,.T.);
#50=FACE_BOUND($,#76,.T.);
#51=FACE_BOUND($,#77,.T.);
#52=FACE_BOUND($,#78,.T.);
#53=FACE_BOUND($,#80,.T.);
#54=FACE_BOUND($,#82,.T.);
#55=FACE_BOUND($,#83,.T.);
#56=FACE_BOUND($,#84,.T.);
#57=FACE_BOUND($,#85,.T.);
#58=FACE_BOUND($,#86,.T.);
#59=EDGE_LOOP($,(#123,#124));
#60=EDGE_LOOP($,(#125));
#61=EDGE_LOOP($,(#126));
#62=EDGE_LOOP($,(#127,#128));
#63=EDGE_LOOP($,(#129));
#64=EDGE_LOOP($,(#130));
#65=EDGE_LOOP($,(#131));
#66=EDGE_LOOP($,(#132,#133));
#67=EDGE_LOOP($,(#134));
#68=EDGE_LOOP($,(#135));
#69=EDGE_LOOP($,(#136,#137));
#70=EDGE_LOOP($,(#138));
#71=EDGE_LOOP($,(#139));
#72=EDGE_LOOP($,(#140));
#73=EDGE_LOOP($,(#141));
#74=EDGE_LOOP($,(#142));
#75=EDGE_LOOP($,(#143));
#76=EDGE_LOOP($,(#144));
#77=EDGE_LOOP($,(#145));
#78=EDGE_LOOP($,(#146));
#79=EDGE_LOOP($,(#147));
#80=EDGE_LOOP($,(#148));
#81=EDGE_LOOP($,(#149));
#82=EDGE_LOOP($,(#150));
#83=EDGE_LOOP($,(#151));
#84=EDGE_LOOP($,(#152));
#85=EDGE_LOOP($,(#153));
#86=EDGE_LOOP($,(#154));
#87=ELLIPSE($,#179,74.9533188074566,53.);
#88=ELLIPSE($,#180,74.9533188040915,53.);
#89=ELLIPSE($,#189,94.0452018957001,66.5000000000001);
#90=ELLIPSE($,#190,94.045201899922,66.5);
#91=VERTEX_POINT($,#269);
#92=VERTEX_POINT($,#270);
#93=VERTEX_POINT($,#273);
#94=VERTEX_POINT($,#275);
#95=VERTEX_POINT($,#278);
#96=VERTEX_POINT($,#281);
#97=VERTEX_POINT($,#283);
#98=VERTEX_POINT($,#286);
#99=VERTEX_POINT($,#287);
#100=VERTEX_POINT($,#290);
#101=VERTEX_POINT($,#292);
#102=VERTEX_POINT($,#295);
#103=VERTEX_POINT($,#298);
#104=VERTEX_POINT($,#300);
#105=VERTEX_POINT($,#303);
#106=VERTEX_POINT($,#305);
#107=EDGE_CURVE($,#91,#92,#87,.T.);
#108=EDGE_CURVE($,#92,#91,#88,.T.);
#109=EDGE_CURVE($,#93,#93,#27,.T.);
#110=EDGE_CURVE($,#94,#94,#28,.T.);
#111=EDGE_CURVE($,#95,#95,#29,.T.);
#112=EDGE_CURVE($,#96,#96,#30,.T.);
#113=EDGE_CURVE($,#97,#97,#31,.T.);
#114=EDGE_CURVE($,#98,#99,#89,.T.);
#115=EDGE_CURVE($,#98,#99,#90,.T.);
#116=EDGE_CURVE($,#100,#100,#32,.T.);
#117=EDGE_CURVE($,#101,#101,#33,.T.);
#118=EDGE_CURVE($,#102,#102,#34,.T.);
#119=EDGE_CURVE($,#103,#103,#35,.T.);
#120=EDGE_CURVE($,#104,#104,#36,.T.);
#121=EDGE_CURVE($,#105,#105,#37,.T.);
#122=EDGE_CURVE($,#106,#106,#38,.T.);
#123=ORIENTED_EDGE($,*,*,#107,.F.);
#124=ORIENTED_EDGE($,*,*,#108,.F.);
#125=ORIENTED_EDGE($,*,*,#109,.F.);
#126=ORIENTED_EDGE($,*,*,#110,.F.);
#127=ORIENTED_EDGE($,*,*,#107,.T.);
#128=ORIENTED_EDGE($,*,*,#108,.T.);
#129=ORIENTED_EDGE($,*,*,#111,.F.);
#130=ORIENTED_EDGE($,*,*,#112,.T.);
#131=ORIENTED_EDGE($,*,*,#113,.F.);
#132=ORIENTED_EDGE($,*,*,#114,.F.);
#133=ORIENTED_EDGE($,*,*,#115,.T.);
#134=ORIENTED_EDGE($,*,*,#116,.T.);
#135=ORIENTED_EDGE($,*,*,#117,.F.);
#136=ORIENTED_EDGE($,*,*,#115,.F.);
#137=ORIENTED_EDGE($,*,*,#114,.T.);
#138=ORIENTED_EDGE($,*,*,#118,.F.);
#139=ORIENTED_EDGE($,*,*,#119,.T.);
#140=ORIENTED_EDGE($,*,*,#120,.F.);
#141=ORIENTED_EDGE($,*,*,#121,.T.);
#142=ORIENTED_EDGE($,*,*,#122,.F.);
#143=ORIENTED_EDGE($,*,*,#116,.F.);
#144=ORIENTED_EDGE($,*,*,#113,.T.);
#145=ORIENTED_EDGE($,*,*,#109,.T.);
#146=ORIENTED_EDGE($,*,*,#112,.F.);
#147=ORIENTED_EDGE($,*,*,#117,.T.);
#148=ORIENTED_EDGE($,*,*,#119,.F.);
#149=ORIENTED_EDGE($,*,*,#118,.T.);
#150=ORIENTED_EDGE($,*,*,#121,.F.);
#151=ORIENTED_EDGE($,*,*,#110,.T.);
#152=ORIENTED_EDGE($,*,*,#120,.T.);
#153=ORIENTED_EDGE($,*,*,#111,.T.);
#154=ORIENTED_EDGE($,*,*,#122,.T.);
#155=CYLINDRICAL_SURFACE($,#178,53.);
#156=CYLINDRICAL_SURFACE($,#183,53.);
#157=CYLINDRICAL_SURFACE($,#185,55.);
#158=CYLINDRICAL_SURFACE($,#188,66.5);
#159=CYLINDRICAL_SURFACE($,#193,66.5);
#160=CYLINDRICAL_SURFACE($,#195,55.);
#161=CYLINDRICAL_SURFACE($,#198,55.0000000000012);
#162=ADVANCED_FACE($,(#39,#40,#41),#155,.F.);
#163=ADVANCED_FACE($,(#19,#42),#156,.F.);
#164=ADVANCED_FACE($,(#20,#43),#157,.F.);
#165=ADVANCED_FACE($,(#44,#45,#46),#158,.T.);
#166=ADVANCED_FACE($,(#21,#47),#159,.T.);
#167=ADVANCED_FACE($,(#22,#48),#160,.F.);
#168=ADVANCED_FACE($,(#23,#49),#161,.F.);
#169=ADVANCED_FACE($,(#24,#50),#13,.T.);
#170=ADVANCED_FACE($,(#51,#52),#14,.T.);
#171=ADVANCED_FACE($,(#25,#53),#15,.T.);
#172=ADVANCED_FACE($,(#26,#54),#16,.T.);
#173=ADVANCED_FACE($,(#55,#56),#17,.T.);
#174=ADVANCED_FACE($,(#57,#58),#18,.T.);
#175=CLOSED_SHELL($,(#162,#163,#164,#165,#166,#167,#168,#169,#170,#171,
#172,#173,#174));
#176=MANIFOLD_SOLID_BREP('Solido1',#175);
#177=AXIS2_PLACEMENT_3D('placement',#267,#207,#208);
#178=AXIS2_PLACEMENT_3D($,#268,#209,#210);
#179=AXIS2_PLACEMENT_3D($,#271,#211,#212);
#180=AXIS2_PLACEMENT_3D($,#272,#213,#214);
#181=AXIS2_PLACEMENT_3D($,#274,#215,#216);
#182=AXIS2_PLACEMENT_3D($,#276,#217,#218);
#183=AXIS2_PLACEMENT_3D($,#277,#219,#220);
#184=AXIS2_PLACEMENT_3D($,#279,#221,#222);
#185=AXIS2_PLACEMENT_3D($,#280,#223,#224);
#186=AXIS2_PLACEMENT_3D($,#282,#225,#226);
#187=AXIS2_PLACEMENT_3D($,#284,#227,#228);
#188=AXIS2_PLACEMENT_3D($,#285,#229,#230);
#189=AXIS2_PLACEMENT_3D($,#288,#231,#232);
#190=AXIS2_PLACEMENT_3D($,#289,#233,#234);
#191=AXIS2_PLACEMENT_3D($,#291,#235,#236);
#192=AXIS2_PLACEMENT_3D($,#293,#237,#238);
#193=AXIS2_PLACEMENT_3D($,#294,#239,#240);
#194=AXIS2_PLACEMENT_3D($,#296,#241,#242);
#195=AXIS2_PLACEMENT_3D($,#297,#243,#244);
#196=AXIS2_PLACEMENT_3D($,#299,#245,#246);
#197=AXIS2_PLACEMENT_3D($,#301,#247,#248);
#198=AXIS2_PLACEMENT_3D($,#302,#249,#250);
#199=AXIS2_PLACEMENT_3D($,#304,#251,#252);
#200=AXIS2_PLACEMENT_3D($,#306,#253,#254);
#201=AXIS2_PLACEMENT_3D($,#307,#255,#256);
#202=AXIS2_PLACEMENT_3D($,#308,#257,#258);
#203=AXIS2_PLACEMENT_3D($,#309,#259,#260);
#204=AXIS2_PLACEMENT_3D($,#310,#261,#262);
#205=AXIS2_PLACEMENT_3D($,#311,#263,#264);
#206=AXIS2_PLACEMENT_3D($,#312,#265,#266);
#207=DIRECTION('axis',(0.,0.,1.));
#208=DIRECTION('refdir',(1.,0.,0.));
#209=DIRECTION('center_axis',(0.,0.,-1.));
#210=DIRECTION('ref_axis',(-1.,0.,0.));
#211=DIRECTION('center_axis',(-0.707106781202421,0.,0.707106781170674));
#212=DIRECTION('ref_axis',(-0.707106781170674,0.,-0.707106781202421));
#213=DIRECTION('center_axis',(-0.707106781170674,0.,-0.707106781202421));
#214=DIRECTION('ref_axis',(-0.707106781202421,0.,0.707106781170674));
#215=DIRECTION('center_axis',(0.,0.,1.));
#216=DIRECTION('ref_axis',(-1.,0.,0.));
#217=DIRECTION('center_axis',(0.,0.,-1.));
#218=DIRECTION('ref_axis',(-1.,0.,0.));
#219=DIRECTION('center_axis',(-1.,0.,-4.48965940186536E-011));
#220=DIRECTION('ref_axis',(-4.48965940186536E-011,0.,1.));
#221=DIRECTION('center_axis',(-1.,0.,-4.489664E-011));
#222=DIRECTION('ref_axis',(-4.48965940186536E-011,0.,1.));
#223=DIRECTION('center_axis',(0.,0.,1.));
#224=DIRECTION('ref_axis',(1.,0.,0.));
#225=DIRECTION('center_axis',(0.,0.,1.));
#226=DIRECTION('ref_axis',(1.,0.,0.));
#227=DIRECTION('center_axis',(0.,0.,1.));
#228=DIRECTION('ref_axis',(1.,0.,0.));
#229=DIRECTION('center_axis',(0.,0.,1.));
#230=DIRECTION('ref_axis',(1.,0.,0.));
#231=DIRECTION('center_axis',(0.707106781171048,0.,0.707106781202047));
#232=DIRECTION('ref_axis',(-0.707106781202048,0.,0.707106781171048));
#233=DIRECTION('center_axis',(-0.707106781202047,0.,0.707106781171048));
#234=DIRECTION('ref_axis',(0.707106781171048,0.,0.707106781202047));
#235=DIRECTION('center_axis',(0.,0.,1.));
#236=DIRECTION('ref_axis',(1.,0.,0.));
#237=DIRECTION('center_axis',(0.,0.,1.));
#238=DIRECTION('ref_axis',(1.,0.,0.));
#239=DIRECTION('center_axis',(1.,0.,4.489664E-011));
#240=DIRECTION('ref_axis',(4.489664E-011,0.,-1.));
#241=DIRECTION('center_axis',(1.,0.,4.489664E-011));
#242=DIRECTION('ref_axis',(4.489664E-011,0.,-1.));
#243=DIRECTION('center_axis',(0.,0.,1.));
#244=DIRECTION('ref_axis',(1.,0.,0.));
#245=DIRECTION('center_axis',(0.,0.,1.));
#246=DIRECTION('ref_axis',(1.,0.,0.));
#247=DIRECTION('center_axis',(0.,0.,1.));
#248=DIRECTION('ref_axis',(1.,0.,0.));
#249=DIRECTION('center_axis',(1.,1.77662509229472E-013,4.48957115895205E-011));
#250=DIRECTION('ref_axis',(4.48956427590009E-011,0.,-1.));
#251=DIRECTION('center_axis',(1.,0.,4.489664E-011));
#252=DIRECTION('ref_axis',(4.489664E-011,0.,-1.));
#253=DIRECTION('center_axis',(1.,0.,4.489664E-011));
#254=DIRECTION('ref_axis',(4.489664E-011,0.,-1.));
#255=DIRECTION('center_axis',(0.,0.,-1.));
#256=DIRECTION('ref_axis',(-1.,0.,0.));
#257=DIRECTION('center_axis',(0.,0.,-1.));
#258=DIRECTION('ref_axis',(-1.,0.,0.));
#259=DIRECTION('center_axis',(0.,0.,1.));
#260=DIRECTION('ref_axis',(1.,0.,0.));
#261=DIRECTION('center_axis',(1.,0.,4.489664E-011));
#262=DIRECTION('ref_axis',(4.48963533017377E-011,0.,-1.));
#263=DIRECTION('center_axis',(0.,0.,1.));
#264=DIRECTION('ref_axis',(1.,0.,0.));
#265=DIRECTION('center_axis',(1.,0.,4.489664E-011));
#266=DIRECTION('ref_axis',(4.48963533017377E-011,0.,-1.));
#267=CARTESIAN_POINT('',(0.,0.,0.));
#268=CARTESIAN_POINT('Origin',(0.,0.,183.));
#269=CARTESIAN_POINT('',(0.,-53.,121.999999999991));
#270=CARTESIAN_POINT('',(0.,53.,121.999999999991));
#271=CARTESIAN_POINT('Origin',(0.,0.,121.999999999991));
#272=CARTESIAN_POINT('Origin',(0.,0.,121.999999999991));
#273=CARTESIAN_POINT('',(53.,6.49062803548097E-015,61.));
#274=CARTESIAN_POINT('Origin',(0.,0.,61.));
#275=CARTESIAN_POINT('',(53.,6.49062803548097E-015,183.));
#276=CARTESIAN_POINT('Origin',(0.,0.,183.));
#277=CARTESIAN_POINT('Origin',(61.,0.,122.00000000273));
#278=CARTESIAN_POINT('',(61.0000000023795,6.49062803548097E-015,69.00000000273));
#279=CARTESIAN_POINT('Origin',(61.,0.,122.00000000273));
#280=CARTESIAN_POINT('Origin',(0.,0.,30.5));
#281=CARTESIAN_POINT('',(-55.,-6.735335E-015,61.));
#282=CARTESIAN_POINT('Origin',(0.,0.,61.));
#283=CARTESIAN_POINT('',(-55.,-6.735335E-015,0.));
#284=CARTESIAN_POINT('Origin',(0.,0.,0.));
#285=CARTESIAN_POINT('Origin',(0.,0.,0.));
#286=CARTESIAN_POINT('',(-5.484326E-025,-66.5,122.));
#287=CARTESIAN_POINT('',(1.828109E-025,66.5,122.));
#288=CARTESIAN_POINT('Origin',(0.,0.,122.));
#289=CARTESIAN_POINT('Origin',(0.,0.,122.));
#290=CARTESIAN_POINT('',(66.5,-1.628726E-014,0.));
#291=CARTESIAN_POINT('Origin',(0.,0.,0.));
#292=CARTESIAN_POINT('',(-66.5,-8.143632E-015,244.));
#293=CARTESIAN_POINT('Origin',(0.,0.,244.));
#294=CARTESIAN_POINT('Origin',(0.,0.,122.));
#295=CARTESIAN_POINT('',(121.999999997014,-8.143632E-015,188.500000005477));
#296=CARTESIAN_POINT('Origin',(122.,0.,122.00000000547));
#297=CARTESIAN_POINT('Origin',(0.,0.,213.5));
#298=CARTESIAN_POINT('',(-55.,-6.735335E-015,244.));
#299=CARTESIAN_POINT('Origin',(0.,0.,244.));
#300=CARTESIAN_POINT('',(-55.,-6.735335E-015,183.));
#301=CARTESIAN_POINT('Origin',(0.,0.,183.));
#302=CARTESIAN_POINT('Origin',(91.4999999999999,0.,122.000000004101));
#303=CARTESIAN_POINT('',(121.999999997531,-6.735335E-015,177.000000005469));
#304=CARTESIAN_POINT('Origin',(122.,0.,122.00000000547));
#305=CARTESIAN_POINT('',(60.9999999975307,-6.735335E-015,177.00000000273));
#306=CARTESIAN_POINT('Origin',(61.,0.,122.00000000273));
#307=CARTESIAN_POINT('Origin',(0.,0.,0.));
#308=CARTESIAN_POINT('Origin',(0.,0.,61.));
#309=CARTESIAN_POINT('Origin',(0.,0.,244.));
#310=CARTESIAN_POINT('Origin',(122.,0.,122.00000000547));
#311=CARTESIAN_POINT('Origin',(0.,0.,183.));
#312=CARTESIAN_POINT('Origin',(61.,0.,122.00000000273));
#313=UNCERTAINTY_MEASURE_WITH_UNIT(LENGTH_MEASURE(0.01),#315,
'DISTANCE_ACCURACY_VALUE',
'Maximum model space distance between geometric entities at asserted c
onnectivities');
#314=(
GEOMETRIC_REPRESENTATION_CONTEXT(3)
GLOBAL_UNCERTAINTY_ASSIGNED_CONTEXT((#313))
GLOBAL_UNIT_ASSIGNED_CONTEXT((#315,#318,#316))
REPRESENTATION_CONTEXT('','3D')
);
#315=(
LENGTH_UNIT()
NAMED_UNIT(*)
SI_UNIT(.MILLI.,.METRE.)
);
#316=(
NAMED_UNIT(*)
SI_UNIT($,.STERADIAN.)
SOLID_ANGLE_UNIT()
);
#317=DIMENSIONAL_EXPONENTS(0.,0.,0.,0.,0.,0.,0.);
#318=(
CONVERSION_BASED_UNIT('degree',#320)
NAMED_UNIT(#317)
PLANE_ANGLE_UNIT()
);
#319=(
NAMED_UNIT(*)
PLANE_ANGLE_UNIT()
SI_UNIT($,.RADIAN.)
);
#320=PLANE_ANGLE_MEASURE_WITH_UNIT(PLANE_ANGLE_MEASURE(0.01745329252),#319);
#321=SHAPE_DEFINITION_REPRESENTATION(#322,#323);
#322=PRODUCT_DEFINITION_SHAPE('',$,#325);
#323=SHAPE_REPRESENTATION('',(#177),#314);
#324=PRODUCT_DEFINITION_CONTEXT('3D Mechanical Parts',#328,'design');
#325=PRODUCT_DEFINITION('TIV110','TIV110',#326,#324);
#326=PRODUCT_DEFINITION_FORMATION('',$,#330);
#327=APPLICATION_PROTOCOL_DEFINITION('international standard',
'automotive_design',2009,#328);
#328=APPLICATION_CONTEXT(
'Core Data for Automotive Mechanical Design Process');
#329=PRODUCT_CONTEXT('3D Mechanical Parts',#328,'mechanical');
#330=PRODUCT('TIV110','TIV110',$,(#329));
#331=PRESENTATION_STYLE_ASSIGNMENT((#332));
#332=SURFACE_STYLE_USAGE(.BOTH.,#333);
#333=SURFACE_SIDE_STYLE($,(#334));
#334=SURFACE_STYLE_FILL_AREA(#335);
#335=FILL_AREA_STYLE($,(#336));
#336=FILL_AREA_STYLE_COLOUR($,#337);
#337=COLOUR_RGB('',0.509803921568627,0.509803921568627,0.588235294117647);
ENDSEC;
END-ISO-10303-21;
