ISO-10303-21;
HEADER;
/* Generated by software containing ST-Developer
 * from STEP Tools, Inc. (www.steptools.com) 
 */

FILE_DESCRIPTION(
/* description */ (''),
/* implementation_level */ '2;1');

FILE_NAME(
/* name */ 'C:\\Users\\Gabriele\\Desktop\\catalogo\\BE30\\BE300630.stp',

/* time_stamp */ '2016-10-17T14:45:24+02:00',
/* author */ ('Gabriele'),
/* organization */ (''),
/* preprocessor_version */ 'ST-DEVELOPER v16.5',
/* originating_system */ 'Autodesk Inventor 2017',
/* authorisation */ '');

FILE_SCHEMA (('AUTOMOTIVE_DESIGN { 1 0 10303 214 3 1 1 }'));
ENDSEC;

DATA;
#10=MECHANICAL_DESIGN_GEOMETRIC_PRESENTATION_REPRESENTATION('',(#13),#507);
#11=SHAPE_REPRESENTATION_RELATIONSHIP('SRR','None',#516,#12);
#12=ADVANCED_BREP_SHAPE_REPRESENTATION('',(#14),#506);
#13=STYLED_ITEM('',(#525),#14);
#14=MANIFOLD_SOLID_BREP('Solido1',#213);
#15=B_SPLINE_CURVE_WITH_KNOTS('',3,(#330,#331,#332,#333,#334,#335,#336,
#337,#338,#339,#340,#341,#342,#343,#344,#345,#346,#347,#348,#349,#350,#351,
#352,#353,#354,#355,#356,#357,#358,#359,#360,#361,#362,#363,#364,#365,#366,
#367,#368,#369,#370,#371,#372,#373,#374,#375,#376,#377,#378,#379,#380,#381,
#382,#383,#384,#385,#386,#387,#388,#389,#390,#391,#392,#393,#394,#395),
 .UNSPECIFIED.,.T.,.F.,(4,2,2,2,2,2,2,2,2,2,2,2,2,2,2,2,2,2,2,2,2,2,2,2,
2,2,2,2,2,2,2,2,4),(0.,0.694196296956199,1.3883925939124,2.08259554169838,
2.77679848948436,3.47101185673217,4.16522522397998,4.85945243761997,5.55367965125996,
6.24791311246032,6.94214657366068,7.63637554203345,8.33060451040622,9.02481613098866,
9.7190277515711,10.4132173242339,11.1074068968968,11.8015964695596,12.4957860422224,
13.1899976628049,13.8842092833873,14.5784382517601,15.2726672201329,15.9669006813332,
16.6611341425336,17.3553613561736,18.0495885698136,18.7438019370614,19.4380153043092,
20.1322182520952,20.8264211998811,21.5206174968373,22.2148137937935),
 .UNSPECIFIED.);
#16=B_SPLINE_CURVE_WITH_KNOTS('',3,(#406,#407,#408,#409,#410,#411,#412,
#413,#414,#415,#416,#417,#418,#419,#420,#421,#422,#423,#424,#425,#426,#427,
#428,#429,#430,#431,#432,#433,#434,#435,#436,#437,#438,#439,#440,#441,#442,
#443,#444,#445,#446,#447,#448,#449,#450,#451,#452,#453,#454,#455,#456,#457,
#458,#459,#460,#461,#462,#463,#464,#465,#466,#467,#468,#469,#470,#471),
 .UNSPECIFIED.,.T.,.F.,(4,2,2,2,2,2,2,2,2,2,2,2,2,2,2,2,2,2,2,2,2,2,2,2,
2,2,2,2,2,2,2,2,4),(0.,0.6941962969562,1.3883925939124,2.08259554169838,
2.77679848948436,3.47101185673217,4.16522522397998,4.85945243761997,5.55367965125997,
6.24791311246032,6.94214657366068,7.63637554203345,8.33060451040622,9.02481613098866,
9.7190277515711,10.4132173242339,11.1074068968968,11.8015964695596,12.4957860422224,
13.1899976628049,13.8842092833873,14.5784382517601,15.2726672201329,15.9669006813332,
16.6611341425336,17.3553613561736,18.0495885698136,18.7438019370614,19.4380153043092,
20.1322182520952,20.8264211998811,21.5206174968373,22.2148137937935),
 .UNSPECIFIED.);
#17=PLANE('',#220);
#18=PLANE('',#226);
#19=PLANE('',#230);
#20=PLANE('',#237);
#21=PLANE('',#246);
#22=PLANE('',#247);
#23=CYLINDRICAL_SURFACE('',#218,38.5);
#24=CYLINDRICAL_SURFACE('',#224,38.5);
#25=CYLINDRICAL_SURFACE('',#232,31.5);
#26=CYLINDRICAL_SURFACE('',#239,31.5);
#27=FACE_BOUND('',#64,.T.);
#28=FACE_BOUND('',#66,.T.);
#29=FACE_BOUND('',#68,.T.);
#30=FACE_BOUND('',#70,.T.);
#31=FACE_BOUND('',#72,.T.);
#32=FACE_BOUND('',#74,.T.);
#33=FACE_BOUND('',#76,.T.);
#34=FACE_BOUND('',#78,.T.);
#35=FACE_BOUND('',#80,.T.);
#36=FACE_BOUND('',#82,.T.);
#37=FACE_BOUND('',#84,.T.);
#38=FACE_BOUND('',#86,.T.);
#39=FACE_BOUND('',#88,.T.);
#40=FACE_BOUND('',#90,.T.);
#41=FACE_BOUND('',#92,.T.);
#42=FACE_BOUND('',#94,.T.);
#43=FACE_BOUND('',#96,.T.);
#44=FACE_BOUND('',#98,.T.);
#45=FACE_OUTER_BOUND('',#63,.T.);
#46=FACE_OUTER_BOUND('',#65,.T.);
#47=FACE_OUTER_BOUND('',#67,.T.);
#48=FACE_OUTER_BOUND('',#69,.T.);
#49=FACE_OUTER_BOUND('',#71,.T.);
#50=FACE_OUTER_BOUND('',#73,.T.);
#51=FACE_OUTER_BOUND('',#75,.T.);
#52=FACE_OUTER_BOUND('',#77,.T.);
#53=FACE_OUTER_BOUND('',#79,.T.);
#54=FACE_OUTER_BOUND('',#81,.T.);
#55=FACE_OUTER_BOUND('',#83,.T.);
#56=FACE_OUTER_BOUND('',#85,.T.);
#57=FACE_OUTER_BOUND('',#87,.T.);
#58=FACE_OUTER_BOUND('',#89,.T.);
#59=FACE_OUTER_BOUND('',#91,.T.);
#60=FACE_OUTER_BOUND('',#93,.T.);
#61=FACE_OUTER_BOUND('',#95,.T.);
#62=FACE_OUTER_BOUND('',#97,.T.);
#63=EDGE_LOOP('',(#151));
#64=EDGE_LOOP('',(#152));
#65=EDGE_LOOP('',(#153));
#66=EDGE_LOOP('',(#154));
#67=EDGE_LOOP('',(#155));
#68=EDGE_LOOP('',(#156));
#69=EDGE_LOOP('',(#157));
#70=EDGE_LOOP('',(#158));
#71=EDGE_LOOP('',(#159));
#72=EDGE_LOOP('',(#160));
#73=EDGE_LOOP('',(#161));
#74=EDGE_LOOP('',(#162));
#75=EDGE_LOOP('',(#163));
#76=EDGE_LOOP('',(#164));
#77=EDGE_LOOP('',(#165));
#78=EDGE_LOOP('',(#166));
#79=EDGE_LOOP('',(#167));
#80=EDGE_LOOP('',(#168));
#81=EDGE_LOOP('',(#169));
#82=EDGE_LOOP('',(#170));
#83=EDGE_LOOP('',(#171));
#84=EDGE_LOOP('',(#172));
#85=EDGE_LOOP('',(#173));
#86=EDGE_LOOP('',(#174));
#87=EDGE_LOOP('',(#175));
#88=EDGE_LOOP('',(#176));
#89=EDGE_LOOP('',(#177));
#90=EDGE_LOOP('',(#178));
#91=EDGE_LOOP('',(#179));
#92=EDGE_LOOP('',(#180));
#93=EDGE_LOOP('',(#181));
#94=EDGE_LOOP('',(#182));
#95=EDGE_LOOP('',(#183));
#96=EDGE_LOOP('',(#184));
#97=EDGE_LOOP('',(#185));
#98=EDGE_LOOP('',(#186));
#99=CIRCLE('',#216,38.5);
#100=CIRCLE('',#217,38.);
#101=CIRCLE('',#219,38.5);
#102=CIRCLE('',#222,38.);
#103=CIRCLE('',#223,38.5);
#104=CIRCLE('',#225,38.5);
#105=CIRCLE('',#228,31.5);
#106=CIRCLE('',#229,32.);
#107=CIRCLE('',#231,38.);
#108=CIRCLE('',#233,31.5);
#109=CIRCLE('',#235,31.5);
#110=CIRCLE('',#236,32.);
#111=CIRCLE('',#238,38.);
#112=CIRCLE('',#240,31.5);
#113=CIRCLE('',#244,30.5);
#114=CIRCLE('',#245,30.5);
#115=VERTEX_POINT('',#321);
#116=VERTEX_POINT('',#323);
#117=VERTEX_POINT('',#326);
#118=VERTEX_POINT('',#329);
#119=VERTEX_POINT('',#397);
#120=VERTEX_POINT('',#399);
#121=VERTEX_POINT('',#402);
#122=VERTEX_POINT('',#405);
#123=VERTEX_POINT('',#473);
#124=VERTEX_POINT('',#475);
#125=VERTEX_POINT('',#478);
#126=VERTEX_POINT('',#481);
#127=VERTEX_POINT('',#484);
#128=VERTEX_POINT('',#486);
#129=VERTEX_POINT('',#489);
#130=VERTEX_POINT('',#492);
#131=VERTEX_POINT('',#497);
#132=VERTEX_POINT('',#499);
#133=EDGE_CURVE('',#115,#115,#99,.T.);
#134=EDGE_CURVE('',#116,#116,#100,.T.);
#135=EDGE_CURVE('',#117,#117,#101,.T.);
#136=EDGE_CURVE('',#118,#118,#15,.T.);
#137=EDGE_CURVE('',#119,#119,#102,.T.);
#138=EDGE_CURVE('',#120,#120,#103,.T.);
#139=EDGE_CURVE('',#121,#121,#104,.T.);
#140=EDGE_CURVE('',#122,#122,#16,.T.);
#141=EDGE_CURVE('',#123,#123,#105,.T.);
#142=EDGE_CURVE('',#124,#124,#106,.T.);
#143=EDGE_CURVE('',#125,#125,#107,.T.);
#144=EDGE_CURVE('',#126,#126,#108,.T.);
#145=EDGE_CURVE('',#127,#127,#109,.T.);
#146=EDGE_CURVE('',#128,#128,#110,.T.);
#147=EDGE_CURVE('',#129,#129,#111,.T.);
#148=EDGE_CURVE('',#130,#130,#112,.T.);
#149=EDGE_CURVE('',#131,#131,#113,.T.);
#150=EDGE_CURVE('',#132,#132,#114,.T.);
#151=ORIENTED_EDGE('',*,*,#133,.T.);
#152=ORIENTED_EDGE('',*,*,#134,.T.);
#153=ORIENTED_EDGE('',*,*,#135,.F.);
#154=ORIENTED_EDGE('',*,*,#133,.F.);
#155=ORIENTED_EDGE('',*,*,#134,.F.);
#156=ORIENTED_EDGE('',*,*,#136,.F.);
#157=ORIENTED_EDGE('',*,*,#137,.T.);
#158=ORIENTED_EDGE('',*,*,#138,.T.);
#159=ORIENTED_EDGE('',*,*,#139,.F.);
#160=ORIENTED_EDGE('',*,*,#138,.F.);
#161=ORIENTED_EDGE('',*,*,#137,.F.);
#162=ORIENTED_EDGE('',*,*,#140,.F.);
#163=ORIENTED_EDGE('',*,*,#141,.T.);
#164=ORIENTED_EDGE('',*,*,#142,.T.);
#165=ORIENTED_EDGE('',*,*,#143,.F.);
#166=ORIENTED_EDGE('',*,*,#142,.F.);
#167=ORIENTED_EDGE('',*,*,#144,.F.);
#168=ORIENTED_EDGE('',*,*,#141,.F.);
#169=ORIENTED_EDGE('',*,*,#145,.T.);
#170=ORIENTED_EDGE('',*,*,#146,.T.);
#171=ORIENTED_EDGE('',*,*,#147,.F.);
#172=ORIENTED_EDGE('',*,*,#146,.F.);
#173=ORIENTED_EDGE('',*,*,#148,.T.);
#174=ORIENTED_EDGE('',*,*,#145,.F.);
#175=ORIENTED_EDGE('',*,*,#147,.T.);
#176=ORIENTED_EDGE('',*,*,#135,.T.);
#177=ORIENTED_EDGE('',*,*,#139,.T.);
#178=ORIENTED_EDGE('',*,*,#143,.T.);
#179=ORIENTED_EDGE('',*,*,#149,.F.);
#180=ORIENTED_EDGE('',*,*,#150,.F.);
#181=ORIENTED_EDGE('',*,*,#144,.T.);
#182=ORIENTED_EDGE('',*,*,#150,.T.);
#183=ORIENTED_EDGE('',*,*,#148,.F.);
#184=ORIENTED_EDGE('',*,*,#149,.T.);
#185=ORIENTED_EDGE('',*,*,#140,.T.);
#186=ORIENTED_EDGE('',*,*,#136,.T.);
#187=TOROIDAL_SURFACE('',#215,38.,0.5);
#188=TOROIDAL_SURFACE('',#221,38.,0.5);
#189=TOROIDAL_SURFACE('',#227,32.,0.5);
#190=TOROIDAL_SURFACE('',#234,32.,0.5);
#191=TOROIDAL_SURFACE('',#241,38.,0.5);
#192=TOROIDAL_SURFACE('',#242,38.,0.5);
#193=TOROIDAL_SURFACE('',#243,126.,30.5);
#194=TOROIDAL_SURFACE('',#248,126.,37.5);
#195=ADVANCED_FACE('',(#45,#27),#187,.T.);
#196=ADVANCED_FACE('',(#46,#28),#23,.T.);
#197=ADVANCED_FACE('',(#47,#29),#17,.T.);
#198=ADVANCED_FACE('',(#48,#30),#188,.T.);
#199=ADVANCED_FACE('',(#49,#31),#24,.T.);
#200=ADVANCED_FACE('',(#50,#32),#18,.F.);
#201=ADVANCED_FACE('',(#51,#33),#189,.T.);
#202=ADVANCED_FACE('',(#52,#34),#19,.T.);
#203=ADVANCED_FACE('',(#53,#35),#25,.F.);
#204=ADVANCED_FACE('',(#54,#36),#190,.T.);
#205=ADVANCED_FACE('',(#55,#37),#20,.F.);
#206=ADVANCED_FACE('',(#56,#38),#26,.F.);
#207=ADVANCED_FACE('',(#57,#39),#191,.T.);
#208=ADVANCED_FACE('',(#58,#40),#192,.T.);
#209=ADVANCED_FACE('',(#59,#41),#193,.F.);
#210=ADVANCED_FACE('',(#60,#42),#21,.T.);
#211=ADVANCED_FACE('',(#61,#43),#22,.F.);
#212=ADVANCED_FACE('',(#62,#44),#194,.T.);
#213=CLOSED_SHELL('',(#195,#196,#197,#198,#199,#200,#201,#202,#203,#204,
#205,#206,#207,#208,#209,#210,#211,#212));
#214=AXIS2_PLACEMENT_3D('placement',#319,#249,#250);
#215=AXIS2_PLACEMENT_3D('',#320,#251,#252);
#216=AXIS2_PLACEMENT_3D('',#322,#253,#254);
#217=AXIS2_PLACEMENT_3D('',#324,#255,#256);
#218=AXIS2_PLACEMENT_3D('',#325,#257,#258);
#219=AXIS2_PLACEMENT_3D('',#327,#259,#260);
#220=AXIS2_PLACEMENT_3D('',#328,#261,#262);
#221=AXIS2_PLACEMENT_3D('',#396,#263,#264);
#222=AXIS2_PLACEMENT_3D('',#398,#265,#266);
#223=AXIS2_PLACEMENT_3D('',#400,#267,#268);
#224=AXIS2_PLACEMENT_3D('',#401,#269,#270);
#225=AXIS2_PLACEMENT_3D('',#403,#271,#272);
#226=AXIS2_PLACEMENT_3D('',#404,#273,#274);
#227=AXIS2_PLACEMENT_3D('',#472,#275,#276);
#228=AXIS2_PLACEMENT_3D('',#474,#277,#278);
#229=AXIS2_PLACEMENT_3D('',#476,#279,#280);
#230=AXIS2_PLACEMENT_3D('',#477,#281,#282);
#231=AXIS2_PLACEMENT_3D('',#479,#283,#284);
#232=AXIS2_PLACEMENT_3D('',#480,#285,#286);
#233=AXIS2_PLACEMENT_3D('',#482,#287,#288);
#234=AXIS2_PLACEMENT_3D('',#483,#289,#290);
#235=AXIS2_PLACEMENT_3D('',#485,#291,#292);
#236=AXIS2_PLACEMENT_3D('',#487,#293,#294);
#237=AXIS2_PLACEMENT_3D('',#488,#295,#296);
#238=AXIS2_PLACEMENT_3D('',#490,#297,#298);
#239=AXIS2_PLACEMENT_3D('',#491,#299,#300);
#240=AXIS2_PLACEMENT_3D('',#493,#301,#302);
#241=AXIS2_PLACEMENT_3D('',#494,#303,#304);
#242=AXIS2_PLACEMENT_3D('',#495,#305,#306);
#243=AXIS2_PLACEMENT_3D('',#496,#307,#308);
#244=AXIS2_PLACEMENT_3D('',#498,#309,#310);
#245=AXIS2_PLACEMENT_3D('',#500,#311,#312);
#246=AXIS2_PLACEMENT_3D('',#501,#313,#314);
#247=AXIS2_PLACEMENT_3D('',#502,#315,#316);
#248=AXIS2_PLACEMENT_3D('',#503,#317,#318);
#249=DIRECTION('axis',(0.,0.,1.));
#250=DIRECTION('refdir',(1.,0.,0.));
#251=DIRECTION('center_axis',(0.,0.,1.));
#252=DIRECTION('ref_axis',(1.,0.,0.));
#253=DIRECTION('center_axis',(0.,0.,1.));
#254=DIRECTION('ref_axis',(1.,0.,0.));
#255=DIRECTION('center_axis',(0.,0.,-1.));
#256=DIRECTION('ref_axis',(1.,0.,0.));
#257=DIRECTION('center_axis',(0.,0.,1.));
#258=DIRECTION('ref_axis',(1.,0.,0.));
#259=DIRECTION('center_axis',(0.,0.,-1.));
#260=DIRECTION('ref_axis',(1.,0.,0.));
#261=DIRECTION('center_axis',(0.,0.,1.));
#262=DIRECTION('ref_axis',(1.,0.,0.));
#263=DIRECTION('center_axis',(-1.,0.,-2.22044604925031E-16));
#264=DIRECTION('ref_axis',(-3.69113109485766E-16,0.,1.));
#265=DIRECTION('center_axis',(-1.,0.,-2.22044604925031E-16));
#266=DIRECTION('ref_axis',(-2.22044604925031E-16,0.,1.));
#267=DIRECTION('center_axis',(1.,0.,2.22044604925031E-16));
#268=DIRECTION('ref_axis',(-2.21684142904049E-16,0.,1.));
#269=DIRECTION('center_axis',(-1.,0.,-2.22044604925031E-16));
#270=DIRECTION('ref_axis',(-2.22044604925031E-16,0.,1.));
#271=DIRECTION('center_axis',(-1.,0.,6.12323399573677E-17));
#272=DIRECTION('ref_axis',(6.12785435669729E-17,0.,1.));
#273=DIRECTION('center_axis',(-1.,0.,-2.22044604925031E-16));
#274=DIRECTION('ref_axis',(0.,0.,1.));
#275=DIRECTION('center_axis',(1.,0.,-6.12323399573677E-17));
#276=DIRECTION('ref_axis',(0.,0.,-1.));
#277=DIRECTION('center_axis',(1.,0.,-6.12323399573677E-17));
#278=DIRECTION('ref_axis',(6.16790569236198E-17,0.,1.));
#279=DIRECTION('center_axis',(-1.,0.,6.12323399573677E-17));
#280=DIRECTION('ref_axis',(6.12323399573677E-17,0.,1.));
#281=DIRECTION('center_axis',(-1.,0.,6.12323399573677E-17));
#282=DIRECTION('ref_axis',(0.,0.,1.));
#283=DIRECTION('center_axis',(1.,0.,-6.12323399573677E-17));
#284=DIRECTION('ref_axis',(6.12323399573677E-17,0.,1.));
#285=DIRECTION('center_axis',(-1.,0.,-2.22044604925031E-16));
#286=DIRECTION('ref_axis',(-2.22044604925031E-16,0.,1.));
#287=DIRECTION('center_axis',(-1.,0.,-2.22044604925031E-16));
#288=DIRECTION('ref_axis',(-2.22044604925031E-16,0.,1.));
#289=DIRECTION('center_axis',(0.,0.,1.));
#290=DIRECTION('ref_axis',(1.,0.,0.));
#291=DIRECTION('center_axis',(0.,0.,1.));
#292=DIRECTION('ref_axis',(1.,0.,0.));
#293=DIRECTION('center_axis',(0.,0.,-1.));
#294=DIRECTION('ref_axis',(1.,0.,0.));
#295=DIRECTION('center_axis',(0.,0.,1.));
#296=DIRECTION('ref_axis',(1.,0.,0.));
#297=DIRECTION('center_axis',(0.,0.,1.));
#298=DIRECTION('ref_axis',(1.,0.,0.));
#299=DIRECTION('center_axis',(0.,0.,1.));
#300=DIRECTION('ref_axis',(1.,0.,0.));
#301=DIRECTION('center_axis',(0.,0.,1.));
#302=DIRECTION('ref_axis',(1.,0.,0.));
#303=DIRECTION('center_axis',(0.,0.,1.));
#304=DIRECTION('ref_axis',(1.,0.,0.));
#305=DIRECTION('center_axis',(-1.,0.,6.12323399573677E-17));
#306=DIRECTION('ref_axis',(0.,0.,1.));
#307=DIRECTION('center_axis',(0.,1.,0.));
#308=DIRECTION('ref_axis',(0.,0.,1.));
#309=DIRECTION('center_axis',(0.,0.,1.));
#310=DIRECTION('ref_axis',(-1.,0.,0.));
#311=DIRECTION('center_axis',(1.,0.,2.22044604925031E-16));
#312=DIRECTION('ref_axis',(-2.22044604925031E-16,0.,1.));
#313=DIRECTION('center_axis',(-1.,0.,-2.22044604925031E-16));
#314=DIRECTION('ref_axis',(0.,0.,1.));
#315=DIRECTION('center_axis',(0.,0.,1.));
#316=DIRECTION('ref_axis',(1.,0.,0.));
#317=DIRECTION('center_axis',(0.,-1.,0.));
#318=DIRECTION('ref_axis',(0.,0.,-1.));
#319=CARTESIAN_POINT('',(0.,0.,0.));
#320=CARTESIAN_POINT('Origin',(0.,0.,38.5));
#321=CARTESIAN_POINT('',(-38.5,-4.71489017671731E-15,38.5));
#322=CARTESIAN_POINT('Origin',(0.,0.,38.5));
#323=CARTESIAN_POINT('',(-38.,4.65365783675994E-15,39.));
#324=CARTESIAN_POINT('Origin',(0.,0.,39.));
#325=CARTESIAN_POINT('Origin',(0.,0.,0.));
#326=CARTESIAN_POINT('',(-38.5,4.71489017671731E-15,0.5));
#327=CARTESIAN_POINT('Origin',(0.,0.,0.5));
#328=CARTESIAN_POINT('Origin',(3.4688500937745E-15,7.68985644762013E-16,
39.));
#329=CARTESIAN_POINT('',(37.4969418674245,5.55111512312578E-16,39.));
#330=CARTESIAN_POINT('Ctrl Pts',(37.4969418674245,5.55111512312578E-16,
39.));
#331=CARTESIAN_POINT('Ctrl Pts',(37.4969418674245,2.31398765652066,39.));
#332=CARTESIAN_POINT('Ctrl Pts',(37.2686354156483,4.84116141566779,39.));
#333=CARTESIAN_POINT('Ctrl Pts',(36.2841386505609,9.79050527473943,39.));
#334=CARTESIAN_POINT('Ctrl Pts',(35.5279484110674,12.2126753893474,39.));
#335=CARTESIAN_POINT('Ctrl Pts',(33.7568748255195,16.4883810682218,39.));
#336=CARTESIAN_POINT('Ctrl Pts',(32.5788195572911,18.7358329168549,39.));
#337=CARTESIAN_POINT('Ctrl Pts',(29.7751891152107,22.9317101587615,39.));
#338=CARTESIAN_POINT('Ctrl Pts',(28.1496141241749,24.8801356741906,39.));
#339=CARTESIAN_POINT('Ctrl Pts',(24.8770659096296,28.1526447359977,39.));
#340=CARTESIAN_POINT('Ctrl Pts',(22.9285897135131,29.7782178790582,39.));
#341=CARTESIAN_POINT('Ctrl Pts',(18.7326137552095,32.5818383484816,39.));
#342=CARTESIAN_POINT('Ctrl Pts',(16.4851141788501,33.759885952959,39.));
#343=CARTESIAN_POINT('Ctrl Pts',(12.2092662667685,35.5309762122919,39.));
#344=CARTESIAN_POINT('Ctrl Pts',(9.78698213219354,36.287180297158,39.));
#345=CARTESIAN_POINT('Ctrl Pts',(4.83741016209685,37.2716920173147,39.));
#346=CARTESIAN_POINT('Ctrl Pts',(2.31012239567485,37.5,39.));
#347=CARTESIAN_POINT('Ctrl Pts',(-2.31807985379298,37.5,39.));
#348=CARTESIAN_POINT('Ctrl Pts',(-4.84538993754779,37.2716878937607,39.));
#349=CARTESIAN_POINT('Ctrl Pts',(-9.79500774084292,36.287168822555,39.));
#350=CARTESIAN_POINT('Ctrl Pts',(-12.2173154900383,35.530962006678,39.));
#351=CARTESIAN_POINT('Ctrl Pts',(-16.4932383088689,33.7598622773748,39.));
#352=CARTESIAN_POINT('Ctrl Pts',(-18.7407952243318,32.5818007611467,39.));
#353=CARTESIAN_POINT('Ctrl Pts',(-22.9368879517139,29.7781484112723,39.));
#354=CARTESIAN_POINT('Ctrl Pts',(-24.8854235576462,28.152557269335,39.));
#355=CARTESIAN_POINT('Ctrl Pts',(-28.1580632669555,24.8800252746981,39.));
#356=CARTESIAN_POINT('Ctrl Pts',(-29.7836828416961,22.9315951239771,39.));
#357=CARTESIAN_POINT('Ctrl Pts',(-32.5874001073335,18.735700311696,39.));
#358=CARTESIAN_POINT('Ctrl Pts',(-33.7654970556753,16.488235153957,39.));
#359=CARTESIAN_POINT('Ctrl Pts',(-35.5366141563545,12.2125404698979,39.));
#360=CARTESIAN_POINT('Ctrl Pts',(-36.2928191058712,9.79040068769921,39.));
#361=CARTESIAN_POINT('Ctrl Pts',(-37.2773372432704,4.84111312689655,39.));
#362=CARTESIAN_POINT('Ctrl Pts',(-37.5056498978607,2.31396524220944,39.));
#363=CARTESIAN_POINT('Ctrl Pts',(-37.5056498978607,-2.31396524220943,39.));
#364=CARTESIAN_POINT('Ctrl Pts',(-37.2773372432704,-4.84111312689654,39.));
#365=CARTESIAN_POINT('Ctrl Pts',(-36.2928191058712,-9.7904006876992,39.));
#366=CARTESIAN_POINT('Ctrl Pts',(-35.5366141563545,-12.2125404698979,39.));
#367=CARTESIAN_POINT('Ctrl Pts',(-33.7654970556753,-16.488235153957,39.));
#368=CARTESIAN_POINT('Ctrl Pts',(-32.5874001073335,-18.735700311696,39.));
#369=CARTESIAN_POINT('Ctrl Pts',(-29.7836828416961,-22.9315951239771,39.));
#370=CARTESIAN_POINT('Ctrl Pts',(-28.1580632669555,-24.8800252746981,39.));
#371=CARTESIAN_POINT('Ctrl Pts',(-24.8854235576462,-28.152557269335,39.));
#372=CARTESIAN_POINT('Ctrl Pts',(-22.9368879517139,-29.7781484112723,39.));
#373=CARTESIAN_POINT('Ctrl Pts',(-18.7407952243318,-32.5818007611467,39.));
#374=CARTESIAN_POINT('Ctrl Pts',(-16.4932383088689,-33.7598622773748,39.));
#375=CARTESIAN_POINT('Ctrl Pts',(-12.2173154900383,-35.530962006678,39.));
#376=CARTESIAN_POINT('Ctrl Pts',(-9.79500774084292,-36.287168822555,39.));
#377=CARTESIAN_POINT('Ctrl Pts',(-4.84538993754779,-37.2716878937607,39.));
#378=CARTESIAN_POINT('Ctrl Pts',(-2.31807985379298,-37.5,39.));
#379=CARTESIAN_POINT('Ctrl Pts',(2.31012239567484,-37.5,39.));
#380=CARTESIAN_POINT('Ctrl Pts',(4.83741016209683,-37.2716920173147,39.));
#381=CARTESIAN_POINT('Ctrl Pts',(9.78698213219351,-36.287180297158,39.));
#382=CARTESIAN_POINT('Ctrl Pts',(12.2092662667684,-35.5309762122919,39.));
#383=CARTESIAN_POINT('Ctrl Pts',(16.48511417885,-33.759885952959,39.));
#384=CARTESIAN_POINT('Ctrl Pts',(18.7326137552095,-32.5818383484816,39.));
#385=CARTESIAN_POINT('Ctrl Pts',(22.928589713513,-29.7782178790583,39.));
#386=CARTESIAN_POINT('Ctrl Pts',(24.8770659096296,-28.1526447359978,39.));
#387=CARTESIAN_POINT('Ctrl Pts',(28.1496141241749,-24.8801356741907,39.));
#388=CARTESIAN_POINT('Ctrl Pts',(29.7751891152107,-22.9317101587615,39.));
#389=CARTESIAN_POINT('Ctrl Pts',(32.5788195572911,-18.7358329168549,39.));
#390=CARTESIAN_POINT('Ctrl Pts',(33.7568748255195,-16.4883810682219,39.));
#391=CARTESIAN_POINT('Ctrl Pts',(35.5279484110674,-12.2126753893474,39.));
#392=CARTESIAN_POINT('Ctrl Pts',(36.2841386505609,-9.79050527473945,39.));
#393=CARTESIAN_POINT('Ctrl Pts',(37.2686354156483,-4.8411614156678,39.));
#394=CARTESIAN_POINT('Ctrl Pts',(37.4969418674245,-2.31398765652067,39.));
#395=CARTESIAN_POINT('Ctrl Pts',(37.4969418674245,0.,39.));
#396=CARTESIAN_POINT('Origin',(-125.5,0.,164.));
#397=CARTESIAN_POINT('',(-125.,-4.65365783675994E-15,126.));
#398=CARTESIAN_POINT('Origin',(-125.,0.,164.));
#399=CARTESIAN_POINT('',(-125.5,4.71489017671731E-15,125.5));
#400=CARTESIAN_POINT('Origin',(-125.5,0.,164.));
#401=CARTESIAN_POINT('Origin',(-164.,0.,164.));
#402=CARTESIAN_POINT('',(-163.5,-4.71489017671731E-15,125.5));
#403=CARTESIAN_POINT('Origin',(-163.5,0.,164.));
#404=CARTESIAN_POINT('Origin',(-125.,7.68985644762013E-16,164.));
#405=CARTESIAN_POINT('',(-125.,5.55111512312578E-16,201.496941867425));
#406=CARTESIAN_POINT('Ctrl Pts',(-125.,5.55111512312578E-16,201.496941867425));
#407=CARTESIAN_POINT('Ctrl Pts',(-125.,-2.31398765652067,201.496941867425));
#408=CARTESIAN_POINT('Ctrl Pts',(-125.,-4.8411614156678,201.268635415648));
#409=CARTESIAN_POINT('Ctrl Pts',(-125.,-9.79050527473945,200.284138650561));
#410=CARTESIAN_POINT('Ctrl Pts',(-125.,-12.2126753893474,199.527948411067));
#411=CARTESIAN_POINT('Ctrl Pts',(-125.,-16.4883810682219,197.756874825519));
#412=CARTESIAN_POINT('Ctrl Pts',(-125.,-18.7358329168549,196.578819557291));
#413=CARTESIAN_POINT('Ctrl Pts',(-125.,-22.9317101587615,193.775189115211));
#414=CARTESIAN_POINT('Ctrl Pts',(-125.,-24.8801356741907,192.149614124175));
#415=CARTESIAN_POINT('Ctrl Pts',(-125.,-28.1526447359978,188.87706590963));
#416=CARTESIAN_POINT('Ctrl Pts',(-125.,-29.7782178790583,186.928589713513));
#417=CARTESIAN_POINT('Ctrl Pts',(-125.,-32.5818383484816,182.73261375521));
#418=CARTESIAN_POINT('Ctrl Pts',(-125.,-33.759885952959,180.48511417885));
#419=CARTESIAN_POINT('Ctrl Pts',(-125.,-35.5309762122919,176.209266266768));
#420=CARTESIAN_POINT('Ctrl Pts',(-125.,-36.287180297158,173.786982132193));
#421=CARTESIAN_POINT('Ctrl Pts',(-125.,-37.2716920173147,168.837410162097));
#422=CARTESIAN_POINT('Ctrl Pts',(-125.,-37.5,166.310122395675));
#423=CARTESIAN_POINT('Ctrl Pts',(-125.,-37.5,161.681920146207));
#424=CARTESIAN_POINT('Ctrl Pts',(-125.,-37.2716878937606,159.154610062452));
#425=CARTESIAN_POINT('Ctrl Pts',(-125.,-36.287168822555,154.204992259157));
#426=CARTESIAN_POINT('Ctrl Pts',(-125.,-35.530962006678,151.782684509962));
#427=CARTESIAN_POINT('Ctrl Pts',(-125.,-33.7598622773748,147.506761691131));
#428=CARTESIAN_POINT('Ctrl Pts',(-125.,-32.5818007611467,145.259204775668));
#429=CARTESIAN_POINT('Ctrl Pts',(-125.,-29.7781484112723,141.063112048286));
#430=CARTESIAN_POINT('Ctrl Pts',(-125.,-28.152557269335,139.114576442354));
#431=CARTESIAN_POINT('Ctrl Pts',(-125.,-24.8800252746981,135.841936733045));
#432=CARTESIAN_POINT('Ctrl Pts',(-125.,-22.9315951239771,134.216317158304));
#433=CARTESIAN_POINT('Ctrl Pts',(-125.,-18.735700311696,131.412599892667));
#434=CARTESIAN_POINT('Ctrl Pts',(-125.,-16.488235153957,130.234502944325));
#435=CARTESIAN_POINT('Ctrl Pts',(-125.,-12.2125404698979,128.463385843645));
#436=CARTESIAN_POINT('Ctrl Pts',(-125.,-9.7904006876992,127.707180894129));
#437=CARTESIAN_POINT('Ctrl Pts',(-125.,-4.84111312689654,126.72266275673));
#438=CARTESIAN_POINT('Ctrl Pts',(-125.,-2.31396524220943,126.494350102139));
#439=CARTESIAN_POINT('Ctrl Pts',(-125.,2.31396524220944,126.494350102139));
#440=CARTESIAN_POINT('Ctrl Pts',(-125.,4.84111312689655,126.72266275673));
#441=CARTESIAN_POINT('Ctrl Pts',(-125.,9.79040068769921,127.707180894129));
#442=CARTESIAN_POINT('Ctrl Pts',(-125.,12.2125404698979,128.463385843645));
#443=CARTESIAN_POINT('Ctrl Pts',(-125.,16.488235153957,130.234502944325));
#444=CARTESIAN_POINT('Ctrl Pts',(-125.,18.735700311696,131.412599892667));
#445=CARTESIAN_POINT('Ctrl Pts',(-125.,22.9315951239771,134.216317158304));
#446=CARTESIAN_POINT('Ctrl Pts',(-125.,24.8800252746981,135.841936733045));
#447=CARTESIAN_POINT('Ctrl Pts',(-125.,28.152557269335,139.114576442354));
#448=CARTESIAN_POINT('Ctrl Pts',(-125.,29.7781484112723,141.063112048286));
#449=CARTESIAN_POINT('Ctrl Pts',(-125.,32.5818007611467,145.259204775668));
#450=CARTESIAN_POINT('Ctrl Pts',(-125.,33.7598622773748,147.506761691131));
#451=CARTESIAN_POINT('Ctrl Pts',(-125.,35.530962006678,151.782684509962));
#452=CARTESIAN_POINT('Ctrl Pts',(-125.,36.287168822555,154.204992259157));
#453=CARTESIAN_POINT('Ctrl Pts',(-125.,37.2716878937606,159.154610062452));
#454=CARTESIAN_POINT('Ctrl Pts',(-125.,37.5,161.681920146207));
#455=CARTESIAN_POINT('Ctrl Pts',(-125.,37.5,166.310122395675));
#456=CARTESIAN_POINT('Ctrl Pts',(-125.,37.2716920173147,168.837410162097));
#457=CARTESIAN_POINT('Ctrl Pts',(-125.,36.287180297158,173.786982132193));
#458=CARTESIAN_POINT('Ctrl Pts',(-125.,35.5309762122919,176.209266266768));
#459=CARTESIAN_POINT('Ctrl Pts',(-125.,33.759885952959,180.48511417885));
#460=CARTESIAN_POINT('Ctrl Pts',(-125.,32.5818383484815,182.73261375521));
#461=CARTESIAN_POINT('Ctrl Pts',(-125.,29.7782178790582,186.928589713513));
#462=CARTESIAN_POINT('Ctrl Pts',(-125.,28.1526447359977,188.87706590963));
#463=CARTESIAN_POINT('Ctrl Pts',(-125.,24.8801356741906,192.149614124175));
#464=CARTESIAN_POINT('Ctrl Pts',(-125.,22.9317101587615,193.775189115211));
#465=CARTESIAN_POINT('Ctrl Pts',(-125.,18.7358329168548,196.578819557291));
#466=CARTESIAN_POINT('Ctrl Pts',(-125.,16.4883810682218,197.756874825519));
#467=CARTESIAN_POINT('Ctrl Pts',(-125.,12.2126753893474,199.527948411067));
#468=CARTESIAN_POINT('Ctrl Pts',(-125.,9.79050527473944,200.284138650561));
#469=CARTESIAN_POINT('Ctrl Pts',(-125.,4.8411614156678,201.268635415648));
#470=CARTESIAN_POINT('Ctrl Pts',(-125.,2.31398765652067,201.496941867425));
#471=CARTESIAN_POINT('Ctrl Pts',(-125.,1.66533453693773E-15,201.496941867425));
#472=CARTESIAN_POINT('Origin',(-163.5,0.,164.));
#473=CARTESIAN_POINT('',(-163.5,3.85763741731416E-15,132.5));
#474=CARTESIAN_POINT('Origin',(-163.5,0.,164.));
#475=CARTESIAN_POINT('',(-164.,-3.91886975727153E-15,132.));
#476=CARTESIAN_POINT('Origin',(-164.,0.,164.));
#477=CARTESIAN_POINT('Origin',(-164.,-7.89491928622334E-16,164.));
#478=CARTESIAN_POINT('',(-164.,4.65365783675994E-15,126.));
#479=CARTESIAN_POINT('Origin',(-164.,0.,164.));
#480=CARTESIAN_POINT('Origin',(-164.,0.,164.));
#481=CARTESIAN_POINT('',(-126.,3.85763741731416E-15,132.5));
#482=CARTESIAN_POINT('Origin',(-126.,0.,164.));
#483=CARTESIAN_POINT('Origin',(0.,0.,0.5));
#484=CARTESIAN_POINT('',(-31.5,-3.85763741731416E-15,0.5));
#485=CARTESIAN_POINT('Origin',(0.,0.,0.5));
#486=CARTESIAN_POINT('',(-32.,3.91886975727153E-15,0.));
#487=CARTESIAN_POINT('Origin',(0.,0.,0.));
#488=CARTESIAN_POINT('Origin',(3.54066983922288E-15,-7.89491928622334E-16,
0.));
#489=CARTESIAN_POINT('',(-38.,-4.65365783675994E-15,0.));
#490=CARTESIAN_POINT('Origin',(0.,0.,0.));
#491=CARTESIAN_POINT('Origin',(0.,0.,0.));
#492=CARTESIAN_POINT('',(-31.5,3.85763741731416E-15,38.));
#493=CARTESIAN_POINT('Origin',(0.,0.,38.));
#494=CARTESIAN_POINT('Origin',(0.,0.,0.5));
#495=CARTESIAN_POINT('Origin',(-163.5,0.,164.));
#496=CARTESIAN_POINT('Origin',(-126.,0.,38.));
#497=CARTESIAN_POINT('',(30.5,3.73517273739943E-15,38.));
#498=CARTESIAN_POINT('Origin',(0.,0.,38.));
#499=CARTESIAN_POINT('',(-126.,3.73517273739943E-15,194.5));
#500=CARTESIAN_POINT('Origin',(-126.,0.,164.));
#501=CARTESIAN_POINT('Origin',(-126.,-4.69935671799008E-16,164.));
#502=CARTESIAN_POINT('Origin',(3.14108381557023E-15,-4.69935671799008E-16,
38.));
#503=CARTESIAN_POINT('Origin',(-126.,0.,38.));
#504=UNCERTAINTY_MEASURE_WITH_UNIT(LENGTH_MEASURE(0.01),#508,
'DISTANCE_ACCURACY_VALUE',
'Maximum model space distance between geometric entities at asserted c
onnectivities');
#505=UNCERTAINTY_MEASURE_WITH_UNIT(LENGTH_MEASURE(1.E-6),#508,
'DISTANCE_ACCURACY_VALUE',
'Maximum model space distance between geometric entities at asserted c
onnectivities');
#506=(
GEOMETRIC_REPRESENTATION_CONTEXT(3)
GLOBAL_UNCERTAINTY_ASSIGNED_CONTEXT((#504))
GLOBAL_UNIT_ASSIGNED_CONTEXT((#508,#511,#509))
REPRESENTATION_CONTEXT('','3D')
);
#507=(
GEOMETRIC_REPRESENTATION_CONTEXT(3)
GLOBAL_UNCERTAINTY_ASSIGNED_CONTEXT((#505))
GLOBAL_UNIT_ASSIGNED_CONTEXT((#508,#511,#509))
REPRESENTATION_CONTEXT('','3D')
);
#508=(
LENGTH_UNIT()
NAMED_UNIT(*)
SI_UNIT(.MILLI.,.METRE.)
);
#509=(
NAMED_UNIT(*)
SI_UNIT($,.STERADIAN.)
SOLID_ANGLE_UNIT()
);
#510=DIMENSIONAL_EXPONENTS(0.,0.,0.,0.,0.,0.,0.);
#511=(
CONVERSION_BASED_UNIT('degree',#513)
NAMED_UNIT(#510)
PLANE_ANGLE_UNIT()
);
#512=(
NAMED_UNIT(*)
PLANE_ANGLE_UNIT()
SI_UNIT($,.RADIAN.)
);
#513=PLANE_ANGLE_MEASURE_WITH_UNIT(PLANE_ANGLE_MEASURE(0.01745329252),#512);
#514=SHAPE_DEFINITION_REPRESENTATION(#515,#516);
#515=PRODUCT_DEFINITION_SHAPE('',$,#518);
#516=SHAPE_REPRESENTATION('',(#214),#506);
#517=PRODUCT_DEFINITION_CONTEXT('part definition',#522,'design');
#518=PRODUCT_DEFINITION('BE300630','BE30',#519,#517);
#519=PRODUCT_DEFINITION_FORMATION('',$,#524);
#520=PRODUCT_RELATED_PRODUCT_CATEGORY('BE30','BE30',(#524));
#521=APPLICATION_PROTOCOL_DEFINITION('international standard',
'automotive_design',2009,#522);
#522=APPLICATION_CONTEXT(
'Core Data for Automotive Mechanical Design Process');
#523=PRODUCT_CONTEXT('part definition',#522,'mechanical');
#524=PRODUCT('BE300630','BE30',$,(#523));
#525=PRESENTATION_STYLE_ASSIGNMENT((#526));
#526=SURFACE_STYLE_USAGE(.BOTH.,#527);
#527=SURFACE_SIDE_STYLE('',(#528));
#528=SURFACE_STYLE_FILL_AREA(#529);
#529=FILL_AREA_STYLE('',(#530));
#530=FILL_AREA_STYLE_COLOUR('',#531);
#531=COLOUR_RGB('',0.8,0.8,0.8);
ENDSEC;
END-ISO-10303-21;
