ISO-10303-21;
HEADER;
/* Generated by software containing ST-Developer
 * from STEP Tools, Inc. (www.steptools.com) 
 */

FILE_DESCRIPTION(
/* description */ (''),
/* implementation_level */ '2;1');

FILE_NAME(
/* name */ 'C:\\Users\\Gabriele\\Desktop\\catalogo\\TR40\\TR40050E.stp',

/* time_stamp */ '2016-10-17T15:39:03+02:00',
/* author */ ('Gabriele'),
/* organization */ (''),
/* preprocessor_version */ 'ST-DEVELOPER v16.5',
/* originating_system */ 'Autodesk Inventor 2017',
/* authorisation */ '');

FILE_SCHEMA (('AUTOMOTIVE_DESIGN { 1 0 10303 214 3 1 1 }'));
ENDSEC;

DATA;
#10=MECHANICAL_DESIGN_GEOMETRIC_PRESENTATION_REPRESENTATION('',(#13),#481);
#11=SHAPE_REPRESENTATION_RELATIONSHIP('SRR','None',#490,#12);
#12=ADVANCED_BREP_SHAPE_REPRESENTATION('',(#14),#480);
#13=STYLED_ITEM('',(#499),#14);
#14=MANIFOLD_SOLID_BREP('Solido1',#200);
#15=B_SPLINE_CURVE_WITH_KNOTS('',3,(#333,#334,#335,#336,#337,#338,#339,
#340,#341,#342,#343,#344,#345,#346,#347,#348,#349,#350,#351,#352,#353,#354,
#355,#356,#357,#358,#359,#360,#361,#362,#363,#364,#365,#366,#367,#368,#369,
#370,#371,#372,#373,#374,#375,#376,#377,#378,#379,#380,#381,#382,#383,#384,
#385,#386,#387,#388,#389,#390,#391,#392,#393,#394,#395,#396,#397,#398),
 .UNSPECIFIED.,.T.,.F.,(4,2,2,2,2,2,2,2,2,2,2,2,2,2,2,2,2,2,2,2,2,2,2,2,
2,2,2,2,2,2,2,2,4),(0.,0.393778665967905,0.787557331935809,1.18133599790371,
1.57511466387162,1.95723035768745,2.33934605150329,2.72146174531912,3.10357743913496,
3.48569313295079,3.86780882676663,4.24992452058246,4.6320402143983,5.0258188803662,
5.41959754633411,5.81337621230201,6.20715487826991,6.60093354423782,6.99471221020572,
7.38849087617363,7.78226954214153,8.16438523595737,8.5465009297732,8.92861662358904,
9.31073231740487,9.69284801122071,10.0749637050365,10.4570793988524,10.8391950926682,
11.2329737586361,11.626752424604,12.0205310905719,12.4143097565398),
 .UNSPECIFIED.);
#16=B_SPLINE_CURVE_WITH_KNOTS('',3,(#409,#410,#411,#412,#413,#414,#415,
#416,#417,#418,#419,#420,#421,#422,#423,#424,#425,#426,#427,#428,#429,#430,
#431,#432,#433,#434,#435,#436,#437,#438,#439,#440,#441,#442,#443,#444,#445,
#446,#447,#448,#449,#450,#451,#452,#453,#454,#455,#456,#457,#458,#459,#460,
#461,#462,#463,#464,#465,#466,#467,#468,#469,#470,#471,#472,#473,#474),
 .UNSPECIFIED.,.T.,.F.,(4,2,2,2,2,2,2,2,2,2,2,2,2,2,2,2,2,2,2,2,2,2,2,2,
2,2,2,2,2,2,2,2,4),(0.,0.53180327751662,1.06360655503324,1.59540983254986,
2.12721311006648,2.63691732260703,3.14662153514758,3.65632574768813,4.16602996022868,
4.67573417276924,5.18543838530979,5.69514259785034,6.20484681039089,6.73665008790751,
7.26845336542413,7.80025664294075,8.33205992045737,8.86386319797399,9.39566647549061,
9.92746975300723,10.4592730305238,10.9689772430644,11.478681455605,11.9883856681455,
12.4980898806861,13.0077940932266,13.5174983057672,14.0272025183077,14.5369067308483,
15.0687100083649,15.6005132858815,16.1323165633981,16.6641198409147),
 .UNSPECIFIED.);
#17=PLANE('',#207);
#18=PLANE('',#214);
#19=PLANE('',#221);
#20=PLANE('',#228);
#21=PLANE('',#231);
#22=PLANE('',#232);
#23=CYLINDRICAL_SURFACE('',#205,25.);
#24=CYLINDRICAL_SURFACE('',#212,25.);
#25=CYLINDRICAL_SURFACE('',#219,20.);
#26=CYLINDRICAL_SURFACE('',#223,19.25);
#27=CYLINDRICAL_SURFACE('',#225,24.25);
#28=CYLINDRICAL_SURFACE('',#229,25.5);
#29=CYLINDRICAL_SURFACE('',#230,30.5);
#30=FACE_BOUND('',#65,.T.);
#31=FACE_BOUND('',#67,.T.);
#32=FACE_BOUND('',#69,.T.);
#33=FACE_BOUND('',#71,.T.);
#34=FACE_BOUND('',#73,.T.);
#35=FACE_BOUND('',#75,.T.);
#36=FACE_BOUND('',#77,.T.);
#37=FACE_BOUND('',#79,.T.);
#38=FACE_BOUND('',#81,.T.);
#39=FACE_BOUND('',#83,.T.);
#40=FACE_BOUND('',#85,.T.);
#41=FACE_BOUND('',#86,.T.);
#42=FACE_BOUND('',#88,.T.);
#43=FACE_BOUND('',#90,.T.);
#44=FACE_BOUND('',#92,.T.);
#45=FACE_BOUND('',#93,.T.);
#46=FACE_BOUND('',#95,.T.);
#47=FACE_BOUND('',#97,.T.);
#48=FACE_OUTER_BOUND('',#64,.T.);
#49=FACE_OUTER_BOUND('',#66,.T.);
#50=FACE_OUTER_BOUND('',#68,.T.);
#51=FACE_OUTER_BOUND('',#70,.T.);
#52=FACE_OUTER_BOUND('',#72,.T.);
#53=FACE_OUTER_BOUND('',#74,.T.);
#54=FACE_OUTER_BOUND('',#76,.T.);
#55=FACE_OUTER_BOUND('',#78,.T.);
#56=FACE_OUTER_BOUND('',#80,.T.);
#57=FACE_OUTER_BOUND('',#82,.T.);
#58=FACE_OUTER_BOUND('',#84,.T.);
#59=FACE_OUTER_BOUND('',#87,.T.);
#60=FACE_OUTER_BOUND('',#89,.T.);
#61=FACE_OUTER_BOUND('',#91,.T.);
#62=FACE_OUTER_BOUND('',#94,.T.);
#63=FACE_OUTER_BOUND('',#96,.T.);
#64=EDGE_LOOP('',(#147));
#65=EDGE_LOOP('',(#148));
#66=EDGE_LOOP('',(#149));
#67=EDGE_LOOP('',(#150));
#68=EDGE_LOOP('',(#151));
#69=EDGE_LOOP('',(#152));
#70=EDGE_LOOP('',(#153));
#71=EDGE_LOOP('',(#154));
#72=EDGE_LOOP('',(#155));
#73=EDGE_LOOP('',(#156));
#74=EDGE_LOOP('',(#157));
#75=EDGE_LOOP('',(#158));
#76=EDGE_LOOP('',(#159));
#77=EDGE_LOOP('',(#160));
#78=EDGE_LOOP('',(#161));
#79=EDGE_LOOP('',(#162));
#80=EDGE_LOOP('',(#163));
#81=EDGE_LOOP('',(#164));
#82=EDGE_LOOP('',(#165));
#83=EDGE_LOOP('',(#166));
#84=EDGE_LOOP('',(#167));
#85=EDGE_LOOP('',(#168));
#86=EDGE_LOOP('',(#169));
#87=EDGE_LOOP('',(#170));
#88=EDGE_LOOP('',(#171));
#89=EDGE_LOOP('',(#172));
#90=EDGE_LOOP('',(#173));
#91=EDGE_LOOP('',(#174));
#92=EDGE_LOOP('',(#175));
#93=EDGE_LOOP('',(#176));
#94=EDGE_LOOP('',(#177));
#95=EDGE_LOOP('',(#178));
#96=EDGE_LOOP('',(#179));
#97=EDGE_LOOP('',(#180));
#98=CIRCLE('',#203,25.);
#99=CIRCLE('',#204,25.5);
#100=CIRCLE('',#206,25.);
#101=CIRCLE('',#208,30.5);
#102=CIRCLE('',#210,25.);
#103=CIRCLE('',#211,25.5);
#104=CIRCLE('',#213,25.);
#105=CIRCLE('',#215,30.5);
#106=CIRCLE('',#217,20.);
#107=CIRCLE('',#218,20.5);
#108=CIRCLE('',#220,20.);
#109=CIRCLE('',#222,25.5);
#110=CIRCLE('',#224,19.25);
#111=CIRCLE('',#226,24.25);
#112=CIRCLE('',#227,24.25);
#113=VERTEX_POINT('',#299);
#114=VERTEX_POINT('',#301);
#115=VERTEX_POINT('',#304);
#116=VERTEX_POINT('',#307);
#117=VERTEX_POINT('',#310);
#118=VERTEX_POINT('',#312);
#119=VERTEX_POINT('',#315);
#120=VERTEX_POINT('',#318);
#121=VERTEX_POINT('',#321);
#122=VERTEX_POINT('',#323);
#123=VERTEX_POINT('',#326);
#124=VERTEX_POINT('',#329);
#125=VERTEX_POINT('',#332);
#126=VERTEX_POINT('',#399);
#127=VERTEX_POINT('',#402);
#128=VERTEX_POINT('',#404);
#129=VERTEX_POINT('',#408);
#130=EDGE_CURVE('',#113,#113,#98,.T.);
#131=EDGE_CURVE('',#114,#114,#99,.T.);
#132=EDGE_CURVE('',#115,#115,#100,.T.);
#133=EDGE_CURVE('',#116,#116,#101,.T.);
#134=EDGE_CURVE('',#117,#117,#102,.T.);
#135=EDGE_CURVE('',#118,#118,#103,.T.);
#136=EDGE_CURVE('',#119,#119,#104,.T.);
#137=EDGE_CURVE('',#120,#120,#105,.T.);
#138=EDGE_CURVE('',#121,#121,#106,.T.);
#139=EDGE_CURVE('',#122,#122,#107,.T.);
#140=EDGE_CURVE('',#123,#123,#108,.T.);
#141=EDGE_CURVE('',#124,#124,#109,.T.);
#142=EDGE_CURVE('',#125,#125,#15,.T.);
#143=EDGE_CURVE('',#126,#126,#110,.T.);
#144=EDGE_CURVE('',#127,#127,#111,.T.);
#145=EDGE_CURVE('',#128,#128,#112,.T.);
#146=EDGE_CURVE('',#129,#129,#16,.T.);
#147=ORIENTED_EDGE('',*,*,#130,.T.);
#148=ORIENTED_EDGE('',*,*,#131,.T.);
#149=ORIENTED_EDGE('',*,*,#132,.T.);
#150=ORIENTED_EDGE('',*,*,#130,.F.);
#151=ORIENTED_EDGE('',*,*,#133,.T.);
#152=ORIENTED_EDGE('',*,*,#131,.F.);
#153=ORIENTED_EDGE('',*,*,#134,.T.);
#154=ORIENTED_EDGE('',*,*,#135,.T.);
#155=ORIENTED_EDGE('',*,*,#136,.F.);
#156=ORIENTED_EDGE('',*,*,#134,.F.);
#157=ORIENTED_EDGE('',*,*,#137,.T.);
#158=ORIENTED_EDGE('',*,*,#135,.F.);
#159=ORIENTED_EDGE('',*,*,#138,.T.);
#160=ORIENTED_EDGE('',*,*,#139,.T.);
#161=ORIENTED_EDGE('',*,*,#140,.T.);
#162=ORIENTED_EDGE('',*,*,#138,.F.);
#163=ORIENTED_EDGE('',*,*,#141,.F.);
#164=ORIENTED_EDGE('',*,*,#139,.F.);
#165=ORIENTED_EDGE('',*,*,#142,.F.);
#166=ORIENTED_EDGE('',*,*,#143,.F.);
#167=ORIENTED_EDGE('',*,*,#144,.F.);
#168=ORIENTED_EDGE('',*,*,#142,.T.);
#169=ORIENTED_EDGE('',*,*,#145,.F.);
#170=ORIENTED_EDGE('',*,*,#140,.F.);
#171=ORIENTED_EDGE('',*,*,#143,.T.);
#172=ORIENTED_EDGE('',*,*,#141,.T.);
#173=ORIENTED_EDGE('',*,*,#146,.F.);
#174=ORIENTED_EDGE('',*,*,#133,.F.);
#175=ORIENTED_EDGE('',*,*,#137,.F.);
#176=ORIENTED_EDGE('',*,*,#146,.T.);
#177=ORIENTED_EDGE('',*,*,#136,.T.);
#178=ORIENTED_EDGE('',*,*,#145,.T.);
#179=ORIENTED_EDGE('',*,*,#132,.F.);
#180=ORIENTED_EDGE('',*,*,#144,.T.);
#181=TOROIDAL_SURFACE('',#202,25.5,0.5);
#182=TOROIDAL_SURFACE('',#209,25.5,0.5);
#183=TOROIDAL_SURFACE('',#216,20.5,0.5);
#184=ADVANCED_FACE('',(#48,#30),#181,.T.);
#185=ADVANCED_FACE('',(#49,#31),#23,.F.);
#186=ADVANCED_FACE('',(#50,#32),#17,.T.);
#187=ADVANCED_FACE('',(#51,#33),#182,.T.);
#188=ADVANCED_FACE('',(#52,#34),#24,.F.);
#189=ADVANCED_FACE('',(#53,#35),#18,.F.);
#190=ADVANCED_FACE('',(#54,#36),#183,.T.);
#191=ADVANCED_FACE('',(#55,#37),#25,.F.);
#192=ADVANCED_FACE('',(#56,#38),#19,.T.);
#193=ADVANCED_FACE('',(#57,#39),#26,.F.);
#194=ADVANCED_FACE('',(#58,#40,#41),#27,.F.);
#195=ADVANCED_FACE('',(#59,#42),#20,.T.);
#196=ADVANCED_FACE('',(#60,#43),#28,.T.);
#197=ADVANCED_FACE('',(#61,#44,#45),#29,.T.);
#198=ADVANCED_FACE('',(#62,#46),#21,.F.);
#199=ADVANCED_FACE('',(#63,#47),#22,.T.);
#200=CLOSED_SHELL('',(#184,#185,#186,#187,#188,#189,#190,#191,#192,#193,
#194,#195,#196,#197,#198,#199));
#201=AXIS2_PLACEMENT_3D('placement',#297,#233,#234);
#202=AXIS2_PLACEMENT_3D('',#298,#235,#236);
#203=AXIS2_PLACEMENT_3D('',#300,#237,#238);
#204=AXIS2_PLACEMENT_3D('',#302,#239,#240);
#205=AXIS2_PLACEMENT_3D('',#303,#241,#242);
#206=AXIS2_PLACEMENT_3D('',#305,#243,#244);
#207=AXIS2_PLACEMENT_3D('',#306,#245,#246);
#208=AXIS2_PLACEMENT_3D('',#308,#247,#248);
#209=AXIS2_PLACEMENT_3D('',#309,#249,#250);
#210=AXIS2_PLACEMENT_3D('',#311,#251,#252);
#211=AXIS2_PLACEMENT_3D('',#313,#253,#254);
#212=AXIS2_PLACEMENT_3D('',#314,#255,#256);
#213=AXIS2_PLACEMENT_3D('',#316,#257,#258);
#214=AXIS2_PLACEMENT_3D('',#317,#259,#260);
#215=AXIS2_PLACEMENT_3D('',#319,#261,#262);
#216=AXIS2_PLACEMENT_3D('',#320,#263,#264);
#217=AXIS2_PLACEMENT_3D('',#322,#265,#266);
#218=AXIS2_PLACEMENT_3D('',#324,#267,#268);
#219=AXIS2_PLACEMENT_3D('',#325,#269,#270);
#220=AXIS2_PLACEMENT_3D('',#327,#271,#272);
#221=AXIS2_PLACEMENT_3D('',#328,#273,#274);
#222=AXIS2_PLACEMENT_3D('',#330,#275,#276);
#223=AXIS2_PLACEMENT_3D('',#331,#277,#278);
#224=AXIS2_PLACEMENT_3D('',#400,#279,#280);
#225=AXIS2_PLACEMENT_3D('',#401,#281,#282);
#226=AXIS2_PLACEMENT_3D('',#403,#283,#284);
#227=AXIS2_PLACEMENT_3D('',#405,#285,#286);
#228=AXIS2_PLACEMENT_3D('',#406,#287,#288);
#229=AXIS2_PLACEMENT_3D('',#407,#289,#290);
#230=AXIS2_PLACEMENT_3D('',#475,#291,#292);
#231=AXIS2_PLACEMENT_3D('',#476,#293,#294);
#232=AXIS2_PLACEMENT_3D('',#477,#295,#296);
#233=DIRECTION('axis',(0.,0.,1.));
#234=DIRECTION('refdir',(1.,0.,0.));
#235=DIRECTION('center_axis',(0.,0.,-1.));
#236=DIRECTION('ref_axis',(-1.,0.,0.));
#237=DIRECTION('center_axis',(0.,0.,-1.));
#238=DIRECTION('ref_axis',(-1.,0.,0.));
#239=DIRECTION('center_axis',(0.,0.,1.));
#240=DIRECTION('ref_axis',(-1.,0.,0.));
#241=DIRECTION('center_axis',(0.,0.,-1.));
#242=DIRECTION('ref_axis',(-1.,0.,0.));
#243=DIRECTION('center_axis',(0.,0.,-1.));
#244=DIRECTION('ref_axis',(-1.,0.,0.));
#245=DIRECTION('center_axis',(0.,0.,1.));
#246=DIRECTION('ref_axis',(1.,0.,0.));
#247=DIRECTION('center_axis',(0.,0.,1.));
#248=DIRECTION('ref_axis',(-1.,0.,0.));
#249=DIRECTION('center_axis',(0.,0.,1.));
#250=DIRECTION('ref_axis',(1.,0.,0.));
#251=DIRECTION('center_axis',(0.,0.,1.));
#252=DIRECTION('ref_axis',(-1.,0.,0.));
#253=DIRECTION('center_axis',(0.,0.,-1.));
#254=DIRECTION('ref_axis',(-1.,0.,0.));
#255=DIRECTION('center_axis',(0.,0.,-1.));
#256=DIRECTION('ref_axis',(-1.,0.,0.));
#257=DIRECTION('center_axis',(0.,0.,-1.));
#258=DIRECTION('ref_axis',(-1.,0.,0.));
#259=DIRECTION('center_axis',(0.,0.,1.));
#260=DIRECTION('ref_axis',(1.,0.,0.));
#261=DIRECTION('center_axis',(0.,0.,-1.));
#262=DIRECTION('ref_axis',(-1.,0.,0.));
#263=DIRECTION('center_axis',(0.,-1.,0.));
#264=DIRECTION('ref_axis',(0.,0.,-1.));
#265=DIRECTION('center_axis',(0.,-1.,0.));
#266=DIRECTION('ref_axis',(-1.,0.,0.));
#267=DIRECTION('center_axis',(0.,1.,0.));
#268=DIRECTION('ref_axis',(-1.,0.,0.));
#269=DIRECTION('center_axis',(0.,-1.,0.));
#270=DIRECTION('ref_axis',(-1.,0.,0.));
#271=DIRECTION('center_axis',(0.,-1.,0.));
#272=DIRECTION('ref_axis',(-1.,0.,0.));
#273=DIRECTION('center_axis',(0.,1.,0.));
#274=DIRECTION('ref_axis',(0.,0.,1.));
#275=DIRECTION('center_axis',(0.,-1.,0.));
#276=DIRECTION('ref_axis',(1.,0.,0.));
#277=DIRECTION('center_axis',(0.,-1.,0.));
#278=DIRECTION('ref_axis',(-1.,0.,0.));
#279=DIRECTION('center_axis',(0.,-1.,0.));
#280=DIRECTION('ref_axis',(-1.,0.,0.));
#281=DIRECTION('center_axis',(0.,0.,1.));
#282=DIRECTION('ref_axis',(1.,0.,0.));
#283=DIRECTION('center_axis',(0.,0.,-1.));
#284=DIRECTION('ref_axis',(1.,0.,0.));
#285=DIRECTION('center_axis',(0.,0.,1.));
#286=DIRECTION('ref_axis',(1.,0.,0.));
#287=DIRECTION('center_axis',(0.,1.,0.));
#288=DIRECTION('ref_axis',(0.,0.,1.));
#289=DIRECTION('center_axis',(0.,-1.,0.));
#290=DIRECTION('ref_axis',(1.,0.,0.));
#291=DIRECTION('center_axis',(0.,0.,1.));
#292=DIRECTION('ref_axis',(-1.,0.,0.));
#293=DIRECTION('center_axis',(0.,0.,1.));
#294=DIRECTION('ref_axis',(1.,0.,0.));
#295=DIRECTION('center_axis',(0.,0.,1.));
#296=DIRECTION('ref_axis',(1.,0.,0.));
#297=CARTESIAN_POINT('',(0.,0.,0.));
#298=CARTESIAN_POINT('Origin',(0.,0.,56.5));
#299=CARTESIAN_POINT('',(25.,-3.06161699786838E-15,56.5));
#300=CARTESIAN_POINT('Origin',(0.,0.,56.5));
#301=CARTESIAN_POINT('',(25.5,3.12284933782575E-15,57.));
#302=CARTESIAN_POINT('Origin',(0.,0.,57.));
#303=CARTESIAN_POINT('Origin',(0.,0.,57.));
#304=CARTESIAN_POINT('',(25.,3.06161699786838E-15,26.));
#305=CARTESIAN_POINT('Origin',(0.,0.,26.));
#306=CARTESIAN_POINT('Origin',(-3.11264394783286E-16,0.,57.));
#307=CARTESIAN_POINT('',(30.5,3.73517273739943E-15,57.));
#308=CARTESIAN_POINT('Origin',(0.,0.,57.));
#309=CARTESIAN_POINT('Origin',(0.,0.,-56.5));
#310=CARTESIAN_POINT('',(25.,3.06161699786838E-15,-56.5));
#311=CARTESIAN_POINT('Origin',(0.,0.,-56.5));
#312=CARTESIAN_POINT('',(25.5,-3.12284933782575E-15,-57.));
#313=CARTESIAN_POINT('Origin',(0.,0.,-57.));
#314=CARTESIAN_POINT('Origin',(0.,0.,-57.));
#315=CARTESIAN_POINT('',(25.,3.06161699786838E-15,-26.));
#316=CARTESIAN_POINT('Origin',(0.,0.,-26.));
#317=CARTESIAN_POINT('Origin',(-3.11264394783286E-16,0.,-57.));
#318=CARTESIAN_POINT('',(30.5,3.73517273739943E-15,-57.));
#319=CARTESIAN_POINT('Origin',(0.,0.,-57.));
#320=CARTESIAN_POINT('Origin',(0.,51.5,0.));
#321=CARTESIAN_POINT('',(20.,51.5,2.44929359829471E-15));
#322=CARTESIAN_POINT('Origin',(0.,51.5,0.));
#323=CARTESIAN_POINT('',(20.5,52.,-2.51052593825207E-15));
#324=CARTESIAN_POINT('Origin',(0.,52.,0.));
#325=CARTESIAN_POINT('Origin',(0.,52.,0.));
#326=CARTESIAN_POINT('',(20.,26.,-2.44929359829471E-15));
#327=CARTESIAN_POINT('Origin',(0.,26.,0.));
#328=CARTESIAN_POINT('Origin',(1.42125498691048E-15,52.,0.));
#329=CARTESIAN_POINT('',(-25.5,52.,3.12284933782575E-15));
#330=CARTESIAN_POINT('Origin',(0.,52.,0.));
#331=CARTESIAN_POINT('Origin',(0.,26.,0.));
#332=CARTESIAN_POINT('',(19.25,14.7478812037526,-5.55111512312578E-16));
#333=CARTESIAN_POINT('Ctrl Pts',(19.25,14.7478812037526,-5.55111512312578E-16));
#334=CARTESIAN_POINT('Ctrl Pts',(19.25,14.7478812037526,-1.31259555322635));
#335=CARTESIAN_POINT('Ctrl Pts',(19.1149383054494,14.9282515994502,-2.61657657636997));
#336=CARTESIAN_POINT('Ctrl Pts',(18.5947513810146,15.5714091158855,-5.14417749463276));
#337=CARTESIAN_POINT('Ctrl Pts',(18.2098183902589,16.0308635532909,-6.36868378690482));
#338=CARTESIAN_POINT('Ctrl Pts',(17.2216072510359,17.088074790586,-8.6933239486347));
#339=CARTESIAN_POINT('Ctrl Pts',(16.617383110473,17.6852948077463,-9.79524379451847));
#340=CARTESIAN_POINT('Ctrl Pts',(15.2311959837893,18.8922667522664,-11.8361687732385));
#341=CARTESIAN_POINT('Ctrl Pts',(14.4486851044228,19.5018085938361,-12.7749259712593));
#342=CARTESIAN_POINT('Ctrl Pts',(12.7997127459711,20.6202017195872,-14.4238983297109));
#343=CARTESIAN_POINT('Ctrl Pts',(11.8757369944935,21.1737587659249,-15.2003983369365));
#344=CARTESIAN_POINT('Ctrl Pts',(9.83771219500772,22.1941570739556,-16.592307183276));
#345=CARTESIAN_POINT('Ctrl Pts',(8.72348875791202,22.6606086476071,-17.2077463274893));
#346=CARTESIAN_POINT('Ctrl Pts',(6.36475343717873,23.432720017855,-18.2125154934279));
#347=CARTESIAN_POINT('Ctrl Pts',(5.11750566830627,23.7388977617543,-18.6027095210233));
#348=CARTESIAN_POINT('Ctrl Pts',(2.57202930215879,24.1476457754232,-19.1215671710221));
#349=CARTESIAN_POINT('Ctrl Pts',(1.27371897938612,24.25,-19.25));
#350=CARTESIAN_POINT('Ctrl Pts',(-1.27371897938612,24.25,-19.25));
#351=CARTESIAN_POINT('Ctrl Pts',(-2.57202930215879,24.1476457754232,-19.1215671710221));
#352=CARTESIAN_POINT('Ctrl Pts',(-5.11750566830627,23.7388977617543,-18.6027095210233));
#353=CARTESIAN_POINT('Ctrl Pts',(-6.36475343717873,23.432720017855,-18.2125154934279));
#354=CARTESIAN_POINT('Ctrl Pts',(-8.72348875791203,22.6606086476071,-17.2077463274893));
#355=CARTESIAN_POINT('Ctrl Pts',(-9.83771219500772,22.1941570739556,-16.592307183276));
#356=CARTESIAN_POINT('Ctrl Pts',(-11.8757369944934,21.1737587659249,-15.2003983369365));
#357=CARTESIAN_POINT('Ctrl Pts',(-12.7997127459711,20.6202017195872,-14.4238983297109));
#358=CARTESIAN_POINT('Ctrl Pts',(-14.4486851044228,19.5018085938361,-12.7749259712593));
#359=CARTESIAN_POINT('Ctrl Pts',(-15.2311959837893,18.8922667522664,-11.8361687732385));
#360=CARTESIAN_POINT('Ctrl Pts',(-16.617383110473,17.6852948077463,-9.79524379451847));
#361=CARTESIAN_POINT('Ctrl Pts',(-17.2216072510359,17.088074790586,-8.6933239486347));
#362=CARTESIAN_POINT('Ctrl Pts',(-18.2098183902589,16.0308635532909,-6.36868378690481));
#363=CARTESIAN_POINT('Ctrl Pts',(-18.5947513810146,15.5714091158855,-5.14417749463275));
#364=CARTESIAN_POINT('Ctrl Pts',(-19.1149383054494,14.9282515994502,-2.61657657636996));
#365=CARTESIAN_POINT('Ctrl Pts',(-19.25,14.7478812037526,-1.31259555322635));
#366=CARTESIAN_POINT('Ctrl Pts',(-19.25,14.7478812037526,1.31259555322635));
#367=CARTESIAN_POINT('Ctrl Pts',(-19.1149383054494,14.9282515994502,2.61657657636996));
#368=CARTESIAN_POINT('Ctrl Pts',(-18.5947513810146,15.5714091158855,5.14417749463275));
#369=CARTESIAN_POINT('Ctrl Pts',(-18.2098183902589,16.0308635532909,6.36868378690481));
#370=CARTESIAN_POINT('Ctrl Pts',(-17.2216072510359,17.088074790586,8.6933239486347));
#371=CARTESIAN_POINT('Ctrl Pts',(-16.617383110473,17.6852948077463,9.79524379451847));
#372=CARTESIAN_POINT('Ctrl Pts',(-15.2311959837893,18.8922667522664,11.8361687732385));
#373=CARTESIAN_POINT('Ctrl Pts',(-14.4486851044228,19.5018085938361,12.7749259712593));
#374=CARTESIAN_POINT('Ctrl Pts',(-12.7997127459711,20.6202017195872,14.4238983297109));
#375=CARTESIAN_POINT('Ctrl Pts',(-11.8757369944934,21.1737587659249,15.2003983369365));
#376=CARTESIAN_POINT('Ctrl Pts',(-9.83771219500771,22.1941570739556,16.592307183276));
#377=CARTESIAN_POINT('Ctrl Pts',(-8.72348875791202,22.6606086476071,17.2077463274893));
#378=CARTESIAN_POINT('Ctrl Pts',(-6.36475343717874,23.432720017855,18.2125154934279));
#379=CARTESIAN_POINT('Ctrl Pts',(-5.11750566830628,23.7388977617543,18.6027095210233));
#380=CARTESIAN_POINT('Ctrl Pts',(-2.5720293021588,24.1476457754232,19.1215671710221));
#381=CARTESIAN_POINT('Ctrl Pts',(-1.27371897938612,24.25,19.25));
#382=CARTESIAN_POINT('Ctrl Pts',(1.27371897938612,24.25,19.25));
#383=CARTESIAN_POINT('Ctrl Pts',(2.5720293021588,24.1476457754232,19.1215671710221));
#384=CARTESIAN_POINT('Ctrl Pts',(5.11750566830628,23.7388977617543,18.6027095210233));
#385=CARTESIAN_POINT('Ctrl Pts',(6.36475343717873,23.432720017855,18.2125154934279));
#386=CARTESIAN_POINT('Ctrl Pts',(8.72348875791202,22.6606086476071,17.2077463274893));
#387=CARTESIAN_POINT('Ctrl Pts',(9.83771219500771,22.1941570739556,16.592307183276));
#388=CARTESIAN_POINT('Ctrl Pts',(11.8757369944934,21.1737587659249,15.2003983369365));
#389=CARTESIAN_POINT('Ctrl Pts',(12.7997127459711,20.6202017195872,14.4238983297109));
#390=CARTESIAN_POINT('Ctrl Pts',(14.4486851044228,19.5018085938361,12.7749259712593));
#391=CARTESIAN_POINT('Ctrl Pts',(15.2311959837893,18.8922667522664,11.8361687732385));
#392=CARTESIAN_POINT('Ctrl Pts',(16.617383110473,17.6852948077463,9.79524379451846));
#393=CARTESIAN_POINT('Ctrl Pts',(17.2216072510359,17.088074790586,8.6933239486347));
#394=CARTESIAN_POINT('Ctrl Pts',(18.2098183902589,16.0308635532909,6.36868378690481));
#395=CARTESIAN_POINT('Ctrl Pts',(18.5947513810146,15.5714091158855,5.14417749463275));
#396=CARTESIAN_POINT('Ctrl Pts',(19.1149383054494,14.9282515994502,2.61657657636997));
#397=CARTESIAN_POINT('Ctrl Pts',(19.25,14.7478812037526,1.31259555322635));
#398=CARTESIAN_POINT('Ctrl Pts',(19.25,14.7478812037526,2.77555756156289E-16));
#399=CARTESIAN_POINT('',(19.25,26.,-2.35744508835865E-15));
#400=CARTESIAN_POINT('Origin',(0.,26.,0.));
#401=CARTESIAN_POINT('Origin',(0.,0.,-26.));
#402=CARTESIAN_POINT('',(-24.25,2.96976848793233E-15,26.));
#403=CARTESIAN_POINT('Origin',(0.,0.,26.));
#404=CARTESIAN_POINT('',(-24.25,2.96976848793233E-15,-26.));
#405=CARTESIAN_POINT('Origin',(0.,0.,-26.));
#406=CARTESIAN_POINT('Origin',(-9.4425648294133E-16,26.,0.));
#407=CARTESIAN_POINT('Origin',(0.,52.,0.));
#408=CARTESIAN_POINT('',(25.5,16.7332005306815,2.22044604925031E-15));
#409=CARTESIAN_POINT('Ctrl Pts',(25.5,16.7332005306815,2.22044604925031E-15));
#410=CARTESIAN_POINT('Ctrl Pts',(25.5,16.7332005306815,1.77267759172207));
#411=CARTESIAN_POINT('Ctrl Pts',(25.3152862718448,17.0220685475554,3.50729599324429));
#412=CARTESIAN_POINT('Ctrl Pts',(24.6217904745871,18.0106071427337,6.85071375868072));
#413=CARTESIAN_POINT('Ctrl Pts',(24.1128257154518,18.7046251605489,8.46114391442033));
#414=CARTESIAN_POINT('Ctrl Pts',(22.8086473841893,20.2745405842412,11.5232340383623));
#415=CARTESIAN_POINT('Ctrl Pts',(22.0122069779006,21.1499700457706,12.9757965549204));
#416=CARTESIAN_POINT('Ctrl Pts',(20.1803202963481,22.9044354344056,15.6736474573423));
#417=CARTESIAN_POINT('Ctrl Pts',(19.1440945476775,23.7835562213615,16.9183512928365));
#418=CARTESIAN_POINT('Ctrl Pts',(16.9645966309984,25.3811232655456,19.0978492095155));
#419=CARTESIAN_POINT('Ctrl Pts',(15.7488001482988,26.1639068050889,20.1215793496802));
#420=CARTESIAN_POINT('Ctrl Pts',(13.0609190896966,27.6041141500093,21.9616723952584));
#421=CARTESIAN_POINT('Ctrl Pts',(11.5885921581288,28.2610793064631,22.7780402238286));
#422=CARTESIAN_POINT('Ctrl Pts',(8.4653963470909,29.3482736237043,24.1137239254611));
#423=CARTESIAN_POINT('Ctrl Pts',(6.81080705777522,29.7793091492499,24.6342134151523));
#424=CARTESIAN_POINT('Ctrl Pts',(3.4276728292083,30.3553192241245,25.3275072277943));
#425=CARTESIAN_POINT('Ctrl Pts',(1.69901404180184,30.5,25.5));
#426=CARTESIAN_POINT('Ctrl Pts',(-1.69901404180183,30.5,25.5));
#427=CARTESIAN_POINT('Ctrl Pts',(-3.42767282920829,30.3553192241245,25.3275072277943));
#428=CARTESIAN_POINT('Ctrl Pts',(-6.81080705777522,29.7793091492499,24.6342134151523));
#429=CARTESIAN_POINT('Ctrl Pts',(-8.4653963470909,29.3482736237043,24.1137239254611));
#430=CARTESIAN_POINT('Ctrl Pts',(-11.5885921581288,28.2610793064631,22.7780402238286));
#431=CARTESIAN_POINT('Ctrl Pts',(-13.0609190896966,27.6041141500093,21.9616723952584));
#432=CARTESIAN_POINT('Ctrl Pts',(-15.7488001482988,26.1639068050889,20.1215793496802));
#433=CARTESIAN_POINT('Ctrl Pts',(-16.9645966309984,25.3811232655456,19.0978492095155));
#434=CARTESIAN_POINT('Ctrl Pts',(-19.1440945476775,23.7835562213615,16.9183512928365));
#435=CARTESIAN_POINT('Ctrl Pts',(-20.1803202963481,22.9044354344056,15.6736474573423));
#436=CARTESIAN_POINT('Ctrl Pts',(-22.0122069779006,21.1499700457706,12.9757965549204));
#437=CARTESIAN_POINT('Ctrl Pts',(-22.8086473841893,20.2745405842412,11.5232340383623));
#438=CARTESIAN_POINT('Ctrl Pts',(-24.1128257154518,18.7046251605489,8.46114391442033));
#439=CARTESIAN_POINT('Ctrl Pts',(-24.6217904745871,18.0106071427337,6.85071375868072));
#440=CARTESIAN_POINT('Ctrl Pts',(-25.3152862718448,17.0220685475554,3.50729599324429));
#441=CARTESIAN_POINT('Ctrl Pts',(-25.5,16.7332005306815,1.77267759172207));
#442=CARTESIAN_POINT('Ctrl Pts',(-25.5,16.7332005306815,-1.77267759172207));
#443=CARTESIAN_POINT('Ctrl Pts',(-25.3152862718448,17.0220685475554,-3.50729599324429));
#444=CARTESIAN_POINT('Ctrl Pts',(-24.6217904745871,18.0106071427337,-6.85071375868073));
#445=CARTESIAN_POINT('Ctrl Pts',(-24.1128257154518,18.7046251605489,-8.46114391442033));
#446=CARTESIAN_POINT('Ctrl Pts',(-22.8086473841893,20.2745405842412,-11.5232340383623));
#447=CARTESIAN_POINT('Ctrl Pts',(-22.0122069779006,21.1499700457706,-12.9757965549204));
#448=CARTESIAN_POINT('Ctrl Pts',(-20.1803202963481,22.9044354344056,-15.6736474573423));
#449=CARTESIAN_POINT('Ctrl Pts',(-19.1440945476775,23.7835562213615,-16.9183512928365));
#450=CARTESIAN_POINT('Ctrl Pts',(-16.9645966309984,25.3811232655456,-19.0978492095155));
#451=CARTESIAN_POINT('Ctrl Pts',(-15.7488001482988,26.1639068050889,-20.1215793496802));
#452=CARTESIAN_POINT('Ctrl Pts',(-13.0609190896966,27.6041141500093,-21.9616723952584));
#453=CARTESIAN_POINT('Ctrl Pts',(-11.5885921581288,28.2610793064631,-22.7780402238286));
#454=CARTESIAN_POINT('Ctrl Pts',(-8.46539634709089,29.3482736237043,-24.1137239254611));
#455=CARTESIAN_POINT('Ctrl Pts',(-6.81080705777521,29.7793091492499,-24.6342134151523));
#456=CARTESIAN_POINT('Ctrl Pts',(-3.42767282920829,30.3553192241245,-25.3275072277943));
#457=CARTESIAN_POINT('Ctrl Pts',(-1.69901404180184,30.5,-25.5));
#458=CARTESIAN_POINT('Ctrl Pts',(1.69901404180183,30.5,-25.5));
#459=CARTESIAN_POINT('Ctrl Pts',(3.42767282920829,30.3553192241245,-25.3275072277943));
#460=CARTESIAN_POINT('Ctrl Pts',(6.81080705777521,29.7793091492499,-24.6342134151523));
#461=CARTESIAN_POINT('Ctrl Pts',(8.46539634709089,29.3482736237043,-24.1137239254611));
#462=CARTESIAN_POINT('Ctrl Pts',(11.5885921581288,28.2610793064631,-22.7780402238286));
#463=CARTESIAN_POINT('Ctrl Pts',(13.0609190896966,27.6041141500093,-21.9616723952584));
#464=CARTESIAN_POINT('Ctrl Pts',(15.7488001482988,26.1639068050889,-20.1215793496803));
#465=CARTESIAN_POINT('Ctrl Pts',(16.9645966309984,25.3811232655456,-19.0978492095155));
#466=CARTESIAN_POINT('Ctrl Pts',(19.1440945476775,23.7835562213615,-16.9183512928365));
#467=CARTESIAN_POINT('Ctrl Pts',(20.1803202963481,22.9044354344056,-15.6736474573423));
#468=CARTESIAN_POINT('Ctrl Pts',(22.0122069779006,21.1499700457706,-12.9757965549204));
#469=CARTESIAN_POINT('Ctrl Pts',(22.8086473841893,20.2745405842412,-11.5232340383623));
#470=CARTESIAN_POINT('Ctrl Pts',(24.1128257154518,18.7046251605489,-8.46114391442033));
#471=CARTESIAN_POINT('Ctrl Pts',(24.6217904745871,18.0106071427337,-6.85071375868071));
#472=CARTESIAN_POINT('Ctrl Pts',(25.3152862718448,17.0220685475554,-3.50729599324428));
#473=CARTESIAN_POINT('Ctrl Pts',(25.5,16.7332005306815,-1.77267759172207));
#474=CARTESIAN_POINT('Ctrl Pts',(25.5,16.7332005306815,-1.66533453693773E-15));
#475=CARTESIAN_POINT('Origin',(0.,0.,0.));
#476=CARTESIAN_POINT('Origin',(-1.43937264275587E-15,0.,-26.));
#477=CARTESIAN_POINT('Origin',(-1.43937264275587E-15,0.,26.));
#478=UNCERTAINTY_MEASURE_WITH_UNIT(LENGTH_MEASURE(0.01),#482,
'DISTANCE_ACCURACY_VALUE',
'Maximum model space distance between geometric entities at asserted c
onnectivities');
#479=UNCERTAINTY_MEASURE_WITH_UNIT(LENGTH_MEASURE(1.E-6),#482,
'DISTANCE_ACCURACY_VALUE',
'Maximum model space distance between geometric entities at asserted c
onnectivities');
#480=(
GEOMETRIC_REPRESENTATION_CONTEXT(3)
GLOBAL_UNCERTAINTY_ASSIGNED_CONTEXT((#478))
GLOBAL_UNIT_ASSIGNED_CONTEXT((#482,#485,#483))
REPRESENTATION_CONTEXT('','3D')
);
#481=(
GEOMETRIC_REPRESENTATION_CONTEXT(3)
GLOBAL_UNCERTAINTY_ASSIGNED_CONTEXT((#479))
GLOBAL_UNIT_ASSIGNED_CONTEXT((#482,#485,#483))
REPRESENTATION_CONTEXT('','3D')
);
#482=(
LENGTH_UNIT()
NAMED_UNIT(*)
SI_UNIT(.MILLI.,.METRE.)
);
#483=(
NAMED_UNIT(*)
SI_UNIT($,.STERADIAN.)
SOLID_ANGLE_UNIT()
);
#484=DIMENSIONAL_EXPONENTS(0.,0.,0.,0.,0.,0.,0.);
#485=(
CONVERSION_BASED_UNIT('degree',#487)
NAMED_UNIT(#484)
PLANE_ANGLE_UNIT()
);
#486=(
NAMED_UNIT(*)
PLANE_ANGLE_UNIT()
SI_UNIT($,.RADIAN.)
);
#487=PLANE_ANGLE_MEASURE_WITH_UNIT(PLANE_ANGLE_MEASURE(0.01745329252),#486);
#488=SHAPE_DEFINITION_REPRESENTATION(#489,#490);
#489=PRODUCT_DEFINITION_SHAPE('',$,#492);
#490=SHAPE_REPRESENTATION('',(#201),#480);
#491=PRODUCT_DEFINITION_CONTEXT('part definition',#496,'design');
#492=PRODUCT_DEFINITION('TR40050E','TR40050E',#493,#491);
#493=PRODUCT_DEFINITION_FORMATION('',$,#498);
#494=PRODUCT_RELATED_PRODUCT_CATEGORY('TR40050E','TR40050E',(#498));
#495=APPLICATION_PROTOCOL_DEFINITION('international standard',
'automotive_design',2009,#496);
#496=APPLICATION_CONTEXT(
'Core Data for Automotive Mechanical Design Process');
#497=PRODUCT_CONTEXT('part definition',#496,'mechanical');
#498=PRODUCT('TR40050E','TR40050E',$,(#497));
#499=PRESENTATION_STYLE_ASSIGNMENT((#500));
#500=SURFACE_STYLE_USAGE(.BOTH.,#501);
#501=SURFACE_SIDE_STYLE('',(#502));
#502=SURFACE_STYLE_FILL_AREA(#503);
#503=FILL_AREA_STYLE('',(#504));
#504=FILL_AREA_STYLE_COLOUR('',#505);
#505=COLOUR_RGB('',0.8,0.8,0.8);
ENDSEC;
END-ISO-10303-21;
