ISO-10303-21;
HEADER;
/* Generated by software containing ST-Developer
 * from STEP Tools, Inc. (www.steptools.com) 
 */

FILE_DESCRIPTION(
/* description */ (''),
/* implementation_level */ '2;1');

FILE_NAME(
/* name */ 'C:\\Users\\Gabriele\\Desktop\\catalogo\\EL50\\EL501100.stp',

/* time_stamp */ '2016-10-17T17:06:59+02:00',
/* author */ ('Gabriele'),
/* organization */ (''),
/* preprocessor_version */ 'ST-DEVELOPER v16.5',
/* originating_system */ 'Autodesk Inventor 2017',
/* authorisation */ '');

FILE_SCHEMA (('AUTOMOTIVE_DESIGN { 1 0 10303 214 3 1 1 }'));
ENDSEC;

DATA;
#10=MECHANICAL_DESIGN_GEOMETRIC_PRESENTATION_REPRESENTATION('',(#13),#394);
#11=SHAPE_REPRESENTATION_RELATIONSHIP('SRR','None',#403,#12);
#12=ADVANCED_BREP_SHAPE_REPRESENTATION('',(#14),#393);
#13=STYLED_ITEM('',(#412),#14);
#14=MANIFOLD_SOLID_BREP('Solido1',#189);
#15=PLANE('',#202);
#16=PLANE('',#212);
#17=PLANE('',#220);
#18=PLANE('',#221);
#19=TOROIDAL_SURFACE('',#199,55.5,0.5);
#20=TOROIDAL_SURFACE('',#206,64.,0.5);
#21=TOROIDAL_SURFACE('',#209,55.5,0.5);
#22=TOROIDAL_SURFACE('',#216,64.,0.5);
#23=TOROIDAL_SURFACE('',#217,58.,54.);
#24=FACE_BOUND('',#74,.T.);
#25=FACE_BOUND('',#76,.T.);
#26=FACE_BOUND('',#78,.T.);
#27=FACE_BOUND('',#80,.T.);
#28=FACE_BOUND('',#82,.T.);
#29=FACE_BOUND('',#84,.T.);
#30=FACE_BOUND('',#86,.T.);
#31=FACE_BOUND('',#88,.T.);
#32=FACE_BOUND('',#90,.T.);
#33=FACE_BOUND('',#92,.T.);
#34=FACE_BOUND('',#94,.T.);
#35=FACE_BOUND('',#96,.T.);
#36=FACE_BOUND('',#98,.T.);
#37=CYLINDRICAL_SURFACE('',#197,64.5);
#38=CYLINDRICAL_SURFACE('',#204,55.);
#39=CYLINDRICAL_SURFACE('',#208,64.5);
#40=CYLINDRICAL_SURFACE('',#214,55.);
#41=CIRCLE('',#195,64.5);
#42=CIRCLE('',#196,64.5);
#43=CIRCLE('',#198,64.5);
#44=CIRCLE('',#200,55.);
#45=CIRCLE('',#201,55.5);
#46=CIRCLE('',#203,64.);
#47=CIRCLE('',#205,55.);
#48=CIRCLE('',#207,64.5);
#49=CIRCLE('',#210,55.);
#50=CIRCLE('',#211,55.5);
#51=CIRCLE('',#213,64.);
#52=CIRCLE('',#215,55.);
#53=CIRCLE('',#218,54.);
#54=CIRCLE('',#219,54.);
#55=(
BOUNDED_SURFACE()
B_SPLINE_SURFACE(2,2,((#325,#326,#327),(#328,#329,#330),(#331,#332,#333),
(#334,#335,#336),(#337,#338,#339),(#340,#341,#342),(#343,#344,#345),(#346,
#347,#348),(#349,#350,#351)),.UNSPECIFIED.,.F.,.F.,.F.)
B_SPLINE_SURFACE_WITH_KNOTS((3,2,2,2,3),(3,3),(-2.67398769282409,-1.33699384641205,
-8.88178419700125E-16,1.33699384641204,2.67398769282409),(0.,1.57079632679545),
 .UNSPECIFIED.)
GEOMETRIC_REPRESENTATION_ITEM()
RATIONAL_B_SPLINE_SURFACE(((1.,0.707106781186351,1.),(0.784754169735487,
0.554904994984228,0.784754169735487),(1.,0.707106781186351,1.),(0.784754169735486,
0.554904994984227,0.784754169735486),(1.,0.707106781186351,1.),(0.784754169735486,
0.554904994984227,0.784754169735486),(1.,0.707106781186351,1.),(0.784754169735487,
0.554904994984228,0.784754169735487),(1.,0.707106781186351,1.)))
REPRESENTATION_ITEM('')
SURFACE()
);
#56=FACE_OUTER_BOUND('',#71,.T.);
#57=FACE_OUTER_BOUND('',#72,.T.);
#58=FACE_OUTER_BOUND('',#73,.T.);
#59=FACE_OUTER_BOUND('',#75,.T.);
#60=FACE_OUTER_BOUND('',#77,.T.);
#61=FACE_OUTER_BOUND('',#79,.T.);
#62=FACE_OUTER_BOUND('',#81,.T.);
#63=FACE_OUTER_BOUND('',#83,.T.);
#64=FACE_OUTER_BOUND('',#85,.T.);
#65=FACE_OUTER_BOUND('',#87,.T.);
#66=FACE_OUTER_BOUND('',#89,.T.);
#67=FACE_OUTER_BOUND('',#91,.T.);
#68=FACE_OUTER_BOUND('',#93,.T.);
#69=FACE_OUTER_BOUND('',#95,.T.);
#70=FACE_OUTER_BOUND('',#97,.T.);
#71=EDGE_LOOP('',(#137,#138,#139,#140));
#72=EDGE_LOOP('',(#141,#142,#143,#144));
#73=EDGE_LOOP('',(#145));
#74=EDGE_LOOP('',(#146,#147));
#75=EDGE_LOOP('',(#148));
#76=EDGE_LOOP('',(#149));
#77=EDGE_LOOP('',(#150));
#78=EDGE_LOOP('',(#151));
#79=EDGE_LOOP('',(#152));
#80=EDGE_LOOP('',(#153));
#81=EDGE_LOOP('',(#154));
#82=EDGE_LOOP('',(#155));
#83=EDGE_LOOP('',(#156,#157));
#84=EDGE_LOOP('',(#158));
#85=EDGE_LOOP('',(#159));
#86=EDGE_LOOP('',(#160));
#87=EDGE_LOOP('',(#161));
#88=EDGE_LOOP('',(#162));
#89=EDGE_LOOP('',(#163));
#90=EDGE_LOOP('',(#164));
#91=EDGE_LOOP('',(#165));
#92=EDGE_LOOP('',(#166));
#93=EDGE_LOOP('',(#167));
#94=EDGE_LOOP('',(#168));
#95=EDGE_LOOP('',(#169));
#96=EDGE_LOOP('',(#170));
#97=EDGE_LOOP('',(#171));
#98=EDGE_LOOP('',(#172));
#99=ELLIPSE('',#191,0.528536403748103,0.500080626744204);
#100=ELLIPSE('',#192,91.5710106966173,64.5);
#101=ELLIPSE('',#193,0.528536403736348,0.500080626739405);
#102=ELLIPSE('',#194,91.5710106966173,64.5);
#103=VERTEX_POINT('',#317);
#104=VERTEX_POINT('',#318);
#105=VERTEX_POINT('',#320);
#106=VERTEX_POINT('',#322);
#107=VERTEX_POINT('',#355);
#108=VERTEX_POINT('',#358);
#109=VERTEX_POINT('',#360);
#110=VERTEX_POINT('',#363);
#111=VERTEX_POINT('',#366);
#112=VERTEX_POINT('',#369);
#113=VERTEX_POINT('',#373);
#114=VERTEX_POINT('',#375);
#115=VERTEX_POINT('',#378);
#116=VERTEX_POINT('',#381);
#117=VERTEX_POINT('',#385);
#118=VERTEX_POINT('',#387);
#119=EDGE_CURVE('',#103,#104,#99,.T.);
#120=EDGE_CURVE('',#103,#105,#100,.T.);
#121=EDGE_CURVE('',#106,#105,#101,.T.);
#122=EDGE_CURVE('',#106,#104,#102,.T.);
#123=EDGE_CURVE('',#105,#103,#41,.T.);
#124=EDGE_CURVE('',#106,#104,#42,.T.);
#125=EDGE_CURVE('',#107,#107,#43,.T.);
#126=EDGE_CURVE('',#108,#108,#44,.T.);
#127=EDGE_CURVE('',#109,#109,#45,.T.);
#128=EDGE_CURVE('',#110,#110,#46,.T.);
#129=EDGE_CURVE('',#111,#111,#47,.T.);
#130=EDGE_CURVE('',#112,#112,#48,.T.);
#131=EDGE_CURVE('',#113,#113,#49,.T.);
#132=EDGE_CURVE('',#114,#114,#50,.T.);
#133=EDGE_CURVE('',#115,#115,#51,.T.);
#134=EDGE_CURVE('',#116,#116,#52,.T.);
#135=EDGE_CURVE('',#117,#117,#53,.T.);
#136=EDGE_CURVE('',#118,#118,#54,.T.);
#137=ORIENTED_EDGE('',*,*,#119,.F.);
#138=ORIENTED_EDGE('',*,*,#120,.T.);
#139=ORIENTED_EDGE('',*,*,#121,.F.);
#140=ORIENTED_EDGE('',*,*,#122,.T.);
#141=ORIENTED_EDGE('',*,*,#121,.T.);
#142=ORIENTED_EDGE('',*,*,#123,.T.);
#143=ORIENTED_EDGE('',*,*,#119,.T.);
#144=ORIENTED_EDGE('',*,*,#124,.F.);
#145=ORIENTED_EDGE('',*,*,#125,.F.);
#146=ORIENTED_EDGE('',*,*,#120,.F.);
#147=ORIENTED_EDGE('',*,*,#123,.F.);
#148=ORIENTED_EDGE('',*,*,#126,.T.);
#149=ORIENTED_EDGE('',*,*,#127,.T.);
#150=ORIENTED_EDGE('',*,*,#128,.F.);
#151=ORIENTED_EDGE('',*,*,#127,.F.);
#152=ORIENTED_EDGE('',*,*,#129,.F.);
#153=ORIENTED_EDGE('',*,*,#126,.F.);
#154=ORIENTED_EDGE('',*,*,#130,.T.);
#155=ORIENTED_EDGE('',*,*,#128,.T.);
#156=ORIENTED_EDGE('',*,*,#122,.F.);
#157=ORIENTED_EDGE('',*,*,#124,.T.);
#158=ORIENTED_EDGE('',*,*,#130,.F.);
#159=ORIENTED_EDGE('',*,*,#131,.T.);
#160=ORIENTED_EDGE('',*,*,#132,.T.);
#161=ORIENTED_EDGE('',*,*,#133,.F.);
#162=ORIENTED_EDGE('',*,*,#132,.F.);
#163=ORIENTED_EDGE('',*,*,#134,.T.);
#164=ORIENTED_EDGE('',*,*,#131,.F.);
#165=ORIENTED_EDGE('',*,*,#133,.T.);
#166=ORIENTED_EDGE('',*,*,#125,.T.);
#167=ORIENTED_EDGE('',*,*,#135,.F.);
#168=ORIENTED_EDGE('',*,*,#136,.F.);
#169=ORIENTED_EDGE('',*,*,#129,.T.);
#170=ORIENTED_EDGE('',*,*,#135,.T.);
#171=ORIENTED_EDGE('',*,*,#134,.F.);
#172=ORIENTED_EDGE('',*,*,#136,.T.);
#173=B_SPLINE_SURFACE_WITH_KNOTS('',3,3,((#287,#288,#289,#290,#291,#292),
(#293,#294,#295,#296,#297,#298),(#299,#300,#301,#302,#303,#304),(#305,#306,
#307,#308,#309,#310),(#311,#312,#313,#314,#315,#316)),.UNSPECIFIED.,.F.,
 .F.,.F.,(4,1,4),(4,1,1,4),(0.,0.5,1.),(-0.468921684890288,-0.0669888121269173,
0.200966436381996,0.46892168489091),.UNSPECIFIED.);
#174=ADVANCED_FACE('',(#56),#173,.T.);
#175=ADVANCED_FACE('',(#57),#55,.F.);
#176=ADVANCED_FACE('',(#58,#24),#37,.T.);
#177=ADVANCED_FACE('',(#59,#25),#19,.T.);
#178=ADVANCED_FACE('',(#60,#26),#15,.T.);
#179=ADVANCED_FACE('',(#61,#27),#38,.F.);
#180=ADVANCED_FACE('',(#62,#28),#20,.T.);
#181=ADVANCED_FACE('',(#63,#29),#39,.T.);
#182=ADVANCED_FACE('',(#64,#30),#21,.T.);
#183=ADVANCED_FACE('',(#65,#31),#16,.F.);
#184=ADVANCED_FACE('',(#66,#32),#40,.F.);
#185=ADVANCED_FACE('',(#67,#33),#22,.T.);
#186=ADVANCED_FACE('',(#68,#34),#23,.F.);
#187=ADVANCED_FACE('',(#69,#35),#17,.T.);
#188=ADVANCED_FACE('',(#70,#36),#18,.F.);
#189=CLOSED_SHELL('',(#174,#175,#176,#177,#178,#179,#180,#181,#182,#183,
#184,#185,#186,#187,#188));
#190=AXIS2_PLACEMENT_3D('placement',#286,#222,#223);
#191=AXIS2_PLACEMENT_3D('',#319,#224,#225);
#192=AXIS2_PLACEMENT_3D('',#321,#226,#227);
#193=AXIS2_PLACEMENT_3D('',#323,#228,#229);
#194=AXIS2_PLACEMENT_3D('',#324,#230,#231);
#195=AXIS2_PLACEMENT_3D('',#352,#232,#233);
#196=AXIS2_PLACEMENT_3D('',#353,#234,#235);
#197=AXIS2_PLACEMENT_3D('',#354,#236,#237);
#198=AXIS2_PLACEMENT_3D('',#356,#238,#239);
#199=AXIS2_PLACEMENT_3D('',#357,#240,#241);
#200=AXIS2_PLACEMENT_3D('',#359,#242,#243);
#201=AXIS2_PLACEMENT_3D('',#361,#244,#245);
#202=AXIS2_PLACEMENT_3D('',#362,#246,#247);
#203=AXIS2_PLACEMENT_3D('',#364,#248,#249);
#204=AXIS2_PLACEMENT_3D('',#365,#250,#251);
#205=AXIS2_PLACEMENT_3D('',#367,#252,#253);
#206=AXIS2_PLACEMENT_3D('',#368,#254,#255);
#207=AXIS2_PLACEMENT_3D('',#370,#256,#257);
#208=AXIS2_PLACEMENT_3D('',#371,#258,#259);
#209=AXIS2_PLACEMENT_3D('',#372,#260,#261);
#210=AXIS2_PLACEMENT_3D('',#374,#262,#263);
#211=AXIS2_PLACEMENT_3D('',#376,#264,#265);
#212=AXIS2_PLACEMENT_3D('',#377,#266,#267);
#213=AXIS2_PLACEMENT_3D('',#379,#268,#269);
#214=AXIS2_PLACEMENT_3D('',#380,#270,#271);
#215=AXIS2_PLACEMENT_3D('',#382,#272,#273);
#216=AXIS2_PLACEMENT_3D('',#383,#274,#275);
#217=AXIS2_PLACEMENT_3D('',#384,#276,#277);
#218=AXIS2_PLACEMENT_3D('',#386,#278,#279);
#219=AXIS2_PLACEMENT_3D('',#388,#280,#281);
#220=AXIS2_PLACEMENT_3D('',#389,#282,#283);
#221=AXIS2_PLACEMENT_3D('',#390,#284,#285);
#222=DIRECTION('axis',(0.,0.,1.));
#223=DIRECTION('refdir',(1.,0.,0.));
#224=DIRECTION('center_axis',(0.203771869956916,-0.20377186995686,-0.957577177061226));
#225=DIRECTION('ref_axis',(-0.677109289053711,0.677109341765216,-0.288176942123158));
#226=DIRECTION('center_axis',(0.709831632363987,0.70437138903811,0.));
#227=DIRECTION('ref_axis',(0.70437138903811,-0.709831632363987,0.));
#228=DIRECTION('center_axis',(0.203771869957545,-0.203771869957443,0.957577177060968));
#229=DIRECTION('ref_axis',(0.677109341770704,-0.677109289047858,-0.288176942124015));
#230=DIRECTION('center_axis',(-0.70437138903811,-0.709831632363987,2.43987288150595E-16));
#231=DIRECTION('ref_axis',(0.709831632363987,-0.70437138903811,0.));
#232=DIRECTION('center_axis',(0.,1.,0.));
#233=DIRECTION('ref_axis',(-1.,0.,0.));
#234=DIRECTION('center_axis',(1.,6.12323399573677E-17,0.));
#235=DIRECTION('ref_axis',(-6.12323399573677E-17,1.,0.));
#236=DIRECTION('center_axis',(0.,1.,0.));
#237=DIRECTION('ref_axis',(-1.,0.,0.));
#238=DIRECTION('center_axis',(0.,-1.,0.));
#239=DIRECTION('ref_axis',(-1.,0.,0.));
#240=DIRECTION('center_axis',(-1.,-6.12323399573677E-17,0.));
#241=DIRECTION('ref_axis',(0.,0.,1.));
#242=DIRECTION('center_axis',(-1.,-6.12323399573677E-17,0.));
#243=DIRECTION('ref_axis',(-6.18192365984462E-17,1.,0.));
#244=DIRECTION('center_axis',(1.,6.12323399573677E-17,0.));
#245=DIRECTION('ref_axis',(-6.12323399573677E-17,1.,0.));
#246=DIRECTION('center_axis',(1.,6.12323399573677E-17,0.));
#247=DIRECTION('ref_axis',(0.,0.,1.));
#248=DIRECTION('center_axis',(-1.,-6.12323399573677E-17,0.));
#249=DIRECTION('ref_axis',(-6.12323399573677E-17,1.,0.));
#250=DIRECTION('center_axis',(1.,2.22044604925031E-16,0.));
#251=DIRECTION('ref_axis',(-2.22044604925031E-16,1.,0.));
#252=DIRECTION('center_axis',(1.,2.22044604925031E-16,0.));
#253=DIRECTION('ref_axis',(-2.22044604925031E-16,1.,0.));
#254=DIRECTION('center_axis',(1.,6.12323399573677E-17,0.));
#255=DIRECTION('ref_axis',(0.,0.,-1.));
#256=DIRECTION('center_axis',(1.,6.12323399573677E-17,0.));
#257=DIRECTION('ref_axis',(-6.13204577554592E-17,1.,0.));
#258=DIRECTION('center_axis',(1.,0.,0.));
#259=DIRECTION('ref_axis',(0.,1.,0.));
#260=DIRECTION('center_axis',(0.,1.,0.));
#261=DIRECTION('ref_axis',(0.,0.,1.));
#262=DIRECTION('center_axis',(0.,1.,0.));
#263=DIRECTION('ref_axis',(-1.,0.,0.));
#264=DIRECTION('center_axis',(0.,-1.,0.));
#265=DIRECTION('ref_axis',(-1.,0.,0.));
#266=DIRECTION('center_axis',(0.,1.,0.));
#267=DIRECTION('ref_axis',(0.,0.,1.));
#268=DIRECTION('center_axis',(0.,1.,0.));
#269=DIRECTION('ref_axis',(-1.,0.,0.));
#270=DIRECTION('center_axis',(0.,1.,0.));
#271=DIRECTION('ref_axis',(-1.,0.,0.));
#272=DIRECTION('center_axis',(0.,1.,0.));
#273=DIRECTION('ref_axis',(-1.,0.,0.));
#274=DIRECTION('center_axis',(0.,1.,0.));
#275=DIRECTION('ref_axis',(0.,0.,1.));
#276=DIRECTION('center_axis',(0.,0.,-1.));
#277=DIRECTION('ref_axis',(-1.,0.,0.));
#278=DIRECTION('center_axis',(-1.,-2.22044604925031E-16,0.));
#279=DIRECTION('ref_axis',(-2.22044604925031E-16,1.,0.));
#280=DIRECTION('center_axis',(0.,1.,0.));
#281=DIRECTION('ref_axis',(-1.,0.,0.));
#282=DIRECTION('center_axis',(1.,2.22044604925031E-16,0.));
#283=DIRECTION('ref_axis',(0.,0.,1.));
#284=DIRECTION('center_axis',(0.,1.,0.));
#285=DIRECTION('ref_axis',(0.,0.,1.));
#286=CARTESIAN_POINT('',(0.,0.,0.));
#287=CARTESIAN_POINT('Ctrl Pts',(57.5376199905002,61.016351947558,-29.1491386807362));
#288=CARTESIAN_POINT('Ctrl Pts',(61.4429523400089,57.080745703867,-21.4403850491533));
#289=CARTESIAN_POINT('Ctrl Pts',(65.3285797587633,53.1649971423305,-7.27081010791082));
#290=CARTESIAN_POINT('Ctrl Pts',(63.9595439109029,54.5446456711843,13.0311877160523));
#291=CARTESIAN_POINT('Ctrl Pts',(60.1411748901577,58.392614451779,24.0099695930517));
#292=CARTESIAN_POINT('Ctrl Pts',(57.5376199904821,61.0163519475762,29.149138680772));
#293=CARTESIAN_POINT('Ctrl Pts',(57.5587920782023,61.1200168302801,-29.1073469986576));
#294=CARTESIAN_POINT('Ctrl Pts',(61.4553759153339,57.1974891983835,-21.401527706626));
#295=CARTESIAN_POINT('Ctrl Pts',(65.3245607332875,53.3000268417555,-7.25408684740629));
#296=CARTESIAN_POINT('Ctrl Pts',(63.9619356472879,54.6728114670425,13.0029937322526));
#297=CARTESIAN_POINT('Ctrl Pts',(60.1565146362751,58.5049984090307,23.9701341373406));
#298=CARTESIAN_POINT('Ctrl Pts',(57.5587920781842,61.1200168302983,29.1073469986934));
#299=CARTESIAN_POINT('Ctrl Pts',(57.673177180775,61.326822819225,-29.0605256453534));
#300=CARTESIAN_POINT('Ctrl Pts',(61.570015479787,57.429984520213,-21.3572173602873));
#301=CARTESIAN_POINT('Ctrl Pts',(65.4316027818278,53.5683972181722,-7.23490180391588));
#302=CARTESIAN_POINT('Ctrl Pts',(64.0722372493428,54.9277627506573,12.9705034720459));
#303=CARTESIAN_POINT('Ctrl Pts',(60.2710693801015,58.7289306198986,23.9249867886801));
#304=CARTESIAN_POINT('Ctrl Pts',(57.6731771807569,61.3268228192431,29.0605256453892));
#305=CARTESIAN_POINT('Ctrl Pts',(57.8799831697199,61.4412079217977,-29.1073469986576));
#306=CARTESIAN_POINT('Ctrl Pts',(61.8025108016165,57.5446240846662,-21.401527706626));
#307=CARTESIAN_POINT('Ctrl Pts',(65.6999731582453,53.6754392667117,-7.25408684740446));
#308=CARTESIAN_POINT('Ctrl Pts',(64.3271885329567,55.038064352713,13.0029937322533));
#309=CARTESIAN_POINT('Ctrl Pts',(60.4950015909693,58.8434853637249,23.9701341373406));
#310=CARTESIAN_POINT('Ctrl Pts',(57.8799831697017,61.4412079218158,29.1073469986934));
#311=CARTESIAN_POINT('Ctrl Pts',(57.9836480524421,61.4623800094998,-29.1491386807362));
#312=CARTESIAN_POINT('Ctrl Pts',(61.919254296133,57.5570476599911,-21.4403850491533));
#313=CARTESIAN_POINT('Ctrl Pts',(65.8350028576706,53.6714202412357,-7.27081010790835));
#314=CARTESIAN_POINT('Ctrl Pts',(64.4553543288146,55.0404560890983,13.0311877160534));
#315=CARTESIAN_POINT('Ctrl Pts',(60.607385548221,58.8588251098423,24.0099695930517));
#316=CARTESIAN_POINT('Ctrl Pts',(57.9836480524238,61.462380009518,29.149138680772));
#317=CARTESIAN_POINT('',(57.5538461538462,61.,29.1170876445328));
#318=CARTESIAN_POINT('',(58.,61.4461538461539,29.1170876445329));
#319=CARTESIAN_POINT('Origin',(58.0546000203199,60.9453999774152,29.2352666312215));
#320=CARTESIAN_POINT('',(57.5538461538462,61.,-29.1170876445328));
#321=CARTESIAN_POINT('Origin',(0.,119.,0.));
#322=CARTESIAN_POINT('',(58.,61.4461538461539,-29.1170876445328));
#323=CARTESIAN_POINT('Origin',(58.0546000225771,60.9453999796884,-29.2352666312185));
#324=CARTESIAN_POINT('Origin',(-4.44089209850063E-15,119.,0.));
#325=CARTESIAN_POINT('Ctrl Pts',(57.5759514752469,61.,29.0733522614784));
#326=CARTESIAN_POINT('Ctrl Pts',(57.5759514752468,61.4240485247532,29.0733522614784));
#327=CARTESIAN_POINT('Ctrl Pts',(58.,61.4240485247531,29.0733522614784));
#328=CARTESIAN_POINT('Ctrl Pts',(34.6135104153541,61.,74.5474475886052));
#329=CARTESIAN_POINT('Ctrl Pts',(34.6135104153477,84.3864895846524,74.5474475886052));
#330=CARTESIAN_POINT('Ctrl Pts',(58.,84.3864895846459,74.5474475886052));
#331=CARTESIAN_POINT('Ctrl Pts',(-14.9432447923229,61.,62.7451148303732));
#332=CARTESIAN_POINT('Ctrl Pts',(-14.9432447923432,133.943244792343,62.7451148303732));
#333=CARTESIAN_POINT('Ctrl Pts',(58.,133.943244792323,62.7451148303732));
#334=CARTESIAN_POINT('Ctrl Pts',(-64.5,61.,50.9427820721412));
#335=CARTESIAN_POINT('Ctrl Pts',(-64.5000000000339,183.500000000034,50.9427820721412));
#336=CARTESIAN_POINT('Ctrl Pts',(58.,183.5,50.9427820721412));
#337=CARTESIAN_POINT('Ctrl Pts',(-64.5,61.,5.72875080706581E-14));
#338=CARTESIAN_POINT('Ctrl Pts',(-64.500000000034,183.500000000034,5.72875080706581E-14));
#339=CARTESIAN_POINT('Ctrl Pts',(58.,183.5,5.72875080706581E-14));
#340=CARTESIAN_POINT('Ctrl Pts',(-64.5,61.,-50.942782072141));
#341=CARTESIAN_POINT('Ctrl Pts',(-64.500000000034,183.500000000034,-50.942782072141));
#342=CARTESIAN_POINT('Ctrl Pts',(58.,183.5,-50.942782072141));
#343=CARTESIAN_POINT('Ctrl Pts',(-14.943244792323,61.,-62.7451148303731));
#344=CARTESIAN_POINT('Ctrl Pts',(-14.9432447923433,133.943244792343,-62.7451148303731));
#345=CARTESIAN_POINT('Ctrl Pts',(58.,133.943244792323,-62.7451148303731));
#346=CARTESIAN_POINT('Ctrl Pts',(34.613510415354,61.,-74.5474475886052));
#347=CARTESIAN_POINT('Ctrl Pts',(34.6135104153475,84.3864895846525,-74.5474475886052));
#348=CARTESIAN_POINT('Ctrl Pts',(58.,84.386489584646,-74.5474475886052));
#349=CARTESIAN_POINT('Ctrl Pts',(57.5759514752469,61.,-29.0733522614785));
#350=CARTESIAN_POINT('Ctrl Pts',(57.5759514752468,61.4240485247532,-29.0733522614785));
#351=CARTESIAN_POINT('Ctrl Pts',(58.,61.4240485247531,-29.0733522614785));
#352=CARTESIAN_POINT('Origin',(0.,61.,0.));
#353=CARTESIAN_POINT('Origin',(58.,119.,0.));
#354=CARTESIAN_POINT('Origin',(0.,0.,0.));
#355=CARTESIAN_POINT('',(64.5,0.5,7.89897185450043E-15));
#356=CARTESIAN_POINT('Origin',(0.,0.5,0.));
#357=CARTESIAN_POINT('Origin',(118.5,119.,0.));
#358=CARTESIAN_POINT('',(118.5,64.,6.73555739531044E-15));
#359=CARTESIAN_POINT('Origin',(118.5,119.,0.));
#360=CARTESIAN_POINT('',(119.,63.5,-6.79678973526781E-15));
#361=CARTESIAN_POINT('Origin',(119.,119.,0.));
#362=CARTESIAN_POINT('Origin',(119.,119.,9.18013870491085E-16));
#363=CARTESIAN_POINT('',(119.,55.,7.83773951454306E-15));
#364=CARTESIAN_POINT('Origin',(119.,119.,0.));
#365=CARTESIAN_POINT('Origin',(119.,119.,0.));
#366=CARTESIAN_POINT('',(58.,64.,6.73555739531044E-15));
#367=CARTESIAN_POINT('Origin',(58.,119.,0.));
#368=CARTESIAN_POINT('Origin',(118.5,119.,0.));
#369=CARTESIAN_POINT('',(118.5,54.5,-7.89897185450043E-15));
#370=CARTESIAN_POINT('Origin',(118.5,119.,0.));
#371=CARTESIAN_POINT('Origin',(58.,119.,0.));
#372=CARTESIAN_POINT('Origin',(0.,0.5,0.));
#373=CARTESIAN_POINT('',(55.,0.5,-6.73555739531044E-15));
#374=CARTESIAN_POINT('Origin',(0.,0.5,0.));
#375=CARTESIAN_POINT('',(55.5,0.,6.79678973526781E-15));
#376=CARTESIAN_POINT('Origin',(0.,0.,0.));
#377=CARTESIAN_POINT('Origin',(-6.16633087748822E-15,0.,9.18013870491085E-16));
#378=CARTESIAN_POINT('',(64.,0.,-7.83773951454306E-15));
#379=CARTESIAN_POINT('Origin',(0.,0.,0.));
#380=CARTESIAN_POINT('Origin',(0.,0.,0.));
#381=CARTESIAN_POINT('',(55.,61.,6.73555739531044E-15));
#382=CARTESIAN_POINT('Origin',(0.,61.,0.));
#383=CARTESIAN_POINT('Origin',(0.,0.5,0.));
#384=CARTESIAN_POINT('Origin',(58.,61.,0.));
#385=CARTESIAN_POINT('',(58.,173.,-1.19904086659517E-14));
#386=CARTESIAN_POINT('Origin',(58.,119.,0.));
#387=CARTESIAN_POINT('',(-54.,61.,-1.19904086659517E-14));
#388=CARTESIAN_POINT('Origin',(0.,61.,0.));
#389=CARTESIAN_POINT('Origin',(58.,119.,0.));
#390=CARTESIAN_POINT('Origin',(-4.86761606027648E-15,61.,0.));
#391=UNCERTAINTY_MEASURE_WITH_UNIT(LENGTH_MEASURE(0.01),#395,
'DISTANCE_ACCURACY_VALUE',
'Maximum model space distance between geometric entities at asserted c
onnectivities');
#392=UNCERTAINTY_MEASURE_WITH_UNIT(LENGTH_MEASURE(1.E-6),#395,
'DISTANCE_ACCURACY_VALUE',
'Maximum model space distance between geometric entities at asserted c
onnectivities');
#393=(
GEOMETRIC_REPRESENTATION_CONTEXT(3)
GLOBAL_UNCERTAINTY_ASSIGNED_CONTEXT((#391))
GLOBAL_UNIT_ASSIGNED_CONTEXT((#395,#398,#396))
REPRESENTATION_CONTEXT('','3D')
);
#394=(
GEOMETRIC_REPRESENTATION_CONTEXT(3)
GLOBAL_UNCERTAINTY_ASSIGNED_CONTEXT((#392))
GLOBAL_UNIT_ASSIGNED_CONTEXT((#395,#398,#396))
REPRESENTATION_CONTEXT('','3D')
);
#395=(
LENGTH_UNIT()
NAMED_UNIT(*)
SI_UNIT(.MILLI.,.METRE.)
);
#396=(
NAMED_UNIT(*)
SI_UNIT($,.STERADIAN.)
SOLID_ANGLE_UNIT()
);
#397=DIMENSIONAL_EXPONENTS(0.,0.,0.,0.,0.,0.,0.);
#398=(
CONVERSION_BASED_UNIT('degree',#400)
NAMED_UNIT(#397)
PLANE_ANGLE_UNIT()
);
#399=(
NAMED_UNIT(*)
PLANE_ANGLE_UNIT()
SI_UNIT($,.RADIAN.)
);
#400=PLANE_ANGLE_MEASURE_WITH_UNIT(PLANE_ANGLE_MEASURE(0.01745329252),#399);
#401=SHAPE_DEFINITION_REPRESENTATION(#402,#403);
#402=PRODUCT_DEFINITION_SHAPE('',$,#405);
#403=SHAPE_REPRESENTATION('',(#190),#393);
#404=PRODUCT_DEFINITION_CONTEXT('part definition',#409,'design');
#405=PRODUCT_DEFINITION('EL501100','EL501100',#406,#404);
#406=PRODUCT_DEFINITION_FORMATION('',$,#411);
#407=PRODUCT_RELATED_PRODUCT_CATEGORY('EL501100','EL501100',(#411));
#408=APPLICATION_PROTOCOL_DEFINITION('international standard',
'automotive_design',2009,#409);
#409=APPLICATION_CONTEXT(
'Core Data for Automotive Mechanical Design Process');
#410=PRODUCT_CONTEXT('part definition',#409,'mechanical');
#411=PRODUCT('EL501100','EL501100',$,(#410));
#412=PRESENTATION_STYLE_ASSIGNMENT((#413));
#413=SURFACE_STYLE_USAGE(.BOTH.,#414);
#414=SURFACE_SIDE_STYLE('',(#415));
#415=SURFACE_STYLE_FILL_AREA(#416);
#416=FILL_AREA_STYLE('',(#417));
#417=FILL_AREA_STYLE_COLOUR('',#418);
#418=COLOUR_RGB('',0.8,0.8,0.8);
ENDSEC;
END-ISO-10303-21;
