ISO-10303-21;
HEADER;
/* Generated by software containing ST-Developer
 * from STEP Tools, Inc. (www.steptools.com) 
 */

FILE_DESCRIPTION(
/* description */ (''),
/* implementation_level */ '2;1');

FILE_NAME(
/* name */ 'C:\\Users\\Gabriele\\Desktop\\catalogo\\TR40\\TR40032C.stp',

/* time_stamp */ '2016-10-17T15:30:45+02:00',
/* author */ ('Gabriele'),
/* organization */ (''),
/* preprocessor_version */ 'ST-DEVELOPER v16.5',
/* originating_system */ 'Autodesk Inventor 2017',
/* authorisation */ '');

FILE_SCHEMA (('AUTOMOTIVE_DESIGN { 1 0 10303 214 3 1 1 }'));
ENDSEC;

DATA;
#10=MECHANICAL_DESIGN_GEOMETRIC_PRESENTATION_REPRESENTATION('',(#13),#441);
#11=SHAPE_REPRESENTATION_RELATIONSHIP('SRR','None',#450,#12);
#12=ADVANCED_BREP_SHAPE_REPRESENTATION('',(#14),#440);
#13=STYLED_ITEM('',(#459),#14);
#14=MANIFOLD_SOLID_BREP('Solido1',#200);
#15=B_SPLINE_CURVE_WITH_KNOTS('',3,(#333,#334,#335,#336,#337,#338,#339,
#340,#341,#342,#343,#344,#345,#346,#347,#348,#349,#350,#351,#352,#353,#354,
#355,#356,#357,#358,#359,#360,#361,#362,#363,#364,#365,#366,#367,#368,#369,
#370,#371,#372,#373,#374),.UNSPECIFIED.,.T.,.F.,(4,2,2,2,2,2,2,2,2,2,2,
2,2,2,2,2,2,2,2,2,4),(0.,0.185566103905456,0.371132207810912,0.742264415621824,
1.11073657799851,1.47920874037519,1.84768090275187,2.21615306512855,2.58728527293946,
2.77285137684492,2.95841748075037,3.14398358465583,3.32954968856129,3.7006818963722,
4.06915405874888,4.43762622112556,4.80609838350224,5.17457054587892,5.54570275368984,
5.73126885759529,5.91683496150075),.UNSPECIFIED.);
#16=B_SPLINE_CURVE_WITH_KNOTS('',3,(#385,#386,#387,#388,#389,#390,#391,
#392,#393,#394,#395,#396,#397,#398,#399,#400,#401,#402,#403,#404,#405,#406,
#407,#408,#409,#410,#411,#412,#413,#414,#415,#416,#417,#418,#419,#420,#421,
#422,#423,#424,#425,#426,#427,#428,#429,#430,#431,#432,#433,#434),
 .UNSPECIFIED.,.T.,.F.,(4,2,2,2,2,2,2,2,2,2,2,2,2,2,2,2,2,2,2,2,2,2,2,2,
4),(0.,0.276169146376408,0.552338292752817,1.10467658550563,1.65093839243569,
1.92406929590072,2.19720019936574,2.47033110283077,2.7434620062958,3.28972381322586,
3.84206210597867,4.11823125235508,4.39440039873149,4.6705695451079,4.9467386914843,
5.49907698423712,6.04533879116718,6.3184696946322,6.59160059809723,6.86473150156226,
7.13786240502729,7.68412421195734,8.23646250471016,8.51263165108657,8.78880079746298),
 .UNSPECIFIED.);
#17=PLANE('',#207);
#18=PLANE('',#214);
#19=PLANE('',#221);
#20=PLANE('',#228);
#21=PLANE('',#231);
#22=PLANE('',#232);
#23=CYLINDRICAL_SURFACE('',#205,16.);
#24=CYLINDRICAL_SURFACE('',#212,16.);
#25=CYLINDRICAL_SURFACE('',#219,10.);
#26=CYLINDRICAL_SURFACE('',#223,9.5);
#27=CYLINDRICAL_SURFACE('',#225,15.5);
#28=CYLINDRICAL_SURFACE('',#229,14.);
#29=CYLINDRICAL_SURFACE('',#230,21.);
#30=FACE_BOUND('',#65,.T.);
#31=FACE_BOUND('',#67,.T.);
#32=FACE_BOUND('',#69,.T.);
#33=FACE_BOUND('',#71,.T.);
#34=FACE_BOUND('',#73,.T.);
#35=FACE_BOUND('',#75,.T.);
#36=FACE_BOUND('',#77,.T.);
#37=FACE_BOUND('',#79,.T.);
#38=FACE_BOUND('',#81,.T.);
#39=FACE_BOUND('',#83,.T.);
#40=FACE_BOUND('',#85,.T.);
#41=FACE_BOUND('',#86,.T.);
#42=FACE_BOUND('',#88,.T.);
#43=FACE_BOUND('',#90,.T.);
#44=FACE_BOUND('',#92,.T.);
#45=FACE_BOUND('',#93,.T.);
#46=FACE_BOUND('',#95,.T.);
#47=FACE_BOUND('',#97,.T.);
#48=FACE_OUTER_BOUND('',#64,.T.);
#49=FACE_OUTER_BOUND('',#66,.T.);
#50=FACE_OUTER_BOUND('',#68,.T.);
#51=FACE_OUTER_BOUND('',#70,.T.);
#52=FACE_OUTER_BOUND('',#72,.T.);
#53=FACE_OUTER_BOUND('',#74,.T.);
#54=FACE_OUTER_BOUND('',#76,.T.);
#55=FACE_OUTER_BOUND('',#78,.T.);
#56=FACE_OUTER_BOUND('',#80,.T.);
#57=FACE_OUTER_BOUND('',#82,.T.);
#58=FACE_OUTER_BOUND('',#84,.T.);
#59=FACE_OUTER_BOUND('',#87,.T.);
#60=FACE_OUTER_BOUND('',#89,.T.);
#61=FACE_OUTER_BOUND('',#91,.T.);
#62=FACE_OUTER_BOUND('',#94,.T.);
#63=FACE_OUTER_BOUND('',#96,.T.);
#64=EDGE_LOOP('',(#147));
#65=EDGE_LOOP('',(#148));
#66=EDGE_LOOP('',(#149));
#67=EDGE_LOOP('',(#150));
#68=EDGE_LOOP('',(#151));
#69=EDGE_LOOP('',(#152));
#70=EDGE_LOOP('',(#153));
#71=EDGE_LOOP('',(#154));
#72=EDGE_LOOP('',(#155));
#73=EDGE_LOOP('',(#156));
#74=EDGE_LOOP('',(#157));
#75=EDGE_LOOP('',(#158));
#76=EDGE_LOOP('',(#159));
#77=EDGE_LOOP('',(#160));
#78=EDGE_LOOP('',(#161));
#79=EDGE_LOOP('',(#162));
#80=EDGE_LOOP('',(#163));
#81=EDGE_LOOP('',(#164));
#82=EDGE_LOOP('',(#165));
#83=EDGE_LOOP('',(#166));
#84=EDGE_LOOP('',(#167));
#85=EDGE_LOOP('',(#168));
#86=EDGE_LOOP('',(#169));
#87=EDGE_LOOP('',(#170));
#88=EDGE_LOOP('',(#171));
#89=EDGE_LOOP('',(#172));
#90=EDGE_LOOP('',(#173));
#91=EDGE_LOOP('',(#174));
#92=EDGE_LOOP('',(#175));
#93=EDGE_LOOP('',(#176));
#94=EDGE_LOOP('',(#177));
#95=EDGE_LOOP('',(#178));
#96=EDGE_LOOP('',(#179));
#97=EDGE_LOOP('',(#180));
#98=CIRCLE('',#203,16.);
#99=CIRCLE('',#204,16.5);
#100=CIRCLE('',#206,16.);
#101=CIRCLE('',#208,21.);
#102=CIRCLE('',#210,16.);
#103=CIRCLE('',#211,16.5);
#104=CIRCLE('',#213,16.);
#105=CIRCLE('',#215,21.);
#106=CIRCLE('',#217,10.);
#107=CIRCLE('',#218,10.5);
#108=CIRCLE('',#220,10.);
#109=CIRCLE('',#222,14.);
#110=CIRCLE('',#224,9.5);
#111=CIRCLE('',#226,15.5);
#112=CIRCLE('',#227,15.5);
#113=VERTEX_POINT('',#299);
#114=VERTEX_POINT('',#301);
#115=VERTEX_POINT('',#304);
#116=VERTEX_POINT('',#307);
#117=VERTEX_POINT('',#310);
#118=VERTEX_POINT('',#312);
#119=VERTEX_POINT('',#315);
#120=VERTEX_POINT('',#318);
#121=VERTEX_POINT('',#321);
#122=VERTEX_POINT('',#323);
#123=VERTEX_POINT('',#326);
#124=VERTEX_POINT('',#329);
#125=VERTEX_POINT('',#332);
#126=VERTEX_POINT('',#375);
#127=VERTEX_POINT('',#378);
#128=VERTEX_POINT('',#380);
#129=VERTEX_POINT('',#384);
#130=EDGE_CURVE('',#113,#113,#98,.T.);
#131=EDGE_CURVE('',#114,#114,#99,.T.);
#132=EDGE_CURVE('',#115,#115,#100,.T.);
#133=EDGE_CURVE('',#116,#116,#101,.T.);
#134=EDGE_CURVE('',#117,#117,#102,.T.);
#135=EDGE_CURVE('',#118,#118,#103,.T.);
#136=EDGE_CURVE('',#119,#119,#104,.T.);
#137=EDGE_CURVE('',#120,#120,#105,.T.);
#138=EDGE_CURVE('',#121,#121,#106,.T.);
#139=EDGE_CURVE('',#122,#122,#107,.T.);
#140=EDGE_CURVE('',#123,#123,#108,.T.);
#141=EDGE_CURVE('',#124,#124,#109,.T.);
#142=EDGE_CURVE('',#125,#125,#15,.T.);
#143=EDGE_CURVE('',#126,#126,#110,.T.);
#144=EDGE_CURVE('',#127,#127,#111,.T.);
#145=EDGE_CURVE('',#128,#128,#112,.T.);
#146=EDGE_CURVE('',#129,#129,#16,.T.);
#147=ORIENTED_EDGE('',*,*,#130,.T.);
#148=ORIENTED_EDGE('',*,*,#131,.T.);
#149=ORIENTED_EDGE('',*,*,#132,.T.);
#150=ORIENTED_EDGE('',*,*,#130,.F.);
#151=ORIENTED_EDGE('',*,*,#133,.T.);
#152=ORIENTED_EDGE('',*,*,#131,.F.);
#153=ORIENTED_EDGE('',*,*,#134,.T.);
#154=ORIENTED_EDGE('',*,*,#135,.T.);
#155=ORIENTED_EDGE('',*,*,#136,.F.);
#156=ORIENTED_EDGE('',*,*,#134,.F.);
#157=ORIENTED_EDGE('',*,*,#137,.T.);
#158=ORIENTED_EDGE('',*,*,#135,.F.);
#159=ORIENTED_EDGE('',*,*,#138,.T.);
#160=ORIENTED_EDGE('',*,*,#139,.T.);
#161=ORIENTED_EDGE('',*,*,#140,.T.);
#162=ORIENTED_EDGE('',*,*,#138,.F.);
#163=ORIENTED_EDGE('',*,*,#141,.F.);
#164=ORIENTED_EDGE('',*,*,#139,.F.);
#165=ORIENTED_EDGE('',*,*,#142,.F.);
#166=ORIENTED_EDGE('',*,*,#143,.F.);
#167=ORIENTED_EDGE('',*,*,#144,.F.);
#168=ORIENTED_EDGE('',*,*,#142,.T.);
#169=ORIENTED_EDGE('',*,*,#145,.F.);
#170=ORIENTED_EDGE('',*,*,#140,.F.);
#171=ORIENTED_EDGE('',*,*,#143,.T.);
#172=ORIENTED_EDGE('',*,*,#141,.T.);
#173=ORIENTED_EDGE('',*,*,#146,.F.);
#174=ORIENTED_EDGE('',*,*,#133,.F.);
#175=ORIENTED_EDGE('',*,*,#137,.F.);
#176=ORIENTED_EDGE('',*,*,#146,.T.);
#177=ORIENTED_EDGE('',*,*,#136,.T.);
#178=ORIENTED_EDGE('',*,*,#145,.T.);
#179=ORIENTED_EDGE('',*,*,#132,.F.);
#180=ORIENTED_EDGE('',*,*,#144,.T.);
#181=TOROIDAL_SURFACE('',#202,16.5,0.5);
#182=TOROIDAL_SURFACE('',#209,16.5,0.5);
#183=TOROIDAL_SURFACE('',#216,10.5,0.5);
#184=ADVANCED_FACE('',(#48,#30),#181,.T.);
#185=ADVANCED_FACE('',(#49,#31),#23,.F.);
#186=ADVANCED_FACE('',(#50,#32),#17,.T.);
#187=ADVANCED_FACE('',(#51,#33),#182,.T.);
#188=ADVANCED_FACE('',(#52,#34),#24,.F.);
#189=ADVANCED_FACE('',(#53,#35),#18,.F.);
#190=ADVANCED_FACE('',(#54,#36),#183,.T.);
#191=ADVANCED_FACE('',(#55,#37),#25,.F.);
#192=ADVANCED_FACE('',(#56,#38),#19,.T.);
#193=ADVANCED_FACE('',(#57,#39),#26,.F.);
#194=ADVANCED_FACE('',(#58,#40,#41),#27,.F.);
#195=ADVANCED_FACE('',(#59,#42),#20,.T.);
#196=ADVANCED_FACE('',(#60,#43),#28,.T.);
#197=ADVANCED_FACE('',(#61,#44,#45),#29,.T.);
#198=ADVANCED_FACE('',(#62,#46),#21,.F.);
#199=ADVANCED_FACE('',(#63,#47),#22,.T.);
#200=CLOSED_SHELL('',(#184,#185,#186,#187,#188,#189,#190,#191,#192,#193,
#194,#195,#196,#197,#198,#199));
#201=AXIS2_PLACEMENT_3D('placement',#297,#233,#234);
#202=AXIS2_PLACEMENT_3D('',#298,#235,#236);
#203=AXIS2_PLACEMENT_3D('',#300,#237,#238);
#204=AXIS2_PLACEMENT_3D('',#302,#239,#240);
#205=AXIS2_PLACEMENT_3D('',#303,#241,#242);
#206=AXIS2_PLACEMENT_3D('',#305,#243,#244);
#207=AXIS2_PLACEMENT_3D('',#306,#245,#246);
#208=AXIS2_PLACEMENT_3D('',#308,#247,#248);
#209=AXIS2_PLACEMENT_3D('',#309,#249,#250);
#210=AXIS2_PLACEMENT_3D('',#311,#251,#252);
#211=AXIS2_PLACEMENT_3D('',#313,#253,#254);
#212=AXIS2_PLACEMENT_3D('',#314,#255,#256);
#213=AXIS2_PLACEMENT_3D('',#316,#257,#258);
#214=AXIS2_PLACEMENT_3D('',#317,#259,#260);
#215=AXIS2_PLACEMENT_3D('',#319,#261,#262);
#216=AXIS2_PLACEMENT_3D('',#320,#263,#264);
#217=AXIS2_PLACEMENT_3D('',#322,#265,#266);
#218=AXIS2_PLACEMENT_3D('',#324,#267,#268);
#219=AXIS2_PLACEMENT_3D('',#325,#269,#270);
#220=AXIS2_PLACEMENT_3D('',#327,#271,#272);
#221=AXIS2_PLACEMENT_3D('',#328,#273,#274);
#222=AXIS2_PLACEMENT_3D('',#330,#275,#276);
#223=AXIS2_PLACEMENT_3D('',#331,#277,#278);
#224=AXIS2_PLACEMENT_3D('',#376,#279,#280);
#225=AXIS2_PLACEMENT_3D('',#377,#281,#282);
#226=AXIS2_PLACEMENT_3D('',#379,#283,#284);
#227=AXIS2_PLACEMENT_3D('',#381,#285,#286);
#228=AXIS2_PLACEMENT_3D('',#382,#287,#288);
#229=AXIS2_PLACEMENT_3D('',#383,#289,#290);
#230=AXIS2_PLACEMENT_3D('',#435,#291,#292);
#231=AXIS2_PLACEMENT_3D('',#436,#293,#294);
#232=AXIS2_PLACEMENT_3D('',#437,#295,#296);
#233=DIRECTION('axis',(0.,0.,1.));
#234=DIRECTION('refdir',(1.,0.,0.));
#235=DIRECTION('center_axis',(0.,0.,-1.));
#236=DIRECTION('ref_axis',(-1.,0.,0.));
#237=DIRECTION('center_axis',(0.,0.,-1.));
#238=DIRECTION('ref_axis',(-1.,0.,0.));
#239=DIRECTION('center_axis',(0.,0.,1.));
#240=DIRECTION('ref_axis',(-1.,0.,0.));
#241=DIRECTION('center_axis',(0.,0.,-1.));
#242=DIRECTION('ref_axis',(-1.,0.,0.));
#243=DIRECTION('center_axis',(0.,0.,-1.));
#244=DIRECTION('ref_axis',(-1.,0.,0.));
#245=DIRECTION('center_axis',(0.,0.,1.));
#246=DIRECTION('ref_axis',(1.,0.,0.));
#247=DIRECTION('center_axis',(0.,0.,1.));
#248=DIRECTION('ref_axis',(-1.,0.,0.));
#249=DIRECTION('center_axis',(0.,0.,1.));
#250=DIRECTION('ref_axis',(1.,0.,0.));
#251=DIRECTION('center_axis',(0.,0.,1.));
#252=DIRECTION('ref_axis',(-1.,0.,0.));
#253=DIRECTION('center_axis',(0.,0.,-1.));
#254=DIRECTION('ref_axis',(-1.,0.,0.));
#255=DIRECTION('center_axis',(0.,0.,-1.));
#256=DIRECTION('ref_axis',(-1.,0.,0.));
#257=DIRECTION('center_axis',(0.,0.,-1.));
#258=DIRECTION('ref_axis',(-1.,0.,0.));
#259=DIRECTION('center_axis',(0.,0.,1.));
#260=DIRECTION('ref_axis',(1.,0.,0.));
#261=DIRECTION('center_axis',(0.,0.,-1.));
#262=DIRECTION('ref_axis',(-1.,0.,0.));
#263=DIRECTION('center_axis',(0.,-1.,0.));
#264=DIRECTION('ref_axis',(0.,0.,-1.));
#265=DIRECTION('center_axis',(0.,-1.,0.));
#266=DIRECTION('ref_axis',(-1.,0.,0.));
#267=DIRECTION('center_axis',(0.,1.,0.));
#268=DIRECTION('ref_axis',(-1.,0.,0.));
#269=DIRECTION('center_axis',(0.,-1.,0.));
#270=DIRECTION('ref_axis',(-1.,0.,0.));
#271=DIRECTION('center_axis',(0.,-1.,0.));
#272=DIRECTION('ref_axis',(-1.,0.,0.));
#273=DIRECTION('center_axis',(0.,1.,0.));
#274=DIRECTION('ref_axis',(0.,0.,1.));
#275=DIRECTION('center_axis',(0.,-1.,0.));
#276=DIRECTION('ref_axis',(1.,0.,0.));
#277=DIRECTION('center_axis',(0.,-1.,0.));
#278=DIRECTION('ref_axis',(-1.,0.,0.));
#279=DIRECTION('center_axis',(0.,-1.,0.));
#280=DIRECTION('ref_axis',(-1.,0.,0.));
#281=DIRECTION('center_axis',(0.,0.,1.));
#282=DIRECTION('ref_axis',(1.,0.,0.));
#283=DIRECTION('center_axis',(0.,0.,-1.));
#284=DIRECTION('ref_axis',(1.,0.,0.));
#285=DIRECTION('center_axis',(0.,0.,1.));
#286=DIRECTION('ref_axis',(1.,0.,0.));
#287=DIRECTION('center_axis',(0.,1.,0.));
#288=DIRECTION('ref_axis',(0.,0.,1.));
#289=DIRECTION('center_axis',(0.,-1.,0.));
#290=DIRECTION('ref_axis',(1.,0.,0.));
#291=DIRECTION('center_axis',(0.,0.,1.));
#292=DIRECTION('ref_axis',(-1.,0.,0.));
#293=DIRECTION('center_axis',(0.,0.,1.));
#294=DIRECTION('ref_axis',(1.,0.,0.));
#295=DIRECTION('center_axis',(0.,0.,1.));
#296=DIRECTION('ref_axis',(1.,0.,0.));
#297=CARTESIAN_POINT('',(0.,0.,0.));
#298=CARTESIAN_POINT('Origin',(0.,0.,38.5));
#299=CARTESIAN_POINT('',(16.,-1.95943487863577E-15,38.5));
#300=CARTESIAN_POINT('Origin',(0.,0.,38.5));
#301=CARTESIAN_POINT('',(16.5,2.02066721859313E-15,39.));
#302=CARTESIAN_POINT('Origin',(0.,0.,39.));
#303=CARTESIAN_POINT('Origin',(0.,0.,39.));
#304=CARTESIAN_POINT('',(16.,1.95943487863577E-15,17.));
#305=CARTESIAN_POINT('Origin',(0.,0.,17.));
#306=CARTESIAN_POINT('Origin',(-9.19216697549299E-16,0.,39.));
#307=CARTESIAN_POINT('',(21.,2.57175827820944E-15,39.));
#308=CARTESIAN_POINT('Origin',(0.,0.,39.));
#309=CARTESIAN_POINT('Origin',(0.,0.,-38.5));
#310=CARTESIAN_POINT('',(16.,1.95943487863577E-15,-38.5));
#311=CARTESIAN_POINT('Origin',(0.,0.,-38.5));
#312=CARTESIAN_POINT('',(16.5,-2.02066721859313E-15,-39.));
#313=CARTESIAN_POINT('Origin',(0.,0.,-39.));
#314=CARTESIAN_POINT('Origin',(0.,0.,-39.));
#315=CARTESIAN_POINT('',(16.,1.95943487863577E-15,-17.));
#316=CARTESIAN_POINT('Origin',(0.,0.,-17.));
#317=CARTESIAN_POINT('Origin',(-9.19216697549299E-16,0.,-39.));
#318=CARTESIAN_POINT('',(21.,2.57175827820944E-15,-39.));
#319=CARTESIAN_POINT('Origin',(0.,0.,-39.));
#320=CARTESIAN_POINT('Origin',(0.,32.5,0.));
#321=CARTESIAN_POINT('',(10.,32.5,1.22464679914735E-15));
#322=CARTESIAN_POINT('Origin',(0.,32.5,0.));
#323=CARTESIAN_POINT('',(10.5,33.,-1.28587913910472E-15));
#324=CARTESIAN_POINT('Origin',(0.,33.,0.));
#325=CARTESIAN_POINT('Origin',(0.,33.,0.));
#326=CARTESIAN_POINT('',(10.,17.,-1.22464679914735E-15));
#327=CARTESIAN_POINT('Origin',(0.,17.,0.));
#328=CARTESIAN_POINT('Origin',(6.71553090674409E-16,33.,0.));
#329=CARTESIAN_POINT('',(-14.,33.,1.71450551880629E-15));
#330=CARTESIAN_POINT('Origin',(0.,33.,0.));
#331=CARTESIAN_POINT('Origin',(0.,17.,0.));
#332=CARTESIAN_POINT('',(9.5,12.2474487139159,2.77555756156289E-16));
#333=CARTESIAN_POINT('Ctrl Pts',(9.5,12.2474487139159,2.77555756156289E-16));
#334=CARTESIAN_POINT('Ctrl Pts',(9.5,12.2474487139159,-0.618553679684853));
#335=CARTESIAN_POINT('Ctrl Pts',(9.43870191568805,12.2957403506603,-1.24971843544023));
#336=CARTESIAN_POINT('Ctrl Pts',(9.18937287759989,12.4831787035614,-2.49124794982317));
#337=CARTESIAN_POINT('Ctrl Pts',(9.0014767509171,12.6218502248061,-3.10171147583707));
#338=CARTESIAN_POINT('Ctrl Pts',(8.26853223407804,13.1237211112755,-4.84461023205727));
#339=CARTESIAN_POINT('Ctrl Pts',(7.54570846877391,13.5704389369896,-5.88932037377049));
#340=CARTESIAN_POINT('Ctrl Pts',(5.89525635493394,14.3641365563384,-7.53977248761047));
#341=CARTESIAN_POINT('Ctrl Pts',(4.84896957759454,14.770885237741,-8.26669348759663));
#342=CARTESIAN_POINT('Ctrl Pts',(2.51643385057889,15.34141843269,-9.24761016228498));
#343=CARTESIAN_POINT('Ctrl Pts',(1.22824054125561,15.5,-9.5));
#344=CARTESIAN_POINT('Ctrl Pts',(-1.22824054125561,15.5,-9.5));
#345=CARTESIAN_POINT('Ctrl Pts',(-2.51643385057889,15.34141843269,-9.24761016228498));
#346=CARTESIAN_POINT('Ctrl Pts',(-4.84896957759454,14.770885237741,-8.26669348759663));
#347=CARTESIAN_POINT('Ctrl Pts',(-5.89525635493394,14.3641365563384,-7.53977248761047));
#348=CARTESIAN_POINT('Ctrl Pts',(-7.54570846877391,13.5704389369896,-5.88932037377049));
#349=CARTESIAN_POINT('Ctrl Pts',(-8.26853223407804,13.1237211112755,-4.84461023205727));
#350=CARTESIAN_POINT('Ctrl Pts',(-9.0014767509171,12.6218502248061,-3.10171147583707));
#351=CARTESIAN_POINT('Ctrl Pts',(-9.18937287759989,12.4831787035614,-2.49124794982317));
#352=CARTESIAN_POINT('Ctrl Pts',(-9.43870191568805,12.2957403506603,-1.24971843544023));
#353=CARTESIAN_POINT('Ctrl Pts',(-9.5,12.2474487139159,-0.618553679684853));
#354=CARTESIAN_POINT('Ctrl Pts',(-9.5,12.2474487139159,0.618553679684853));
#355=CARTESIAN_POINT('Ctrl Pts',(-9.43870191568805,12.2957403506603,1.24971843544024));
#356=CARTESIAN_POINT('Ctrl Pts',(-9.18937287759989,12.4831787035614,2.49124794982317));
#357=CARTESIAN_POINT('Ctrl Pts',(-9.0014767509171,12.6218502248061,3.10171147583707));
#358=CARTESIAN_POINT('Ctrl Pts',(-8.26853223407804,13.1237211112755,4.84461023205727));
#359=CARTESIAN_POINT('Ctrl Pts',(-7.54570846877391,13.5704389369896,5.88932037377049));
#360=CARTESIAN_POINT('Ctrl Pts',(-5.89525635493394,14.3641365563384,7.53977248761047));
#361=CARTESIAN_POINT('Ctrl Pts',(-4.84896957759454,14.770885237741,8.26669348759663));
#362=CARTESIAN_POINT('Ctrl Pts',(-2.51643385057889,15.34141843269,9.24761016228498));
#363=CARTESIAN_POINT('Ctrl Pts',(-1.22824054125561,15.5,9.5));
#364=CARTESIAN_POINT('Ctrl Pts',(1.2282405412556,15.5,9.5));
#365=CARTESIAN_POINT('Ctrl Pts',(2.51643385057889,15.34141843269,9.24761016228498));
#366=CARTESIAN_POINT('Ctrl Pts',(4.84896957759453,14.770885237741,8.26669348759664));
#367=CARTESIAN_POINT('Ctrl Pts',(5.89525635493394,14.3641365563384,7.53977248761047));
#368=CARTESIAN_POINT('Ctrl Pts',(7.54570846877391,13.5704389369896,5.88932037377049));
#369=CARTESIAN_POINT('Ctrl Pts',(8.26853223407804,13.1237211112755,4.84461023205727));
#370=CARTESIAN_POINT('Ctrl Pts',(9.0014767509171,12.6218502248061,3.10171147583707));
#371=CARTESIAN_POINT('Ctrl Pts',(9.18937287759989,12.4831787035614,2.49124794982317));
#372=CARTESIAN_POINT('Ctrl Pts',(9.43870191568805,12.2957403506603,1.24971843544023));
#373=CARTESIAN_POINT('Ctrl Pts',(9.5,12.2474487139159,0.618553679684852));
#374=CARTESIAN_POINT('Ctrl Pts',(9.5,12.2474487139159,2.77555756156289E-16));
#375=CARTESIAN_POINT('',(9.5,17.,-1.16341445918999E-15));
#376=CARTESIAN_POINT('Origin',(0.,17.,0.));
#377=CARTESIAN_POINT('Origin',(0.,0.,-17.));
#378=CARTESIAN_POINT('',(-15.5,1.8982025386784E-15,17.));
#379=CARTESIAN_POINT('Origin',(0.,0.,17.));
#380=CARTESIAN_POINT('',(-15.5,1.8982025386784E-15,-17.));
#381=CARTESIAN_POINT('Origin',(0.,0.,-17.));
#382=CARTESIAN_POINT('Origin',(-4.72128241470665E-16,17.,0.));
#383=CARTESIAN_POINT('Origin',(0.,33.,0.));
#384=CARTESIAN_POINT('',(14.,15.6524758424985,2.77555756156289E-16));
#385=CARTESIAN_POINT('Ctrl Pts',(14.,15.6524758424985,2.77555756156289E-16));
#386=CARTESIAN_POINT('Ctrl Pts',(14.,15.6524758424985,0.920563821254694));
#387=CARTESIAN_POINT('Ctrl Pts',(13.9079709270018,15.7362060774154,1.85548291409113));
#388=CARTESIAN_POINT('Ctrl Pts',(13.5376451658627,16.0559023346276,3.68871741445907));
#389=CARTESIAN_POINT('Ctrl Pts',(13.2595709869614,16.2908630614729,4.58725293183021));
#390=CARTESIAN_POINT('Ctrl Pts',(12.1788196484699,17.13213277252,7.14933456297585));
#391=CARTESIAN_POINT('Ctrl Pts',(11.1172864051133,17.8693222569279,8.68170346811005));
#392=CARTESIAN_POINT('Ctrl Pts',(8.69510086005358,19.1640348907579,11.1038890131698));
#393=CARTESIAN_POINT('Ctrl Pts',(7.1598110105688,19.8217106866556,12.1742763014395));
#394=CARTESIAN_POINT('Ctrl Pts',(4.58317573931173,20.5130514504113,13.261352865226));
#395=CARTESIAN_POINT('Ctrl Pts',(3.67910535269172,20.6959429159985,13.5403596231428));
#396=CARTESIAN_POINT('Ctrl Pts',(1.84276008729498,20.9394867330718,13.9097588112589));
#397=CARTESIAN_POINT('Ctrl Pts',(0.910436344883427,21.,14.));
#398=CARTESIAN_POINT('Ctrl Pts',(-0.910436344883425,21.,14.));
#399=CARTESIAN_POINT('Ctrl Pts',(-1.84276008729498,20.9394867330718,13.9097588112589));
#400=CARTESIAN_POINT('Ctrl Pts',(-3.67910535269172,20.6959429159985,13.5403596231428));
#401=CARTESIAN_POINT('Ctrl Pts',(-4.58317573931173,20.5130514504113,13.261352865226));
#402=CARTESIAN_POINT('Ctrl Pts',(-7.1598110105688,19.8217106866556,12.1742763014395));
#403=CARTESIAN_POINT('Ctrl Pts',(-8.69510086005358,19.1640348907579,11.1038890131698));
#404=CARTESIAN_POINT('Ctrl Pts',(-11.1172864051133,17.8693222569279,8.68170346811005));
#405=CARTESIAN_POINT('Ctrl Pts',(-12.1788196484699,17.13213277252,7.14933456297585));
#406=CARTESIAN_POINT('Ctrl Pts',(-13.2595709869614,16.2908630614729,4.58725293183021));
#407=CARTESIAN_POINT('Ctrl Pts',(-13.5376451658627,16.0559023346276,3.68871741445907));
#408=CARTESIAN_POINT('Ctrl Pts',(-13.9079709270018,15.7362060774154,1.85548291409113));
#409=CARTESIAN_POINT('Ctrl Pts',(-14.,15.6524758424985,0.920563821254694));
#410=CARTESIAN_POINT('Ctrl Pts',(-14.,15.6524758424985,-0.920563821254694));
#411=CARTESIAN_POINT('Ctrl Pts',(-13.9079709270018,15.7362060774154,-1.85548291409113));
#412=CARTESIAN_POINT('Ctrl Pts',(-13.5376451658627,16.0559023346276,-3.68871741445907));
#413=CARTESIAN_POINT('Ctrl Pts',(-13.2595709869614,16.2908630614729,-4.58725293183021));
#414=CARTESIAN_POINT('Ctrl Pts',(-12.1788196484699,17.13213277252,-7.14933456297585));
#415=CARTESIAN_POINT('Ctrl Pts',(-11.1172864051133,17.8693222569279,-8.68170346811005));
#416=CARTESIAN_POINT('Ctrl Pts',(-8.69510086005358,19.1640348907579,-11.1038890131698));
#417=CARTESIAN_POINT('Ctrl Pts',(-7.1598110105688,19.8217106866556,-12.1742763014395));
#418=CARTESIAN_POINT('Ctrl Pts',(-4.58317573931173,20.5130514504113,-13.261352865226));
#419=CARTESIAN_POINT('Ctrl Pts',(-3.67910535269172,20.6959429159985,-13.5403596231428));
#420=CARTESIAN_POINT('Ctrl Pts',(-1.84276008729498,20.9394867330718,-13.9097588112589));
#421=CARTESIAN_POINT('Ctrl Pts',(-0.910436344883427,21.,-14.));
#422=CARTESIAN_POINT('Ctrl Pts',(0.910436344883422,21.,-14.));
#423=CARTESIAN_POINT('Ctrl Pts',(1.84276008729498,20.9394867330718,-13.9097588112589));
#424=CARTESIAN_POINT('Ctrl Pts',(3.67910535269172,20.6959429159985,-13.5403596231428));
#425=CARTESIAN_POINT('Ctrl Pts',(4.58317573931172,20.5130514504113,-13.261352865226));
#426=CARTESIAN_POINT('Ctrl Pts',(7.1598110105688,19.8217106866556,-12.1742763014395));
#427=CARTESIAN_POINT('Ctrl Pts',(8.69510086005358,19.1640348907579,-11.1038890131698));
#428=CARTESIAN_POINT('Ctrl Pts',(11.1172864051133,17.8693222569279,-8.68170346811005));
#429=CARTESIAN_POINT('Ctrl Pts',(12.1788196484699,17.13213277252,-7.14933456297585));
#430=CARTESIAN_POINT('Ctrl Pts',(13.2595709869614,16.2908630614729,-4.58725293183021));
#431=CARTESIAN_POINT('Ctrl Pts',(13.5376451658627,16.0559023346276,-3.68871741445907));
#432=CARTESIAN_POINT('Ctrl Pts',(13.9079709270018,15.7362060774154,-1.85548291409113));
#433=CARTESIAN_POINT('Ctrl Pts',(14.,15.6524758424985,-0.920563821254692));
#434=CARTESIAN_POINT('Ctrl Pts',(14.,15.6524758424985,0.));
#435=CARTESIAN_POINT('Origin',(0.,0.,0.));
#436=CARTESIAN_POINT('Origin',(-1.55106502066776E-15,-2.31296463463574E-16,
-17.));
#437=CARTESIAN_POINT('Origin',(-1.55106502066776E-15,-2.31296463463574E-16,
17.));
#438=UNCERTAINTY_MEASURE_WITH_UNIT(LENGTH_MEASURE(0.01),#442,
'DISTANCE_ACCURACY_VALUE',
'Maximum model space distance between geometric entities at asserted c
onnectivities');
#439=UNCERTAINTY_MEASURE_WITH_UNIT(LENGTH_MEASURE(1.E-6),#442,
'DISTANCE_ACCURACY_VALUE',
'Maximum model space distance between geometric entities at asserted c
onnectivities');
#440=(
GEOMETRIC_REPRESENTATION_CONTEXT(3)
GLOBAL_UNCERTAINTY_ASSIGNED_CONTEXT((#438))
GLOBAL_UNIT_ASSIGNED_CONTEXT((#442,#445,#443))
REPRESENTATION_CONTEXT('','3D')
);
#441=(
GEOMETRIC_REPRESENTATION_CONTEXT(3)
GLOBAL_UNCERTAINTY_ASSIGNED_CONTEXT((#439))
GLOBAL_UNIT_ASSIGNED_CONTEXT((#442,#445,#443))
REPRESENTATION_CONTEXT('','3D')
);
#442=(
LENGTH_UNIT()
NAMED_UNIT(*)
SI_UNIT(.MILLI.,.METRE.)
);
#443=(
NAMED_UNIT(*)
SI_UNIT($,.STERADIAN.)
SOLID_ANGLE_UNIT()
);
#444=DIMENSIONAL_EXPONENTS(0.,0.,0.,0.,0.,0.,0.);
#445=(
CONVERSION_BASED_UNIT('degree',#447)
NAMED_UNIT(#444)
PLANE_ANGLE_UNIT()
);
#446=(
NAMED_UNIT(*)
PLANE_ANGLE_UNIT()
SI_UNIT($,.RADIAN.)
);
#447=PLANE_ANGLE_MEASURE_WITH_UNIT(PLANE_ANGLE_MEASURE(0.01745329252),#446);
#448=SHAPE_DEFINITION_REPRESENTATION(#449,#450);
#449=PRODUCT_DEFINITION_SHAPE('',$,#452);
#450=SHAPE_REPRESENTATION('',(#201),#440);
#451=PRODUCT_DEFINITION_CONTEXT('part definition',#456,'design');
#452=PRODUCT_DEFINITION('TR40032C','TR40032C',#453,#451);
#453=PRODUCT_DEFINITION_FORMATION('',$,#458);
#454=PRODUCT_RELATED_PRODUCT_CATEGORY('TR40032C','TR40032C',(#458));
#455=APPLICATION_PROTOCOL_DEFINITION('international standard',
'automotive_design',2009,#456);
#456=APPLICATION_CONTEXT(
'Core Data for Automotive Mechanical Design Process');
#457=PRODUCT_CONTEXT('part definition',#456,'mechanical');
#458=PRODUCT('TR40032C','TR40032C',$,(#457));
#459=PRESENTATION_STYLE_ASSIGNMENT((#460));
#460=SURFACE_STYLE_USAGE(.BOTH.,#461);
#461=SURFACE_SIDE_STYLE('',(#462));
#462=SURFACE_STYLE_FILL_AREA(#463);
#463=FILL_AREA_STYLE('',(#464));
#464=FILL_AREA_STYLE_COLOUR('',#465);
#465=COLOUR_RGB('',0.8,0.8,0.8);
ENDSEC;
END-ISO-10303-21;
