ISO-10303-21;
HEADER;
/* Generated by software containing ST-Developer
 * from STEP Tools, Inc. (www.steptools.com) 
 */

FILE_DESCRIPTION(
/* description */ (''),
/* implementation_level */ '2;1');

FILE_NAME(
/* name */ 
'Q:\\Ric010\\FF7\\FIPlastiCAD\\FIP\\Lavoro\\PVC Fittings\\PVC Fittings
 STEP\\TRIV\\TRIV110090.ipt.stp',
/* time_stamp */ '2013-10-01T14:56:58+02:00',
/* author */ ('bfaro'),
/* organization */ (''),
/* preprocessor_version */ 'ST-DEVELOPER v15.2',
/* originating_system */ 'Autodesk Inventor 2014',
/* authorisation */ '');

FILE_SCHEMA (('AUTOMOTIVE_DESIGN { 1 0 10303 214 3 1 1 }'));
ENDSEC;

DATA;
#10=SHAPE_REPRESENTATION_RELATIONSHIP('SRR','None',#451,#11);
#11=ADVANCED_BREP_SHAPE_REPRESENTATION($,(#181),#442);
#12=STYLED_ITEM($,(#459),#181);
#13=PLANE($,#202);
#14=PLANE($,#203);
#15=PLANE($,#204);
#16=PLANE($,#205);
#17=PLANE($,#206);
#18=PLANE($,#207);
#19=FACE_BOUND($,#53,.T.);
#20=FACE_BOUND($,#55,.T.);
#21=FACE_BOUND($,#56,.T.);
#22=FACE_BOUND($,#58,.T.);
#23=FACE_BOUND($,#59,.T.);
#24=FACE_BOUND($,#61,.T.);
#25=FACE_BOUND($,#63,.T.);
#26=FACE_BOUND($,#65,.T.);
#27=FACE_BOUND($,#67,.T.);
#28=FACE_BOUND($,#69,.T.);
#29=FACE_BOUND($,#70,.T.);
#30=FACE_BOUND($,#71,.T.);
#31=FACE_BOUND($,#73,.T.);
#32=FACE_BOUND($,#75,.T.);
#33=FACE_BOUND($,#76,.T.);
#34=FACE_BOUND($,#77,.T.);
#35=FACE_BOUND($,#78,.T.);
#36=FACE_BOUND($,#79,.T.);
#37=B_SPLINE_CURVE_WITH_KNOTS($,3,(#265,#266,#267,#268,#269,#270,#271,#272,
#273,#274,#275,#276,#277,#278,#279,#280,#281,#282,#283,#284,#285,#286,#287,
#288,#289,#290,#291,#292,#293,#294,#295,#296,#297,#298,#299,#300,#301,#302,
#303,#304,#305,#306,#307,#308,#309,#310,#311,#312,#313,#314,#315,#316,#317,
#318,#319,#320,#321,#322,#323,#324,#325,#326,#327,#328,#329,#330),
 .UNSPECIFIED.,.T.,.F.,(4,2,2,2,2,2,2,2,2,2,2,2,2,2,2,2,2,2,2,2,2,2,2,2,
2,2,2,2,2,2,2,2,4),(0.,0.886100133626505,1.77220026725301,2.65830040087952,
3.54440053450602,4.4003463289894,5.25629212347278,6.11223791795615,6.96818371243953,
7.82412950692291,8.68007530140629,9.53602109588967,10.391966890373,11.2780670239995,
12.1641671576261,13.0502672912526,13.9363674248791,14.8224675584801,15.7085676920811,
16.5946678256822,17.4807679592832,18.336713753761,19.1926595482388,20.0486053427166,
20.9045511371944,21.7604969316773,22.6164427261602,23.4723885206432,24.3283343151261,
25.2144344487219,26.1005345823176,26.9866347159133,27.8727348495091),
 .UNSPECIFIED.);
#38=B_SPLINE_CURVE_WITH_KNOTS($,3,(#343,#344,#345,#346,#347,#348,#349,#350,
#351,#352,#353,#354,#355,#356,#357,#358,#359,#360),.UNSPECIFIED.,.F.,.F.,
(4,2,2,2,2,2,2,2,4),(17.7090848074566,18.836390735809,19.9636966641613,
21.0910025925137,22.218308520866,23.3046381934063,24.3909678659467,25.477297538487,
26.5636272110273),.UNSPECIFIED.);
#39=B_SPLINE_CURVE_WITH_KNOTS($,3,(#362,#363,#364,#365,#366,#367,#368,#369,
#370,#371,#372,#373,#374,#375,#376,#377,#378,#379),.UNSPECIFIED.,.F.,.F.,
(4,2,2,2,2,2,2,2,4),(-17.7090848074566,-16.581778879092,-15.4544729507273,
-14.3271670223626,-13.199861093998,-12.1135314214305,-11.0272017488631,
-9.9408720762957,-8.85454240372828),.UNSPECIFIED.);
#40=B_SPLINE_CURVE_WITH_KNOTS($,3,(#381,#382,#383,#384,#385,#386,#387,#388,
#389,#390,#391,#392,#393,#394,#395,#396,#397,#398),.UNSPECIFIED.,.F.,.F.,
(4,2,2,2,2,2,2,2,4),(26.5636272108697,27.6499568834371,28.7362865560045,
29.8226162285719,30.9089459011394,32.036251829504,33.1635577578687,34.2908636862334,
35.418169614598),.UNSPECIFIED.);
#41=B_SPLINE_CURVE_WITH_KNOTS($,3,(#399,#400,#401,#402,#403,#404,#405,#406,
#407,#408,#409,#410,#411,#412,#413,#414,#415,#416),.UNSPECIFIED.,.F.,.F.,
(4,2,2,2,2,2,2,2,4),(-8.8545424035707,-7.7682127310304,-6.68188305849009,
-5.59555338594979,-4.50922371340949,-3.38191778505713,-2.25461185670478,
-1.12730592835243,-7.8159700933611E-014),.UNSPECIFIED.);
#42=FACE_OUTER_BOUND($,#52,.T.);
#43=FACE_OUTER_BOUND($,#54,.T.);
#44=FACE_OUTER_BOUND($,#57,.T.);
#45=FACE_OUTER_BOUND($,#60,.T.);
#46=FACE_OUTER_BOUND($,#62,.T.);
#47=FACE_OUTER_BOUND($,#64,.T.);
#48=FACE_OUTER_BOUND($,#66,.T.);
#49=FACE_OUTER_BOUND($,#68,.T.);
#50=FACE_OUTER_BOUND($,#72,.T.);
#51=FACE_OUTER_BOUND($,#74,.T.);
#52=EDGE_LOOP($,(#126));
#53=EDGE_LOOP($,(#127));
#54=EDGE_LOOP($,(#128));
#55=EDGE_LOOP($,(#129));
#56=EDGE_LOOP($,(#130));
#57=EDGE_LOOP($,(#131));
#58=EDGE_LOOP($,(#132));
#59=EDGE_LOOP($,(#133,#134,#135,#136));
#60=EDGE_LOOP($,(#137));
#61=EDGE_LOOP($,(#138));
#62=EDGE_LOOP($,(#139,#140,#141,#142));
#63=EDGE_LOOP($,(#143));
#64=EDGE_LOOP($,(#144));
#65=EDGE_LOOP($,(#145));
#66=EDGE_LOOP($,(#146));
#67=EDGE_LOOP($,(#147));
#68=EDGE_LOOP($,(#148));
#69=EDGE_LOOP($,(#149));
#70=EDGE_LOOP($,(#150));
#71=EDGE_LOOP($,(#151));
#72=EDGE_LOOP($,(#152));
#73=EDGE_LOOP($,(#153));
#74=EDGE_LOOP($,(#154));
#75=EDGE_LOOP($,(#155));
#76=EDGE_LOOP($,(#156));
#77=EDGE_LOOP($,(#157));
#78=EDGE_LOOP($,(#158));
#79=EDGE_LOOP($,(#159));
#80=CIRCLE($,#184,43.);
#81=CIRCLE($,#186,53.);
#82=CIRCLE($,#187,53.);
#83=CIRCLE($,#189,66.5);
#84=CIRCLE($,#190,66.5);
#85=CIRCLE($,#192,55.);
#86=CIRCLE($,#193,55.);
#87=CIRCLE($,#195,54.5);
#88=CIRCLE($,#197,55.);
#89=CIRCLE($,#198,55.);
#90=CIRCLE($,#200,45.);
#91=CIRCLE($,#201,45.);
#92=VERTEX_POINT($,#262);
#93=VERTEX_POINT($,#264);
#94=VERTEX_POINT($,#332);
#95=VERTEX_POINT($,#334);
#96=VERTEX_POINT($,#337);
#97=VERTEX_POINT($,#339);
#98=VERTEX_POINT($,#341);
#99=VERTEX_POINT($,#342);
#100=VERTEX_POINT($,#361);
#101=VERTEX_POINT($,#380);
#102=VERTEX_POINT($,#418);
#103=VERTEX_POINT($,#420);
#104=VERTEX_POINT($,#423);
#105=VERTEX_POINT($,#426);
#106=VERTEX_POINT($,#428);
#107=VERTEX_POINT($,#431);
#108=VERTEX_POINT($,#433);
#109=EDGE_CURVE($,#92,#92,#80,.T.);
#110=EDGE_CURVE($,#93,#93,#37,.T.);
#111=EDGE_CURVE($,#94,#94,#81,.T.);
#112=EDGE_CURVE($,#95,#95,#82,.T.);
#113=EDGE_CURVE($,#96,#96,#83,.T.);
#114=EDGE_CURVE($,#97,#97,#84,.T.);
#115=EDGE_CURVE($,#98,#99,#38,.T.);
#116=EDGE_CURVE($,#98,#100,#39,.T.);
#117=EDGE_CURVE($,#100,#101,#40,.T.);
#118=EDGE_CURVE($,#99,#101,#41,.T.);
#119=EDGE_CURVE($,#102,#102,#85,.T.);
#120=EDGE_CURVE($,#103,#103,#86,.T.);
#121=EDGE_CURVE($,#104,#104,#87,.T.);
#122=EDGE_CURVE($,#105,#105,#88,.T.);
#123=EDGE_CURVE($,#106,#106,#89,.T.);
#124=EDGE_CURVE($,#107,#107,#90,.T.);
#125=EDGE_CURVE($,#108,#108,#91,.T.);
#126=ORIENTED_EDGE($,*,*,#109,.F.);
#127=ORIENTED_EDGE($,*,*,#110,.F.);
#128=ORIENTED_EDGE($,*,*,#111,.F.);
#129=ORIENTED_EDGE($,*,*,#112,.F.);
#130=ORIENTED_EDGE($,*,*,#110,.T.);
#131=ORIENTED_EDGE($,*,*,#113,.F.);
#132=ORIENTED_EDGE($,*,*,#114,.T.);
#133=ORIENTED_EDGE($,*,*,#115,.F.);
#134=ORIENTED_EDGE($,*,*,#116,.T.);
#135=ORIENTED_EDGE($,*,*,#117,.T.);
#136=ORIENTED_EDGE($,*,*,#118,.F.);
#137=ORIENTED_EDGE($,*,*,#119,.T.);
#138=ORIENTED_EDGE($,*,*,#120,.F.);
#139=ORIENTED_EDGE($,*,*,#116,.F.);
#140=ORIENTED_EDGE($,*,*,#115,.T.);
#141=ORIENTED_EDGE($,*,*,#118,.T.);
#142=ORIENTED_EDGE($,*,*,#117,.F.);
#143=ORIENTED_EDGE($,*,*,#121,.F.);
#144=ORIENTED_EDGE($,*,*,#122,.T.);
#145=ORIENTED_EDGE($,*,*,#123,.F.);
#146=ORIENTED_EDGE($,*,*,#124,.T.);
#147=ORIENTED_EDGE($,*,*,#125,.F.);
#148=ORIENTED_EDGE($,*,*,#114,.F.);
#149=ORIENTED_EDGE($,*,*,#120,.T.);
#150=ORIENTED_EDGE($,*,*,#112,.T.);
#151=ORIENTED_EDGE($,*,*,#119,.F.);
#152=ORIENTED_EDGE($,*,*,#113,.T.);
#153=ORIENTED_EDGE($,*,*,#122,.F.);
#154=ORIENTED_EDGE($,*,*,#121,.T.);
#155=ORIENTED_EDGE($,*,*,#124,.F.);
#156=ORIENTED_EDGE($,*,*,#111,.T.);
#157=ORIENTED_EDGE($,*,*,#123,.T.);
#158=ORIENTED_EDGE($,*,*,#109,.T.);
#159=ORIENTED_EDGE($,*,*,#125,.T.);
#160=CYLINDRICAL_SURFACE($,#183,43.);
#161=CYLINDRICAL_SURFACE($,#185,53.);
#162=CYLINDRICAL_SURFACE($,#188,66.5);
#163=CYLINDRICAL_SURFACE($,#191,55.);
#164=CYLINDRICAL_SURFACE($,#194,54.5);
#165=CYLINDRICAL_SURFACE($,#196,55.);
#166=CYLINDRICAL_SURFACE($,#199,44.9999999999914);
#167=ADVANCED_FACE($,(#42,#19),#160,.F.);
#168=ADVANCED_FACE($,(#43,#20,#21),#161,.F.);
#169=ADVANCED_FACE($,(#44,#22,#23),#162,.T.);
#170=ADVANCED_FACE($,(#45,#24),#163,.F.);
#171=ADVANCED_FACE($,(#46,#25),#164,.T.);
#172=ADVANCED_FACE($,(#47,#26),#165,.F.);
#173=ADVANCED_FACE($,(#48,#27),#166,.F.);
#174=ADVANCED_FACE($,(#49,#28),#13,.T.);
#175=ADVANCED_FACE($,(#29,#30),#14,.T.);
#176=ADVANCED_FACE($,(#50,#31),#15,.T.);
#177=ADVANCED_FACE($,(#51,#32),#16,.T.);
#178=ADVANCED_FACE($,(#33,#34),#17,.T.);
#179=ADVANCED_FACE($,(#35,#36),#18,.T.);
#180=CLOSED_SHELL($,(#167,#168,#169,#170,#171,#172,#173,#174,#175,#176,
#177,#178,#179));
#181=MANIFOLD_SOLID_BREP('Solido1',#180);
#182=AXIS2_PLACEMENT_3D('placement',#260,#208,#209);
#183=AXIS2_PLACEMENT_3D($,#261,#210,#211);
#184=AXIS2_PLACEMENT_3D($,#263,#212,#213);
#185=AXIS2_PLACEMENT_3D($,#331,#214,#215);
#186=AXIS2_PLACEMENT_3D($,#333,#216,#217);
#187=AXIS2_PLACEMENT_3D($,#335,#218,#219);
#188=AXIS2_PLACEMENT_3D($,#336,#220,#221);
#189=AXIS2_PLACEMENT_3D($,#338,#222,#223);
#190=AXIS2_PLACEMENT_3D($,#340,#224,#225);
#191=AXIS2_PLACEMENT_3D($,#417,#226,#227);
#192=AXIS2_PLACEMENT_3D($,#419,#228,#229);
#193=AXIS2_PLACEMENT_3D($,#421,#230,#231);
#194=AXIS2_PLACEMENT_3D($,#422,#232,#233);
#195=AXIS2_PLACEMENT_3D($,#424,#234,#235);
#196=AXIS2_PLACEMENT_3D($,#425,#236,#237);
#197=AXIS2_PLACEMENT_3D($,#427,#238,#239);
#198=AXIS2_PLACEMENT_3D($,#429,#240,#241);
#199=AXIS2_PLACEMENT_3D($,#430,#242,#243);
#200=AXIS2_PLACEMENT_3D($,#432,#244,#245);
#201=AXIS2_PLACEMENT_3D($,#434,#246,#247);
#202=AXIS2_PLACEMENT_3D($,#435,#248,#249);
#203=AXIS2_PLACEMENT_3D($,#436,#250,#251);
#204=AXIS2_PLACEMENT_3D($,#437,#252,#253);
#205=AXIS2_PLACEMENT_3D($,#438,#254,#255);
#206=AXIS2_PLACEMENT_3D($,#439,#256,#257);
#207=AXIS2_PLACEMENT_3D($,#440,#258,#259);
#208=DIRECTION('axis',(0.,0.,1.));
#209=DIRECTION('refdir',(1.,0.,0.));
#210=DIRECTION('center_axis',(-1.,0.,-4.48966412307998E-011));
#211=DIRECTION('ref_axis',(-4.48966412307998E-011,0.,1.));
#212=DIRECTION('center_axis',(-1.,0.,-4.489664E-011));
#213=DIRECTION('ref_axis',(-4.48966412307998E-011,0.,1.));
#214=DIRECTION('center_axis',(0.,0.,-1.));
#215=DIRECTION('ref_axis',(-1.,0.,0.));
#216=DIRECTION('center_axis',(0.,0.,-1.));
#217=DIRECTION('ref_axis',(-1.,0.,0.));
#218=DIRECTION('center_axis',(0.,0.,1.));
#219=DIRECTION('ref_axis',(-1.,0.,0.));
#220=DIRECTION('center_axis',(0.,0.,1.));
#221=DIRECTION('ref_axis',(1.,0.,0.));
#222=DIRECTION('center_axis',(0.,0.,1.));
#223=DIRECTION('ref_axis',(1.,0.,0.));
#224=DIRECTION('center_axis',(0.,0.,1.));
#225=DIRECTION('ref_axis',(1.,0.,0.));
#226=DIRECTION('center_axis',(0.,0.,1.));
#227=DIRECTION('ref_axis',(1.,0.,0.));
#228=DIRECTION('center_axis',(0.,0.,1.));
#229=DIRECTION('ref_axis',(1.,0.,0.));
#230=DIRECTION('center_axis',(0.,0.,1.));
#231=DIRECTION('ref_axis',(1.,0.,0.));
#232=DIRECTION('center_axis',(1.,0.,4.489664E-011));
#233=DIRECTION('ref_axis',(4.489664E-011,0.,-1.));
#234=DIRECTION('center_axis',(1.,0.,4.489664E-011));
#235=DIRECTION('ref_axis',(4.489664E-011,0.,-1.));
#236=DIRECTION('center_axis',(0.,0.,1.));
#237=DIRECTION('ref_axis',(1.,0.,0.));
#238=DIRECTION('center_axis',(0.,0.,1.));
#239=DIRECTION('ref_axis',(1.,0.,0.));
#240=DIRECTION('center_axis',(0.,0.,1.));
#241=DIRECTION('ref_axis',(1.,0.,0.));
#242=DIRECTION('center_axis',(1.,-1.45252827479944E-012,4.48966750091442E-011));
#243=DIRECTION('ref_axis',(4.48968269969035E-011,0.,-1.));
#244=DIRECTION('center_axis',(1.,0.,4.489664E-011));
#245=DIRECTION('ref_axis',(4.489664E-011,0.,-1.));
#246=DIRECTION('center_axis',(1.,0.,4.489664E-011));
#247=DIRECTION('ref_axis',(4.489664E-011,0.,-1.));
#248=DIRECTION('center_axis',(0.,0.,-1.));
#249=DIRECTION('ref_axis',(-1.,0.,0.));
#250=DIRECTION('center_axis',(0.,0.,-1.));
#251=DIRECTION('ref_axis',(-1.,0.,0.));
#252=DIRECTION('center_axis',(0.,0.,1.));
#253=DIRECTION('ref_axis',(1.,0.,0.));
#254=DIRECTION('center_axis',(1.,0.,4.489664E-011));
#255=DIRECTION('ref_axis',(4.48963533017377E-011,0.,-1.));
#256=DIRECTION('center_axis',(0.,0.,1.));
#257=DIRECTION('ref_axis',(1.,0.,0.));
#258=DIRECTION('center_axis',(1.,0.,4.489664E-011));
#259=DIRECTION('ref_axis',(4.48963533017377E-011,0.,-1.));
#260=CARTESIAN_POINT('',(0.,0.,0.));
#261=CARTESIAN_POINT('Origin',(61.,0.,122.00000000273));
#262=CARTESIAN_POINT('',(61.0000000019306,5.26598123633362E-015,79.00000000273));
#263=CARTESIAN_POINT('Origin',(61.,0.,122.00000000273));
#264=CARTESIAN_POINT('',(30.9838667696594,43.,122.000000001382));
#265=CARTESIAN_POINT('Ctrl Pts',(30.9838667696594,43.,122.000000001382));
#266=CARTESIAN_POINT('Ctrl Pts',(30.9838667696594,43.,124.953667113471));
#267=CARTESIAN_POINT('Ctrl Pts',(31.4181019370993,42.694539204772,127.871992975629));
#268=CARTESIAN_POINT('Ctrl Pts',(32.943006305164,41.5292563985352,133.516286245508));
#269=CARTESIAN_POINT('Ctrl Pts',(34.0253560605306,40.6696475895361,136.244542013283));
#270=CARTESIAN_POINT('Ctrl Pts',(36.4991826265731,38.4649810061123,141.426076591679));
#271=CARTESIAN_POINT('Ctrl Pts',(37.8895953527298,37.1178033993481,143.882554659469));
#272=CARTESIAN_POINT('Ctrl Pts',(40.6900913315817,34.0245387085375,148.436873728539));
#273=CARTESIAN_POINT('Ctrl Pts',(42.099937105649,32.2771837070698,150.533999476871));
#274=CARTESIAN_POINT('Ctrl Pts',(44.6771090369955,28.5976904970585,154.213492686966));
#275=CARTESIAN_POINT('Ctrl Pts',(45.9478007875132,26.539256174414,155.944715837027));
#276=CARTESIAN_POINT('Ctrl Pts',(48.2883132796618,21.9948020272076,159.051376978563));
#277=CARTESIAN_POINT('Ctrl Pts',(49.3573016389782,19.5083838001449,160.426859218806));
#278=CARTESIAN_POINT('Ctrl Pts',(51.1265978610267,14.2404819774349,162.674430653346));
#279=CARTESIAN_POINT('Ctrl Pts',(51.828144724413,11.4528192900223,163.548469134991));
#280=CARTESIAN_POINT('Ctrl Pts',(52.7650899619079,5.75924792609707,164.711513911151));
#281=CARTESIAN_POINT('Ctrl Pts',(53.,2.85315264827793,165.000000002371));
#282=CARTESIAN_POINT('Ctrl Pts',(53.,-2.85315264827793,165.000000002371));
#283=CARTESIAN_POINT('Ctrl Pts',(52.7650899619079,-5.75924792609707,164.711513911151));
#284=CARTESIAN_POINT('Ctrl Pts',(51.828144724413,-11.4528192900224,163.548469134991));
#285=CARTESIAN_POINT('Ctrl Pts',(51.1265978610267,-14.2404819774349,162.674430653346));
#286=CARTESIAN_POINT('Ctrl Pts',(49.3573016389782,-19.5083838001449,160.426859218806));
#287=CARTESIAN_POINT('Ctrl Pts',(48.2883132796618,-21.9948020272076,159.051376978563));
#288=CARTESIAN_POINT('Ctrl Pts',(45.9478007875132,-26.539256174414,155.944715837027));
#289=CARTESIAN_POINT('Ctrl Pts',(44.6771090369955,-28.5976904970585,154.213492686966));
#290=CARTESIAN_POINT('Ctrl Pts',(42.099937105649,-32.2771837070698,150.533999476871));
#291=CARTESIAN_POINT('Ctrl Pts',(40.6900913315817,-34.0245387085375,148.436873728539));
#292=CARTESIAN_POINT('Ctrl Pts',(37.8895953527298,-37.1178033993481,143.882554659469));
#293=CARTESIAN_POINT('Ctrl Pts',(36.4991826265731,-38.4649810061123,141.426076591679));
#294=CARTESIAN_POINT('Ctrl Pts',(34.0253560605306,-40.6696475895361,136.244542013283));
#295=CARTESIAN_POINT('Ctrl Pts',(32.943006305164,-41.5292563985352,133.516286245508));
#296=CARTESIAN_POINT('Ctrl Pts',(31.4181019370993,-42.694539204772,127.871992975629));
#297=CARTESIAN_POINT('Ctrl Pts',(30.9838667696594,-43.,124.953667113471));
#298=CARTESIAN_POINT('Ctrl Pts',(30.9838667696593,-43.,119.046332889379));
#299=CARTESIAN_POINT('Ctrl Pts',(31.4181019370772,-42.6945392047878,116.128007027301));
#300=CARTESIAN_POINT('Ctrl Pts',(32.9430063051074,-41.5292563985796,110.483713757598));
#301=CARTESIAN_POINT('Ctrl Pts',(34.025356060461,-40.6696475895938,107.75545798992));
#302=CARTESIAN_POINT('Ctrl Pts',(36.4991826264888,-38.4649810061918,102.573923411738));
#303=CARTESIAN_POINT('Ctrl Pts',(37.8895953526436,-37.1178033994357,100.117445344065));
#304=CARTESIAN_POINT('Ctrl Pts',(40.6900913314939,-34.0245387086422,95.5631262752318));
#305=CARTESIAN_POINT('Ctrl Pts',(42.0999371055612,-32.2771837071834,93.4660005270217));
#306=CARTESIAN_POINT('Ctrl Pts',(44.6771090369311,-28.5976904971619,89.786507317116));
#307=CARTESIAN_POINT('Ctrl Pts',(45.9478007874703,-26.5392561744911,88.0552841671394));
#308=CARTESIAN_POINT('Ctrl Pts',(48.2883132796497,-21.9948020272374,84.9486230257705));
#309=CARTESIAN_POINT('Ctrl Pts',(49.3573016389755,-19.5083838001537,83.5731407856122));
#310=CARTESIAN_POINT('Ctrl Pts',(51.1265978610332,-14.2404819774145,81.3255693512196));
#311=CARTESIAN_POINT('Ctrl Pts',(51.8281447244193,-11.4528192899937,80.4515308696377));
#312=CARTESIAN_POINT('Ctrl Pts',(52.7650899619109,-5.75924792606929,79.2884860935654));
#313=CARTESIAN_POINT('Ctrl Pts',(53.,-2.85315264825929,79.0000000023708));
#314=CARTESIAN_POINT('Ctrl Pts',(53.,2.85315264827646,79.0000000023708));
#315=CARTESIAN_POINT('Ctrl Pts',(52.7650899619081,5.75924792610281,79.2884860935688));
#316=CARTESIAN_POINT('Ctrl Pts',(51.8281447244062,11.4528192900568,80.451530869654));
#317=CARTESIAN_POINT('Ctrl Pts',(51.1265978610127,14.2404819774908,81.3255693512453));
#318=CARTESIAN_POINT('Ctrl Pts',(49.3573016389373,19.5083838002524,83.5731407856612));
#319=CARTESIAN_POINT('Ctrl Pts',(48.2883132796011,21.9948020273453,84.9486230258335));
#320=CARTESIAN_POINT('Ctrl Pts',(45.9478007874006,26.5392561746127,88.0552841672333));
#321=CARTESIAN_POINT('Ctrl Pts',(44.6771090368507,28.5976904972882,89.7865073172269));
#322=CARTESIAN_POINT('Ctrl Pts',(42.0999371054766,32.2771837072923,93.4660005271465));
#323=CARTESIAN_POINT('Ctrl Pts',(40.6900913314169,34.0245387087332,95.5631262753504));
#324=CARTESIAN_POINT('Ctrl Pts',(37.8895953525841,37.1178033994955,100.117445344168));
#325=CARTESIAN_POINT('Ctrl Pts',(36.4991826264392,38.4649810062382,102.573923411832));
#326=CARTESIAN_POINT('Ctrl Pts',(34.0253560604312,40.6696475896182,107.755457989992));
#327=CARTESIAN_POINT('Ctrl Pts',(32.9430063050873,41.5292563985953,110.483713757659));
#328=CARTESIAN_POINT('Ctrl Pts',(31.418101937072,42.6945392047914,116.128007027334));
#329=CARTESIAN_POINT('Ctrl Pts',(30.9838667696594,43.,119.046332889397));
#330=CARTESIAN_POINT('Ctrl Pts',(30.9838667696594,43.,122.000000001382));
#331=CARTESIAN_POINT('Origin',(0.,0.,183.));
#332=CARTESIAN_POINT('',(53.,6.49062803548097E-015,183.));
#333=CARTESIAN_POINT('Origin',(0.,0.,183.));
#334=CARTESIAN_POINT('',(53.,6.49062803548097E-015,61.));
#335=CARTESIAN_POINT('Origin',(0.,0.,61.));
#336=CARTESIAN_POINT('Origin',(0.,0.,0.));
#337=CARTESIAN_POINT('',(-66.5,-8.143632E-015,244.));
#338=CARTESIAN_POINT('Origin',(0.,0.,244.));
#339=CARTESIAN_POINT('',(66.5,-1.628726E-014,0.));
#340=CARTESIAN_POINT('Origin',(0.,0.,0.));
#341=CARTESIAN_POINT('',(38.105117766515,-54.5,122.00000000171));
#342=CARTESIAN_POINT('',(66.5,-6.66133814775094E-015,67.5000000029856));
#343=CARTESIAN_POINT('Ctrl Pts',(38.1051177665153,-54.5,122.000000001711));
#344=CARTESIAN_POINT('Ctrl Pts',(38.1051177665154,-54.4999999999999,118.24231357387));
#345=CARTESIAN_POINT('Ctrl Pts',(38.676185484605,-54.1104323282925,114.540435494993));
#346=CARTESIAN_POINT('Ctrl Pts',(40.6656619428564,-52.6316458171018,107.38857102838));
#347=CARTESIAN_POINT('Ctrl Pts',(42.0729993673119,-51.5425201777422,103.935490216021));
#348=CARTESIAN_POINT('Ctrl Pts',(45.27893234779,-48.7502513745506,97.375401406961));
#349=CARTESIAN_POINT('Ctrl Pts',(47.0762814496488,-47.0444302950381,94.264938534409));
#350=CARTESIAN_POINT('Ctrl Pts',(50.6904966248571,-43.1257261034639,88.4950182378787));
#351=CARTESIAN_POINT('Ctrl Pts',(52.5072133759552,-40.9112133656611,85.8365742186644));
#352=CARTESIAN_POINT('Ctrl Pts',(55.8219262412121,-36.249714054174,81.1750749073662));
#353=CARTESIAN_POINT('Ctrl Pts',(57.4530625369559,-33.6441717673569,78.9828829041424));
#354=CARTESIAN_POINT('Ctrl Pts',(60.4563744052339,-27.8892718220911,75.0469258152358));
#355=CARTESIAN_POINT('Ctrl Pts',(61.8275190094529,-24.7394044980358,73.3031193384228));
#356=CARTESIAN_POINT('Ctrl Pts',(64.0968073482629,-18.0632126106851,70.4524994349412));
#357=CARTESIAN_POINT('Ctrl Pts',(64.9965715586101,-14.5290163202716,69.3432032753991));
#358=CARTESIAN_POINT('Ctrl Pts',(66.1984789308843,-7.30807888625781,67.8666226837139));
#359=CARTESIAN_POINT('Ctrl Pts',(66.5,-3.62109890846771,67.5000000029856));
#360=CARTESIAN_POINT('Ctrl Pts',(66.5,2.77555756156289E-016,67.5000000029856));
#361=CARTESIAN_POINT('',(66.5,-1.628726E-014,176.50000000298));
#362=CARTESIAN_POINT('Ctrl Pts',(38.1051177665153,-54.5,122.000000001711));
#363=CARTESIAN_POINT('Ctrl Pts',(38.1051177665152,-54.5000000000001,125.757686429593));
#364=CARTESIAN_POINT('Ctrl Pts',(38.6761854846138,-54.110432328286,129.459564508513));
#365=CARTESIAN_POINT('Ctrl Pts',(40.6656619428509,-52.6316458171058,136.61142897525));
#366=CARTESIAN_POINT('Ctrl Pts',(42.0729993672848,-51.5425201777627,140.064509787688));
#367=CARTESIAN_POINT('Ctrl Pts',(45.2789323477047,-48.750251374628,146.624598596944));
#368=CARTESIAN_POINT('Ctrl Pts',(47.0762814495272,-47.0444302951565,149.73506146961));
#369=CARTESIAN_POINT('Ctrl Pts',(50.6904966246695,-43.1257261036808,155.504981766388));
#370=CARTESIAN_POINT('Ctrl Pts',(52.5072133757382,-40.9112133659355,158.163425785735));
#371=CARTESIAN_POINT('Ctrl Pts',(55.8219262409811,-36.2497140545284,162.824925097331));
#372=CARTESIAN_POINT('Ctrl Pts',(57.4530625367395,-33.644171767727,165.017117100728));
#373=CARTESIAN_POINT('Ctrl Pts',(60.45637440506,-27.8892718224687,168.95307418997));
#374=CARTESIAN_POINT('Ctrl Pts',(61.827519009307,-24.739404498405,170.696880666944));
#375=CARTESIAN_POINT('Ctrl Pts',(64.0968073481742,-18.063212611006,173.547500570704));
#376=CARTESIAN_POINT('Ctrl Pts',(64.9965715585508,-14.529016320552,174.656796730364));
#377=CARTESIAN_POINT('Ctrl Pts',(66.1984789308694,-7.30807888642296,176.133377322212));
#378=CARTESIAN_POINT('Ctrl Pts',(66.5,-3.62109890855804,176.500000002986));
#379=CARTESIAN_POINT('Ctrl Pts',(66.5,-6.66133814775094E-015,176.500000002986));
#380=CARTESIAN_POINT('',(38.105117766515,54.5,122.00000000171));
#381=CARTESIAN_POINT('Ctrl Pts',(66.5,6.93889390390723E-015,176.500000002986));
#382=CARTESIAN_POINT('Ctrl Pts',(66.5,3.62109890855805,176.500000002986));
#383=CARTESIAN_POINT('Ctrl Pts',(66.1984789308694,7.30807888642297,176.133377322212));
#384=CARTESIAN_POINT('Ctrl Pts',(64.9965715585508,14.529016320552,174.656796730364));
#385=CARTESIAN_POINT('Ctrl Pts',(64.0968073481742,18.063212611006,173.547500570704));
#386=CARTESIAN_POINT('Ctrl Pts',(61.827519009307,24.739404498405,170.696880666944));
#387=CARTESIAN_POINT('Ctrl Pts',(60.45637440506,27.8892718224687,168.95307418997));
#388=CARTESIAN_POINT('Ctrl Pts',(57.4530625367395,33.644171767727,165.017117100728));
#389=CARTESIAN_POINT('Ctrl Pts',(55.8219262409811,36.2497140545284,162.824925097331));
#390=CARTESIAN_POINT('Ctrl Pts',(52.5072133757382,40.9112133659355,158.163425785735));
#391=CARTESIAN_POINT('Ctrl Pts',(50.6904966246695,43.1257261036808,155.504981766388));
#392=CARTESIAN_POINT('Ctrl Pts',(47.0762814495272,47.0444302951565,149.73506146961));
#393=CARTESIAN_POINT('Ctrl Pts',(45.2789323477047,48.750251374628,146.624598596944));
#394=CARTESIAN_POINT('Ctrl Pts',(42.0729993672848,51.5425201777626,140.064509787688));
#395=CARTESIAN_POINT('Ctrl Pts',(40.6656619428509,52.6316458171057,136.61142897525));
#396=CARTESIAN_POINT('Ctrl Pts',(38.6761854846138,54.110432328286,129.459564508513));
#397=CARTESIAN_POINT('Ctrl Pts',(38.1051177665153,54.5,125.757686429593));
#398=CARTESIAN_POINT('Ctrl Pts',(38.1051177665153,54.5,122.000000001711));
#399=CARTESIAN_POINT('Ctrl Pts',(66.5,-1.36002320516582E-014,67.5000000029856));
#400=CARTESIAN_POINT('Ctrl Pts',(66.5,3.6210989084677,67.5000000029856));
#401=CARTESIAN_POINT('Ctrl Pts',(66.1984789308842,7.3080788862578,67.8666226837139));
#402=CARTESIAN_POINT('Ctrl Pts',(64.9965715586101,14.5290163202716,69.3432032753991));
#403=CARTESIAN_POINT('Ctrl Pts',(64.0968073482629,18.0632126106851,70.4524994349412));
#404=CARTESIAN_POINT('Ctrl Pts',(61.8275190094529,24.7394044980358,73.3031193384228));
#405=CARTESIAN_POINT('Ctrl Pts',(60.4563744052339,27.8892718220911,75.0469258152358));
#406=CARTESIAN_POINT('Ctrl Pts',(57.4530625369559,33.6441717673569,78.9828829041424));
#407=CARTESIAN_POINT('Ctrl Pts',(55.8219262412121,36.249714054174,81.1750749073662));
#408=CARTESIAN_POINT('Ctrl Pts',(52.5072133759552,40.9112133656611,85.8365742186644));
#409=CARTESIAN_POINT('Ctrl Pts',(50.6904966248571,43.1257261034639,88.4950182378787));
#410=CARTESIAN_POINT('Ctrl Pts',(47.0762814496488,47.0444302950381,94.264938534409));
#411=CARTESIAN_POINT('Ctrl Pts',(45.27893234779,48.7502513745506,97.375401406961));
#412=CARTESIAN_POINT('Ctrl Pts',(42.0729993673119,51.5425201777422,103.935490216021));
#413=CARTESIAN_POINT('Ctrl Pts',(40.6656619428564,52.6316458171018,107.38857102838));
#414=CARTESIAN_POINT('Ctrl Pts',(38.676185484605,54.1104323282925,114.540435494993));
#415=CARTESIAN_POINT('Ctrl Pts',(38.1051177665153,54.5,118.24231357387));
#416=CARTESIAN_POINT('Ctrl Pts',(38.1051177665153,54.5,122.000000001711));
#417=CARTESIAN_POINT('Origin',(0.,0.,30.5));
#418=CARTESIAN_POINT('',(-55.,-6.735335E-015,61.));
#419=CARTESIAN_POINT('Origin',(0.,0.,61.));
#420=CARTESIAN_POINT('',(-55.,-6.735335E-015,0.));
#421=CARTESIAN_POINT('Origin',(0.,0.,0.));
#422=CARTESIAN_POINT('Origin',(0.,0.,122.));
#423=CARTESIAN_POINT('',(111.999999997553,-6.674105E-015,176.500000005028));
#424=CARTESIAN_POINT('Origin',(112.,0.,122.00000000502));
#425=CARTESIAN_POINT('Origin',(0.,0.,213.5));
#426=CARTESIAN_POINT('',(-55.,-6.735335E-015,244.));
#427=CARTESIAN_POINT('Origin',(0.,0.,244.));
#428=CARTESIAN_POINT('',(-55.,-6.735335E-015,183.));
#429=CARTESIAN_POINT('Origin',(0.,0.,183.));
#430=CARTESIAN_POINT('Origin',(86.4999999999998,0.,122.000000003866));
#431=CARTESIAN_POINT('',(111.99999999798,-5.510729E-015,167.00000000502));
#432=CARTESIAN_POINT('Origin',(112.,0.,122.00000000502));
#433=CARTESIAN_POINT('',(60.9999999979797,-5.510729E-015,167.00000000273));
#434=CARTESIAN_POINT('Origin',(61.,0.,122.00000000273));
#435=CARTESIAN_POINT('Origin',(0.,0.,0.));
#436=CARTESIAN_POINT('Origin',(0.,0.,61.));
#437=CARTESIAN_POINT('Origin',(0.,0.,244.));
#438=CARTESIAN_POINT('Origin',(112.,0.,122.00000000502));
#439=CARTESIAN_POINT('Origin',(0.,0.,183.));
#440=CARTESIAN_POINT('Origin',(61.,0.,122.00000000273));
#441=UNCERTAINTY_MEASURE_WITH_UNIT(LENGTH_MEASURE(0.01),#443,
'DISTANCE_ACCURACY_VALUE',
'Maximum model space distance between geometric entities at asserted c
onnectivities');
#442=(
GEOMETRIC_REPRESENTATION_CONTEXT(3)
GLOBAL_UNCERTAINTY_ASSIGNED_CONTEXT((#441))
GLOBAL_UNIT_ASSIGNED_CONTEXT((#443,#446,#444))
REPRESENTATION_CONTEXT('','3D')
);
#443=(
LENGTH_UNIT()
NAMED_UNIT(*)
SI_UNIT(.MILLI.,.METRE.)
);
#444=(
NAMED_UNIT(*)
SI_UNIT($,.STERADIAN.)
SOLID_ANGLE_UNIT()
);
#445=DIMENSIONAL_EXPONENTS(0.,0.,0.,0.,0.,0.,0.);
#446=(
CONVERSION_BASED_UNIT('degree',#448)
NAMED_UNIT(#445)
PLANE_ANGLE_UNIT()
);
#447=(
NAMED_UNIT(*)
PLANE_ANGLE_UNIT()
SI_UNIT($,.RADIAN.)
);
#448=PLANE_ANGLE_MEASURE_WITH_UNIT(PLANE_ANGLE_MEASURE(0.01745329252),#447);
#449=SHAPE_DEFINITION_REPRESENTATION(#450,#451);
#450=PRODUCT_DEFINITION_SHAPE('',$,#453);
#451=SHAPE_REPRESENTATION('',(#182),#442);
#452=PRODUCT_DEFINITION_CONTEXT('3D Mechanical Parts',#456,'design');
#453=PRODUCT_DEFINITION('TRIV110090','TRIV110090',#454,#452);
#454=PRODUCT_DEFINITION_FORMATION('',$,#458);
#455=APPLICATION_PROTOCOL_DEFINITION('international standard',
'automotive_design',2009,#456);
#456=APPLICATION_CONTEXT(
'Core Data for Automotive Mechanical Design Process');
#457=PRODUCT_CONTEXT('3D Mechanical Parts',#456,'mechanical');
#458=PRODUCT('TRIV110090','TRIV110090',$,(#457));
#459=PRESENTATION_STYLE_ASSIGNMENT((#460));
#460=SURFACE_STYLE_USAGE(.BOTH.,#461);
#461=SURFACE_SIDE_STYLE($,(#462));
#462=SURFACE_STYLE_FILL_AREA(#463);
#463=FILL_AREA_STYLE($,(#464));
#464=FILL_AREA_STYLE_COLOUR($,#465);
#465=COLOUR_RGB('',0.509803921568627,0.509803921568627,0.588235294117647);
ENDSEC;
END-ISO-10303-21;
