ISO-10303-21;
HEADER;
/* Generated by software containing ST-Developer
 * from STEP Tools, Inc. (www.steptools.com) 
 */

FILE_DESCRIPTION(
/* description */ (''),
/* implementation_level */ '2;1');

FILE_NAME(
/* name */ 
'Q:\\Ric010\\FF7\\FIPlastiCAD\\FIP\\Lavoro\\PVC Fittings\\PVC Fittings
 STEP\\TRIV\\TRIV040020.ipt.stp',
/* time_stamp */ '2013-10-01T14:56:23+02:00',
/* author */ ('bfaro'),
/* organization */ (''),
/* preprocessor_version */ 'ST-DEVELOPER v15.2',
/* originating_system */ 'Autodesk Inventor 2014',
/* authorisation */ '');

FILE_SCHEMA (('AUTOMOTIVE_DESIGN { 1 0 10303 214 3 1 1 }'));
ENDSEC;

DATA;
#10=SHAPE_REPRESENTATION_RELATIONSHIP('SRR','None',#403,#11);
#11=ADVANCED_BREP_SHAPE_REPRESENTATION($,(#181),#394);
#12=STYLED_ITEM($,(#411),#181);
#13=PLANE($,#202);
#14=PLANE($,#203);
#15=PLANE($,#204);
#16=PLANE($,#205);
#17=PLANE($,#206);
#18=PLANE($,#207);
#19=FACE_BOUND($,#60,.T.);
#20=FACE_BOUND($,#61,.T.);
#21=FACE_BOUND($,#62,.T.);
#22=FACE_BOUND($,#63,.T.);
#23=FACE_BOUND($,#65,.T.);
#24=FACE_BOUND($,#66,.T.);
#25=FACE_BOUND($,#67,.T.);
#26=FACE_BOUND($,#68,.T.);
#27=FACE_BOUND($,#70,.T.);
#28=FACE_BOUND($,#72,.T.);
#29=FACE_BOUND($,#74,.T.);
#30=FACE_BOUND($,#76,.T.);
#31=FACE_BOUND($,#77,.T.);
#32=FACE_BOUND($,#78,.T.);
#33=FACE_BOUND($,#80,.T.);
#34=FACE_BOUND($,#82,.T.);
#35=FACE_BOUND($,#83,.T.);
#36=FACE_BOUND($,#84,.T.);
#37=FACE_BOUND($,#85,.T.);
#38=FACE_BOUND($,#86,.T.);
#39=CIRCLE($,#184,9.5);
#40=CIRCLE($,#186,19.);
#41=CIRCLE($,#187,19.);
#42=CIRCLE($,#189,20.);
#43=CIRCLE($,#190,20.);
#44=CIRCLE($,#192,25.);
#45=CIRCLE($,#193,25.);
#46=CIRCLE($,#195,14.5);
#47=CIRCLE($,#197,20.);
#48=CIRCLE($,#198,20.);
#49=CIRCLE($,#200,10.);
#50=CIRCLE($,#201,10.);
#51=FACE_OUTER_BOUND($,#59,.T.);
#52=FACE_OUTER_BOUND($,#64,.T.);
#53=FACE_OUTER_BOUND($,#69,.T.);
#54=FACE_OUTER_BOUND($,#71,.T.);
#55=FACE_OUTER_BOUND($,#73,.T.);
#56=FACE_OUTER_BOUND($,#75,.T.);
#57=FACE_OUTER_BOUND($,#79,.T.);
#58=FACE_OUTER_BOUND($,#81,.T.);
#59=EDGE_LOOP($,(#126));
#60=EDGE_LOOP($,(#127));
#61=EDGE_LOOP($,(#128));
#62=EDGE_LOOP($,(#129));
#63=EDGE_LOOP($,(#130));
#64=EDGE_LOOP($,(#131));
#65=EDGE_LOOP($,(#132));
#66=EDGE_LOOP($,(#133,#134,#135,#136));
#67=EDGE_LOOP($,(#137));
#68=EDGE_LOOP($,(#138));
#69=EDGE_LOOP($,(#139,#140,#141,#142));
#70=EDGE_LOOP($,(#143));
#71=EDGE_LOOP($,(#144));
#72=EDGE_LOOP($,(#145));
#73=EDGE_LOOP($,(#146));
#74=EDGE_LOOP($,(#147));
#75=EDGE_LOOP($,(#148));
#76=EDGE_LOOP($,(#149));
#77=EDGE_LOOP($,(#150));
#78=EDGE_LOOP($,(#151));
#79=EDGE_LOOP($,(#152));
#80=EDGE_LOOP($,(#153));
#81=EDGE_LOOP($,(#154));
#82=EDGE_LOOP($,(#155));
#83=EDGE_LOOP($,(#156));
#84=EDGE_LOOP($,(#157));
#85=EDGE_LOOP($,(#158));
#86=EDGE_LOOP($,(#159));
#87=B_SPLINE_CURVE_WITH_KNOTS($,3,(#263,#264,#265,#266,#267,#268,#269,#270,
#271,#272,#273,#274,#275,#276,#277,#278,#279,#280,#281,#282,#283,#284,#285,
#286,#287,#288,#289,#290,#291,#292,#293,#294,#295,#296),.UNSPECIFIED.,.T.,
 .F.,(4,2,2,2,2,2,2,2,2,2,2,2,2,2,2,2,4),(0.,0.365669440840814,0.731338881681629,
1.09601148984164,1.46068409800165,1.82535670616167,2.19002931432168,2.55569875516249,
2.92136819600331,3.28703763683729,3.65270707767128,4.01737968583079,4.38205229399031,
4.74672490214982,5.11139751030934,5.47706695114332,5.8427363919773),
 .UNSPECIFIED.);
#88=B_SPLINE_CURVE_WITH_KNOTS($,3,(#312,#313,#314,#315,#316,#317,#318,#319,
#320,#321,#322,#323,#324,#325),.UNSPECIFIED.,.F.,.F.,(4,2,2,2,2,2,4),(4.49670737963124,
4.77852230206835,5.06033722450547,5.6239670693797,6.18451406939996,6.46478756941009,
6.74506106942022),.UNSPECIFIED.);
#89=B_SPLINE_CURVE_WITH_KNOTS($,3,(#327,#328,#329,#330,#331,#332,#333,#334,
#335,#336,#337,#338,#339,#340),.UNSPECIFIED.,.F.,.F.,(4,2,2,2,2,2,4),(-4.49670737963124,
-4.21489245719102,-3.93307753475081,-3.36944768987038,-2.80890068984299,
-2.5286271898293,-2.2483536898156),.UNSPECIFIED.);
#90=B_SPLINE_CURVE_WITH_KNOTS($,3,(#342,#343,#344,#345,#346,#347,#348,#349,
#350,#351,#352,#353,#354,#355),.UNSPECIFIED.,.F.,.F.,(4,2,2,2,2,2,4),(6.74506106939368,
7.02533456940737,7.30560806942107,7.86615506944846,8.42978491432889,8.7115998367691,
8.99341475920932),.UNSPECIFIED.);
#91=B_SPLINE_CURVE_WITH_KNOTS($,3,(#356,#357,#358,#359,#360,#361,#362,#363,
#364,#365,#366,#367,#368,#369),.UNSPECIFIED.,.F.,.F.,(4,2,2,2,2,2,4),(-2.24835368978904,
-1.96808018977996,-1.68780668977089,-1.12725968975274,-0.563629844876385,
-0.281814922438209,-3.37507799486048E-014),.UNSPECIFIED.);
#92=VERTEX_POINT($,#262);
#93=VERTEX_POINT($,#297);
#94=VERTEX_POINT($,#300);
#95=VERTEX_POINT($,#302);
#96=VERTEX_POINT($,#305);
#97=VERTEX_POINT($,#307);
#98=VERTEX_POINT($,#310);
#99=VERTEX_POINT($,#311);
#100=VERTEX_POINT($,#326);
#101=VERTEX_POINT($,#341);
#102=VERTEX_POINT($,#370);
#103=VERTEX_POINT($,#372);
#104=VERTEX_POINT($,#375);
#105=VERTEX_POINT($,#378);
#106=VERTEX_POINT($,#380);
#107=VERTEX_POINT($,#383);
#108=VERTEX_POINT($,#385);
#109=EDGE_CURVE($,#92,#92,#87,.T.);
#110=EDGE_CURVE($,#93,#93,#39,.T.);
#111=EDGE_CURVE($,#94,#94,#40,.T.);
#112=EDGE_CURVE($,#95,#95,#41,.T.);
#113=EDGE_CURVE($,#96,#96,#42,.T.);
#114=EDGE_CURVE($,#97,#97,#43,.T.);
#115=EDGE_CURVE($,#98,#99,#88,.T.);
#116=EDGE_CURVE($,#98,#100,#89,.T.);
#117=EDGE_CURVE($,#100,#101,#90,.T.);
#118=EDGE_CURVE($,#99,#101,#91,.T.);
#119=EDGE_CURVE($,#102,#102,#44,.T.);
#120=EDGE_CURVE($,#103,#103,#45,.T.);
#121=EDGE_CURVE($,#104,#104,#46,.T.);
#122=EDGE_CURVE($,#105,#105,#47,.T.);
#123=EDGE_CURVE($,#106,#106,#48,.T.);
#124=EDGE_CURVE($,#107,#107,#49,.T.);
#125=EDGE_CURVE($,#108,#108,#50,.T.);
#126=ORIENTED_EDGE($,*,*,#109,.F.);
#127=ORIENTED_EDGE($,*,*,#110,.F.);
#128=ORIENTED_EDGE($,*,*,#109,.T.);
#129=ORIENTED_EDGE($,*,*,#111,.F.);
#130=ORIENTED_EDGE($,*,*,#112,.F.);
#131=ORIENTED_EDGE($,*,*,#113,.T.);
#132=ORIENTED_EDGE($,*,*,#114,.F.);
#133=ORIENTED_EDGE($,*,*,#115,.F.);
#134=ORIENTED_EDGE($,*,*,#116,.T.);
#135=ORIENTED_EDGE($,*,*,#117,.T.);
#136=ORIENTED_EDGE($,*,*,#118,.F.);
#137=ORIENTED_EDGE($,*,*,#119,.T.);
#138=ORIENTED_EDGE($,*,*,#120,.F.);
#139=ORIENTED_EDGE($,*,*,#116,.F.);
#140=ORIENTED_EDGE($,*,*,#115,.T.);
#141=ORIENTED_EDGE($,*,*,#118,.T.);
#142=ORIENTED_EDGE($,*,*,#117,.F.);
#143=ORIENTED_EDGE($,*,*,#121,.F.);
#144=ORIENTED_EDGE($,*,*,#122,.T.);
#145=ORIENTED_EDGE($,*,*,#123,.F.);
#146=ORIENTED_EDGE($,*,*,#124,.T.);
#147=ORIENTED_EDGE($,*,*,#125,.F.);
#148=ORIENTED_EDGE($,*,*,#119,.F.);
#149=ORIENTED_EDGE($,*,*,#114,.T.);
#150=ORIENTED_EDGE($,*,*,#111,.T.);
#151=ORIENTED_EDGE($,*,*,#113,.F.);
#152=ORIENTED_EDGE($,*,*,#120,.T.);
#153=ORIENTED_EDGE($,*,*,#122,.F.);
#154=ORIENTED_EDGE($,*,*,#121,.T.);
#155=ORIENTED_EDGE($,*,*,#124,.F.);
#156=ORIENTED_EDGE($,*,*,#112,.T.);
#157=ORIENTED_EDGE($,*,*,#123,.T.);
#158=ORIENTED_EDGE($,*,*,#110,.T.);
#159=ORIENTED_EDGE($,*,*,#125,.T.);
#160=CYLINDRICAL_SURFACE($,#183,9.5);
#161=CYLINDRICAL_SURFACE($,#185,19.);
#162=CYLINDRICAL_SURFACE($,#188,20.);
#163=CYLINDRICAL_SURFACE($,#191,25.);
#164=CYLINDRICAL_SURFACE($,#194,14.5);
#165=CYLINDRICAL_SURFACE($,#196,20.);
#166=CYLINDRICAL_SURFACE($,#199,9.99999999999999);
#167=ADVANCED_FACE($,(#51,#19),#160,.F.);
#168=ADVANCED_FACE($,(#20,#21,#22),#161,.F.);
#169=ADVANCED_FACE($,(#52,#23),#162,.F.);
#170=ADVANCED_FACE($,(#24,#25,#26),#163,.T.);
#171=ADVANCED_FACE($,(#53,#27),#164,.T.);
#172=ADVANCED_FACE($,(#54,#28),#165,.F.);
#173=ADVANCED_FACE($,(#55,#29),#166,.F.);
#174=ADVANCED_FACE($,(#56,#30),#13,.T.);
#175=ADVANCED_FACE($,(#31,#32),#14,.T.);
#176=ADVANCED_FACE($,(#57,#33),#15,.T.);
#177=ADVANCED_FACE($,(#58,#34),#16,.T.);
#178=ADVANCED_FACE($,(#35,#36),#17,.T.);
#179=ADVANCED_FACE($,(#37,#38),#18,.T.);
#180=CLOSED_SHELL($,(#167,#168,#169,#170,#171,#172,#173,#174,#175,#176,
#177,#178,#179));
#181=MANIFOLD_SOLID_BREP('Solido1',#180);
#182=AXIS2_PLACEMENT_3D('placement',#260,#208,#209);
#183=AXIS2_PLACEMENT_3D($,#261,#210,#211);
#184=AXIS2_PLACEMENT_3D($,#298,#212,#213);
#185=AXIS2_PLACEMENT_3D($,#299,#214,#215);
#186=AXIS2_PLACEMENT_3D($,#301,#216,#217);
#187=AXIS2_PLACEMENT_3D($,#303,#218,#219);
#188=AXIS2_PLACEMENT_3D($,#304,#220,#221);
#189=AXIS2_PLACEMENT_3D($,#306,#222,#223);
#190=AXIS2_PLACEMENT_3D($,#308,#224,#225);
#191=AXIS2_PLACEMENT_3D($,#309,#226,#227);
#192=AXIS2_PLACEMENT_3D($,#371,#228,#229);
#193=AXIS2_PLACEMENT_3D($,#373,#230,#231);
#194=AXIS2_PLACEMENT_3D($,#374,#232,#233);
#195=AXIS2_PLACEMENT_3D($,#376,#234,#235);
#196=AXIS2_PLACEMENT_3D($,#377,#236,#237);
#197=AXIS2_PLACEMENT_3D($,#379,#238,#239);
#198=AXIS2_PLACEMENT_3D($,#381,#240,#241);
#199=AXIS2_PLACEMENT_3D($,#382,#242,#243);
#200=AXIS2_PLACEMENT_3D($,#384,#244,#245);
#201=AXIS2_PLACEMENT_3D($,#386,#246,#247);
#202=AXIS2_PLACEMENT_3D($,#387,#248,#249);
#203=AXIS2_PLACEMENT_3D($,#388,#250,#251);
#204=AXIS2_PLACEMENT_3D($,#389,#252,#253);
#205=AXIS2_PLACEMENT_3D($,#390,#254,#255);
#206=AXIS2_PLACEMENT_3D($,#391,#256,#257);
#207=AXIS2_PLACEMENT_3D($,#392,#258,#259);
#208=DIRECTION('axis',(0.,0.,1.));
#209=DIRECTION('refdir',(1.,0.,0.));
#210=DIRECTION('center_axis',(-1.,0.,-4.48965434469768E-011));
#211=DIRECTION('ref_axis',(-4.48965434469768E-011,0.,1.));
#212=DIRECTION('center_axis',(-1.,0.,-4.489664E-011));
#213=DIRECTION('ref_axis',(-4.48965434469768E-011,0.,1.));
#214=DIRECTION('center_axis',(0.,0.,-1.));
#215=DIRECTION('ref_axis',(-1.,0.,0.));
#216=DIRECTION('center_axis',(0.,0.,1.));
#217=DIRECTION('ref_axis',(-1.,0.,0.));
#218=DIRECTION('center_axis',(0.,0.,-1.));
#219=DIRECTION('ref_axis',(-1.,0.,0.));
#220=DIRECTION('center_axis',(0.,0.,1.));
#221=DIRECTION('ref_axis',(1.,0.,0.));
#222=DIRECTION('center_axis',(0.,0.,1.));
#223=DIRECTION('ref_axis',(1.,0.,0.));
#224=DIRECTION('center_axis',(0.,0.,1.));
#225=DIRECTION('ref_axis',(1.,0.,0.));
#226=DIRECTION('center_axis',(0.,0.,1.));
#227=DIRECTION('ref_axis',(1.,0.,0.));
#228=DIRECTION('center_axis',(0.,0.,1.));
#229=DIRECTION('ref_axis',(1.,0.,0.));
#230=DIRECTION('center_axis',(0.,0.,1.));
#231=DIRECTION('ref_axis',(1.,0.,0.));
#232=DIRECTION('center_axis',(1.,0.,4.489664E-011));
#233=DIRECTION('ref_axis',(4.489664E-011,0.,-1.));
#234=DIRECTION('center_axis',(1.,0.,4.489664E-011));
#235=DIRECTION('ref_axis',(4.489664E-011,0.,-1.));
#236=DIRECTION('center_axis',(0.,0.,1.));
#237=DIRECTION('ref_axis',(1.,0.,0.));
#238=DIRECTION('center_axis',(0.,0.,1.));
#239=DIRECTION('ref_axis',(1.,0.,0.));
#240=DIRECTION('center_axis',(0.,0.,1.));
#241=DIRECTION('ref_axis',(1.,0.,0.));
#242=DIRECTION('center_axis',(1.,2.21565352695509E-015,4.48978228333048E-011));
#243=DIRECTION('ref_axis',(4.48978632050512E-011,0.,-1.));
#244=DIRECTION('center_axis',(1.,0.,4.489664E-011));
#245=DIRECTION('ref_axis',(4.489664E-011,0.,-1.));
#246=DIRECTION('center_axis',(1.,0.,4.489664E-011));
#247=DIRECTION('ref_axis',(4.489664E-011,0.,-1.));
#248=DIRECTION('center_axis',(0.,0.,-1.));
#249=DIRECTION('ref_axis',(-1.,0.,0.));
#250=DIRECTION('center_axis',(0.,0.,-1.));
#251=DIRECTION('ref_axis',(-1.,0.,0.));
#252=DIRECTION('center_axis',(0.,0.,1.));
#253=DIRECTION('ref_axis',(1.,0.,0.));
#254=DIRECTION('center_axis',(1.,0.,4.489664E-011));
#255=DIRECTION('ref_axis',(4.48963533017377E-011,0.,-1.));
#256=DIRECTION('center_axis',(0.,0.,1.));
#257=DIRECTION('ref_axis',(1.,0.,0.));
#258=DIRECTION('center_axis',(1.,0.,4.489664E-011));
#259=DIRECTION('ref_axis',(4.48967085731056E-011,0.,-1.));
#260=CARTESIAN_POINT('',(0.,0.,0.));
#261=CARTESIAN_POINT('Origin',(22.,0.,48.000000000988));
#262=CARTESIAN_POINT('',(16.4544826719043,9.5,48.000000000739));
#263=CARTESIAN_POINT('Ctrl Pts',(16.4544826719043,9.5,48.000000000739));
#264=CARTESIAN_POINT('Ctrl Pts',(16.4544826719043,9.5,49.2188981368751));
#265=CARTESIAN_POINT('Ctrl Pts',(16.6043416415552,9.25191305252528,50.4998167127627));
#266=CARTESIAN_POINT('Ctrl Pts',(17.1113621183815,8.27667274248401,52.8315324161108));
#267=CARTESIAN_POINT('Ctrl Pts',(17.4581544417195,7.55018036723237,53.8848484761));
#268=CARTESIAN_POINT('Ctrl Pts',(18.0867327956733,5.88711836314797,55.5479104802049));
#269=CARTESIAN_POINT('Ctrl Pts',(18.4135159898766,4.83303720207975,56.2760682601139));
#270=CARTESIAN_POINT('Ctrl Pts',(18.8726236993311,2.49797821714358,57.252657106604));
#271=CARTESIAN_POINT('Ctrl Pts',(19.,1.21557536053338,57.5000000008533));
#272=CARTESIAN_POINT('Ctrl Pts',(19.,-1.21557536053338,57.5000000008533));
#273=CARTESIAN_POINT('Ctrl Pts',(18.8726236993311,-2.49797821714358,57.252657106604));
#274=CARTESIAN_POINT('Ctrl Pts',(18.4135159898766,-4.83303720207975,56.2760682601139));
#275=CARTESIAN_POINT('Ctrl Pts',(18.0867327956733,-5.88711836314797,55.5479104802049));
#276=CARTESIAN_POINT('Ctrl Pts',(17.4581544417195,-7.55018036723237,53.8848484761));
#277=CARTESIAN_POINT('Ctrl Pts',(17.1113621183815,-8.27667274248401,52.8315324161108));
#278=CARTESIAN_POINT('Ctrl Pts',(16.6043416415552,-9.25191305252528,50.4998167127627));
#279=CARTESIAN_POINT('Ctrl Pts',(16.4544826719043,-9.5,49.2188981368751));
#280=CARTESIAN_POINT('Ctrl Pts',(16.4544826719043,-9.5,46.7811018646258));
#281=CARTESIAN_POINT('Ctrl Pts',(16.6043416415506,-9.25191305253315,45.5001832887602));
#282=CARTESIAN_POINT('Ctrl Pts',(17.1113621183714,-8.27667274250428,43.1684675854622));
#283=CARTESIAN_POINT('Ctrl Pts',(17.4581544417084,-7.55018036725728,42.1151515255008));
#284=CARTESIAN_POINT('Ctrl Pts',(18.0867327956662,-5.88711836317102,40.4520895214351));
#285=CARTESIAN_POINT('Ctrl Pts',(18.4135159898735,-4.83303720209337,39.7239317415469));
#286=CARTESIAN_POINT('Ctrl Pts',(18.8726236993313,-2.49797821714468,38.7473428950905));
#287=CARTESIAN_POINT('Ctrl Pts',(19.,-1.21557536053172,38.5000000008533));
#288=CARTESIAN_POINT('Ctrl Pts',(19.,1.21557536053171,38.5000000008533));
#289=CARTESIAN_POINT('Ctrl Pts',(18.8726236993313,2.49797821714467,38.7473428950905));
#290=CARTESIAN_POINT('Ctrl Pts',(18.4135159898735,4.83303720209337,39.7239317415469));
#291=CARTESIAN_POINT('Ctrl Pts',(18.0867327956662,5.88711836317102,40.4520895214351));
#292=CARTESIAN_POINT('Ctrl Pts',(17.4581544417084,7.55018036725728,42.1151515255008));
#293=CARTESIAN_POINT('Ctrl Pts',(17.1113621183714,8.27667274250428,43.1684675854622));
#294=CARTESIAN_POINT('Ctrl Pts',(16.6043416415506,9.25191305253314,45.5001832887602));
#295=CARTESIAN_POINT('Ctrl Pts',(16.4544826719043,9.5,46.7811018646258));
#296=CARTESIAN_POINT('Ctrl Pts',(16.4544826719043,9.5,48.000000000739));
#297=CARTESIAN_POINT('',(22.0000000004265,1.16341445918999E-015,38.500000000988));
#298=CARTESIAN_POINT('Origin',(22.,0.,48.000000000988));
#299=CARTESIAN_POINT('Origin',(0.,0.,70.));
#300=CARTESIAN_POINT('',(19.,2.32682891837997E-015,26.));
#301=CARTESIAN_POINT('Origin',(0.,0.,26.));
#302=CARTESIAN_POINT('',(19.,2.32682891837997E-015,70.));
#303=CARTESIAN_POINT('Origin',(0.,0.,70.));
#304=CARTESIAN_POINT('Origin',(0.,0.,13.));
#305=CARTESIAN_POINT('',(-20.,-2.449213E-015,26.));
#306=CARTESIAN_POINT('Origin',(0.,0.,26.));
#307=CARTESIAN_POINT('',(-20.,-2.449213E-015,0.));
#308=CARTESIAN_POINT('Origin',(0.,0.,0.));
#309=CARTESIAN_POINT('Origin',(0.,0.,0.));
#310=CARTESIAN_POINT('',(20.365411854416,-14.5,48.000000000914));
#311=CARTESIAN_POINT('',(25.,-4.837195E-015,33.500000001122));
#312=CARTESIAN_POINT('Ctrl Pts',(20.3654118544163,-14.5,48.0000000009143));
#313=CARTESIAN_POINT('Ctrl Pts',(20.3654118544163,-14.5,47.0606169261239));
#314=CARTESIAN_POINT('Ctrl Pts',(20.432370390086,-14.4073346784503,46.0999579958484));
#315=CARTESIAN_POINT('Ctrl Pts',(20.6943552315852,-14.0284251960419,44.2072781464812));
#316=CARTESIAN_POINT('Ctrl Pts',(20.8887964997251,-13.7423706896215,43.2751383299552));
#317=CARTESIAN_POINT('Ctrl Pts',(21.5964389346097,-12.6242610569604,40.6117328578805));
#318=CARTESIAN_POINT('Ctrl Pts',(22.2314603063155,-11.5190758799985,39.0129792265867));
#319=CARTESIAN_POINT('Ctrl Pts',(23.3669608575641,-8.9939454725295,36.4878488191687));
#320=CARTESIAN_POINT('Ctrl Pts',(23.9516164173438,-7.39318447975276,35.3777810786188));
#321=CARTESIAN_POINT('Ctrl Pts',(24.5669680135409,-4.7221669307663,34.2565091415389));
#322=CARTESIAN_POINT('Ctrl Pts',(24.7298345600705,-3.78731580907509,33.9700757966407));
#323=CARTESIAN_POINT('Ctrl Pts',(24.9464146606997,-1.89337634557717,33.5917502725806));
#324=CARTESIAN_POINT('Ctrl Pts',(25.,-0.934245000033783,33.5000000011224));
#325=CARTESIAN_POINT('Ctrl Pts',(25.,2.77555756156289E-016,33.5000000011224));
#326=CARTESIAN_POINT('',(25.,-6.123032E-015,62.500000001122));
#327=CARTESIAN_POINT('Ctrl Pts',(20.3654118544163,-14.5,48.0000000009143));
#328=CARTESIAN_POINT('Ctrl Pts',(20.3654118544163,-14.5,48.939383075715));
#329=CARTESIAN_POINT('Ctrl Pts',(20.4323703900873,-14.4073346784484,49.9000420060006));
#330=CARTESIAN_POINT('Ctrl Pts',(20.6943552315877,-14.0284251960381,51.7927218553911));
#331=CARTESIAN_POINT('Ctrl Pts',(20.8887964997275,-13.7423706896178,52.7248616719302));
#332=CARTESIAN_POINT('Ctrl Pts',(21.5964389346082,-12.6242610569626,55.3882671440519));
#333=CARTESIAN_POINT('Ctrl Pts',(22.2314603063067,-11.5190758800138,56.9870207753873));
#334=CARTESIAN_POINT('Ctrl Pts',(23.3669608575485,-8.99394547256831,59.5121511828976));
#335=CARTESIAN_POINT('Ctrl Pts',(23.9516164173301,-7.39318447979826,60.6222189235063));
#336=CARTESIAN_POINT('Ctrl Pts',(24.5669680135333,-4.7221669308064,61.7434908606535));
#337=CARTESIAN_POINT('Ctrl Pts',(24.7298345600653,-3.78731580911076,62.0299242055708));
#338=CARTESIAN_POINT('Ctrl Pts',(24.9464146606983,-1.89337634559873,62.4082497296571));
#339=CARTESIAN_POINT('Ctrl Pts',(25.,-0.934245000045635,62.5000000011224));
#340=CARTESIAN_POINT('Ctrl Pts',(25.,-1.80411241501588E-015,62.5000000011224));
#341=CARTESIAN_POINT('',(20.365411854416,14.5,48.000000000914));
#342=CARTESIAN_POINT('Ctrl Pts',(25.,1.66533453693773E-015,62.5000000011224));
#343=CARTESIAN_POINT('Ctrl Pts',(25.,0.934245000045633,62.5000000011224));
#344=CARTESIAN_POINT('Ctrl Pts',(24.9464146606983,1.89337634559873,62.4082497296571));
#345=CARTESIAN_POINT('Ctrl Pts',(24.7298345600653,3.78731580911076,62.0299242055708));
#346=CARTESIAN_POINT('Ctrl Pts',(24.5669680135333,4.7221669308064,61.7434908606535));
#347=CARTESIAN_POINT('Ctrl Pts',(23.9516164173301,7.39318447979826,60.6222189235063));
#348=CARTESIAN_POINT('Ctrl Pts',(23.3669608575485,8.99394547256831,59.5121511828976));
#349=CARTESIAN_POINT('Ctrl Pts',(22.2314603063067,11.5190758800138,56.9870207753873));
#350=CARTESIAN_POINT('Ctrl Pts',(21.5964389346082,12.6242610569626,55.3882671440519));
#351=CARTESIAN_POINT('Ctrl Pts',(20.8887964997275,13.7423706896178,52.7248616719302));
#352=CARTESIAN_POINT('Ctrl Pts',(20.6943552315877,14.0284251960381,51.7927218553911));
#353=CARTESIAN_POINT('Ctrl Pts',(20.4323703900873,14.4073346784484,49.9000420060007));
#354=CARTESIAN_POINT('Ctrl Pts',(20.3654118544163,14.5,48.939383075715));
#355=CARTESIAN_POINT('Ctrl Pts',(20.3654118544163,14.5,48.0000000009143));
#356=CARTESIAN_POINT('Ctrl Pts',(25.,-3.46944695195361E-015,33.5000000011224));
#357=CARTESIAN_POINT('Ctrl Pts',(25.,0.934245000030264,33.5000000011224));
#358=CARTESIAN_POINT('Ctrl Pts',(24.9464146607001,1.89337634557022,33.5917502725799));
#359=CARTESIAN_POINT('Ctrl Pts',(24.7298345600724,3.7873158090618,33.9700757966374));
#360=CARTESIAN_POINT('Ctrl Pts',(24.5669680135439,4.72216693075011,34.2565091415336));
#361=CARTESIAN_POINT('Ctrl Pts',(23.9516164173507,7.39318447972911,35.3777810786059));
#362=CARTESIAN_POINT('Ctrl Pts',(23.3669608575743,8.99394547250254,36.4878488191487));
#363=CARTESIAN_POINT('Ctrl Pts',(22.2314603063263,11.5190758799786,39.0129792265599));
#364=CARTESIAN_POINT('Ctrl Pts',(21.5964389346174,12.6242610569477,40.6117328578571));
#365=CARTESIAN_POINT('Ctrl Pts',(20.8887964997287,13.7423706896162,43.2751383299392));
#366=CARTESIAN_POINT('Ctrl Pts',(20.6943552315874,14.0284251960386,44.207278146468));
#367=CARTESIAN_POINT('Ctrl Pts',(20.4323703900865,14.4073346784496,46.0999579958415));
#368=CARTESIAN_POINT('Ctrl Pts',(20.3654118544163,14.5,47.0606169261204));
#369=CARTESIAN_POINT('Ctrl Pts',(20.3654118544163,14.5,48.0000000009143));
#370=CARTESIAN_POINT('',(25.,-6.123032E-015,0.));
#371=CARTESIAN_POINT('Origin',(0.,0.,0.));
#372=CARTESIAN_POINT('',(-25.,-3.061516E-015,96.));
#373=CARTESIAN_POINT('Origin',(0.,0.,96.));
#374=CARTESIAN_POINT('Origin',(0.,0.,48.));
#375=CARTESIAN_POINT('',(37.999999999349,-1.775679E-015,62.5000000017061));
#376=CARTESIAN_POINT('Origin',(38.,0.,48.000000001706));
#377=CARTESIAN_POINT('Origin',(0.,0.,83.));
#378=CARTESIAN_POINT('',(-20.,-2.449213E-015,96.));
#379=CARTESIAN_POINT('Origin',(0.,0.,96.));
#380=CARTESIAN_POINT('',(-20.,-2.449213E-015,70.));
#381=CARTESIAN_POINT('Origin',(0.,0.,70.));
#382=CARTESIAN_POINT('Origin',(30.,0.,48.0000000013472));
#383=CARTESIAN_POINT('',(37.999999999551,-1.224606E-015,58.0000000017063));
#384=CARTESIAN_POINT('Origin',(38.,0.,48.000000001706));
#385=CARTESIAN_POINT('',(21.999999999551,-1.224606E-015,58.000000000988));
#386=CARTESIAN_POINT('Origin',(22.,0.,48.000000000988));
#387=CARTESIAN_POINT('Origin',(0.,0.,0.));
#388=CARTESIAN_POINT('Origin',(0.,0.,26.));
#389=CARTESIAN_POINT('Origin',(0.,0.,96.));
#390=CARTESIAN_POINT('Origin',(38.,0.,48.000000001706));
#391=CARTESIAN_POINT('Origin',(0.,0.,70.));
#392=CARTESIAN_POINT('Origin',(22.,0.,48.000000000988));
#393=UNCERTAINTY_MEASURE_WITH_UNIT(LENGTH_MEASURE(0.01),#395,
'DISTANCE_ACCURACY_VALUE',
'Maximum model space distance between geometric entities at asserted c
onnectivities');
#394=(
GEOMETRIC_REPRESENTATION_CONTEXT(3)
GLOBAL_UNCERTAINTY_ASSIGNED_CONTEXT((#393))
GLOBAL_UNIT_ASSIGNED_CONTEXT((#395,#398,#396))
REPRESENTATION_CONTEXT('','3D')
);
#395=(
LENGTH_UNIT()
NAMED_UNIT(*)
SI_UNIT(.MILLI.,.METRE.)
);
#396=(
NAMED_UNIT(*)
SI_UNIT($,.STERADIAN.)
SOLID_ANGLE_UNIT()
);
#397=DIMENSIONAL_EXPONENTS(0.,0.,0.,0.,0.,0.,0.);
#398=(
CONVERSION_BASED_UNIT('degree',#400)
NAMED_UNIT(#397)
PLANE_ANGLE_UNIT()
);
#399=(
NAMED_UNIT(*)
PLANE_ANGLE_UNIT()
SI_UNIT($,.RADIAN.)
);
#400=PLANE_ANGLE_MEASURE_WITH_UNIT(PLANE_ANGLE_MEASURE(0.01745329252),#399);
#401=SHAPE_DEFINITION_REPRESENTATION(#402,#403);
#402=PRODUCT_DEFINITION_SHAPE('',$,#405);
#403=SHAPE_REPRESENTATION('',(#182),#394);
#404=PRODUCT_DEFINITION_CONTEXT('3D Mechanical Parts',#408,'design');
#405=PRODUCT_DEFINITION('TRIV040020','TRIV040020',#406,#404);
#406=PRODUCT_DEFINITION_FORMATION('',$,#410);
#407=APPLICATION_PROTOCOL_DEFINITION('international standard',
'automotive_design',2009,#408);
#408=APPLICATION_CONTEXT(
'Core Data for Automotive Mechanical Design Process');
#409=PRODUCT_CONTEXT('3D Mechanical Parts',#408,'mechanical');
#410=PRODUCT('TRIV040020','TRIV040020',$,(#409));
#411=PRESENTATION_STYLE_ASSIGNMENT((#412));
#412=SURFACE_STYLE_USAGE(.BOTH.,#413);
#413=SURFACE_SIDE_STYLE($,(#414));
#414=SURFACE_STYLE_FILL_AREA(#415);
#415=FILL_AREA_STYLE($,(#416));
#416=FILL_AREA_STYLE_COLOUR($,#417);
#417=COLOUR_RGB('',0.509803921568627,0.509803921568627,0.588235294117647);
ENDSEC;
END-ISO-10303-21;
