ISO-10303-21;
HEADER;
/* Generated by software containing ST-Developer
 * from STEP Tools, Inc. (www.steptools.com) 
 */

FILE_DESCRIPTION(
/* description */ (''),
/* implementation_level */ '2;1');

FILE_NAME(
/* name */ 
'Q:\\Ric010\\FF7\\FIPlastiCAD\\FIP\\Lavoro\\PVC Fittings\\PVC Fittings
 STEP\\TRIV\\TRIV032020.ipt.stp',
/* time_stamp */ '2013-10-01T14:56:21+02:00',
/* author */ ('bfaro'),
/* organization */ (''),
/* preprocessor_version */ 'ST-DEVELOPER v15.2',
/* originating_system */ 'Autodesk Inventor 2014',
/* authorisation */ '');

FILE_SCHEMA (('AUTOMOTIVE_DESIGN { 1 0 10303 214 3 1 1 }'));
ENDSEC;

DATA;
#10=SHAPE_REPRESENTATION_RELATIONSHIP('SRR','None',#411,#11);
#11=ADVANCED_BREP_SHAPE_REPRESENTATION($,(#181),#402);
#12=STYLED_ITEM($,(#419),#181);
#13=PLANE($,#202);
#14=PLANE($,#203);
#15=PLANE($,#204);
#16=PLANE($,#205);
#17=PLANE($,#206);
#18=PLANE($,#207);
#19=FACE_BOUND($,#60,.T.);
#20=FACE_BOUND($,#61,.T.);
#21=FACE_BOUND($,#62,.T.);
#22=FACE_BOUND($,#63,.T.);
#23=FACE_BOUND($,#65,.T.);
#24=FACE_BOUND($,#66,.T.);
#25=FACE_BOUND($,#67,.T.);
#26=FACE_BOUND($,#68,.T.);
#27=FACE_BOUND($,#70,.T.);
#28=FACE_BOUND($,#72,.T.);
#29=FACE_BOUND($,#74,.T.);
#30=FACE_BOUND($,#76,.T.);
#31=FACE_BOUND($,#77,.T.);
#32=FACE_BOUND($,#78,.T.);
#33=FACE_BOUND($,#80,.T.);
#34=FACE_BOUND($,#82,.T.);
#35=FACE_BOUND($,#83,.T.);
#36=FACE_BOUND($,#84,.T.);
#37=FACE_BOUND($,#85,.T.);
#38=FACE_BOUND($,#86,.T.);
#39=CIRCLE($,#184,9.5);
#40=CIRCLE($,#186,15.5);
#41=CIRCLE($,#187,15.5);
#42=CIRCLE($,#189,16.);
#43=CIRCLE($,#190,16.);
#44=CIRCLE($,#192,20.5);
#45=CIRCLE($,#193,20.5);
#46=CIRCLE($,#195,14.);
#47=CIRCLE($,#197,16.);
#48=CIRCLE($,#198,16.);
#49=CIRCLE($,#200,10.);
#50=CIRCLE($,#201,10.);
#51=FACE_OUTER_BOUND($,#59,.T.);
#52=FACE_OUTER_BOUND($,#64,.T.);
#53=FACE_OUTER_BOUND($,#69,.T.);
#54=FACE_OUTER_BOUND($,#71,.T.);
#55=FACE_OUTER_BOUND($,#73,.T.);
#56=FACE_OUTER_BOUND($,#75,.T.);
#57=FACE_OUTER_BOUND($,#79,.T.);
#58=FACE_OUTER_BOUND($,#81,.T.);
#59=EDGE_LOOP($,(#126));
#60=EDGE_LOOP($,(#127));
#61=EDGE_LOOP($,(#128));
#62=EDGE_LOOP($,(#129));
#63=EDGE_LOOP($,(#130));
#64=EDGE_LOOP($,(#131));
#65=EDGE_LOOP($,(#132));
#66=EDGE_LOOP($,(#133,#134,#135,#136));
#67=EDGE_LOOP($,(#137));
#68=EDGE_LOOP($,(#138));
#69=EDGE_LOOP($,(#139,#140,#141,#142));
#70=EDGE_LOOP($,(#143));
#71=EDGE_LOOP($,(#144));
#72=EDGE_LOOP($,(#145));
#73=EDGE_LOOP($,(#146));
#74=EDGE_LOOP($,(#147));
#75=EDGE_LOOP($,(#148));
#76=EDGE_LOOP($,(#149));
#77=EDGE_LOOP($,(#150));
#78=EDGE_LOOP($,(#151));
#79=EDGE_LOOP($,(#152));
#80=EDGE_LOOP($,(#153));
#81=EDGE_LOOP($,(#154));
#82=EDGE_LOOP($,(#155));
#83=EDGE_LOOP($,(#156));
#84=EDGE_LOOP($,(#157));
#85=EDGE_LOOP($,(#158));
#86=EDGE_LOOP($,(#159));
#87=B_SPLINE_CURVE_WITH_KNOTS($,3,(#263,#264,#265,#266,#267,#268,#269,#270,
#271,#272,#273,#274,#275,#276,#277,#278,#279,#280,#281,#282,#283,#284,#285,
#286,#287,#288,#289,#290,#291,#292,#293,#294,#295,#296,#297,#298,#299,#300,
#301,#302,#303,#304),.UNSPECIFIED.,.T.,.F.,(4,2,2,2,2,2,2,2,2,2,2,2,2,2,
2,2,2,2,2,2,4),(0.,0.185566103907664,0.371132207815329,0.742264415630657,
1.11073657800759,1.47920874038453,1.84768090276146,2.2161530651384,2.58728527295373,
2.77285137686139,2.95841748076906,3.1439835846723,3.32954968857555,3.70068189638205,
4.06915405875848,4.4376262211349,4.80609838351133,5.17457054588776,5.54570275369426,
5.7312688575975,5.91683496150075),.UNSPECIFIED.);
#88=B_SPLINE_CURVE_WITH_KNOTS($,3,(#320,#321,#322,#323,#324,#325,#326,#327,
#328,#329,#330,#331,#332,#333),.UNSPECIFIED.,.F.,.F.,(4,2,2,2,2,2,4),(4.40633156018179,
4.68345867820344,4.96058579622509,5.51484003226839,6.06216868625476,6.33583301324795,
6.60949734024114),.UNSPECIFIED.);
#89=B_SPLINE_CURVE_WITH_KNOTS($,3,(#335,#336,#337,#338,#339,#340,#341,#342,
#343,#344,#345,#346,#347,#348),.UNSPECIFIED.,.F.,.F.,(4,2,2,2,2,2,4),(-4.40633156018179,
-4.12920444215641,-3.85207732413103,-3.29782308808028,-2.75049443408558,
-2.47683010708823,-2.20316578009088),.UNSPECIFIED.);
#90=B_SPLINE_CURVE_WITH_KNOTS($,3,(#350,#351,#352,#353,#354,#355,#356,#357,
#358,#359,#360,#361,#362,#363),.UNSPECIFIED.,.F.,.F.,(4,2,2,2,2,2,4),(6.60949734020976,
6.88316166720711,7.15682599420447,7.70415464819917,8.25840888424992,8.53553600227529,
8.81266312030067),.UNSPECIFIED.);
#91=B_SPLINE_CURVE_WITH_KNOTS($,3,(#364,#365,#366,#367,#368,#369,#370,#371,
#372,#373,#374,#375,#376,#377),.UNSPECIFIED.,.F.,.F.,(4,2,2,2,2,2,4),(-2.20316578005944,
-1.92950145306753,-1.65583712607561,-1.10850847209178,-0.554254236045907,
-0.277127118022969,-3.19744231092045E-014),.UNSPECIFIED.);
#92=VERTEX_POINT($,#262);
#93=VERTEX_POINT($,#305);
#94=VERTEX_POINT($,#308);
#95=VERTEX_POINT($,#310);
#96=VERTEX_POINT($,#313);
#97=VERTEX_POINT($,#315);
#98=VERTEX_POINT($,#318);
#99=VERTEX_POINT($,#319);
#100=VERTEX_POINT($,#334);
#101=VERTEX_POINT($,#349);
#102=VERTEX_POINT($,#378);
#103=VERTEX_POINT($,#380);
#104=VERTEX_POINT($,#383);
#105=VERTEX_POINT($,#386);
#106=VERTEX_POINT($,#388);
#107=VERTEX_POINT($,#391);
#108=VERTEX_POINT($,#393);
#109=EDGE_CURVE($,#92,#92,#87,.T.);
#110=EDGE_CURVE($,#93,#93,#39,.T.);
#111=EDGE_CURVE($,#94,#94,#40,.T.);
#112=EDGE_CURVE($,#95,#95,#41,.T.);
#113=EDGE_CURVE($,#96,#96,#42,.T.);
#114=EDGE_CURVE($,#97,#97,#43,.T.);
#115=EDGE_CURVE($,#98,#99,#88,.T.);
#116=EDGE_CURVE($,#98,#100,#89,.T.);
#117=EDGE_CURVE($,#100,#101,#90,.T.);
#118=EDGE_CURVE($,#99,#101,#91,.T.);
#119=EDGE_CURVE($,#102,#102,#44,.T.);
#120=EDGE_CURVE($,#103,#103,#45,.T.);
#121=EDGE_CURVE($,#104,#104,#46,.T.);
#122=EDGE_CURVE($,#105,#105,#47,.T.);
#123=EDGE_CURVE($,#106,#106,#48,.T.);
#124=EDGE_CURVE($,#107,#107,#49,.T.);
#125=EDGE_CURVE($,#108,#108,#50,.T.);
#126=ORIENTED_EDGE($,*,*,#109,.F.);
#127=ORIENTED_EDGE($,*,*,#110,.F.);
#128=ORIENTED_EDGE($,*,*,#109,.T.);
#129=ORIENTED_EDGE($,*,*,#111,.F.);
#130=ORIENTED_EDGE($,*,*,#112,.F.);
#131=ORIENTED_EDGE($,*,*,#113,.T.);
#132=ORIENTED_EDGE($,*,*,#114,.F.);
#133=ORIENTED_EDGE($,*,*,#115,.F.);
#134=ORIENTED_EDGE($,*,*,#116,.T.);
#135=ORIENTED_EDGE($,*,*,#117,.T.);
#136=ORIENTED_EDGE($,*,*,#118,.F.);
#137=ORIENTED_EDGE($,*,*,#119,.T.);
#138=ORIENTED_EDGE($,*,*,#120,.F.);
#139=ORIENTED_EDGE($,*,*,#116,.F.);
#140=ORIENTED_EDGE($,*,*,#115,.T.);
#141=ORIENTED_EDGE($,*,*,#118,.T.);
#142=ORIENTED_EDGE($,*,*,#117,.F.);
#143=ORIENTED_EDGE($,*,*,#121,.F.);
#144=ORIENTED_EDGE($,*,*,#122,.T.);
#145=ORIENTED_EDGE($,*,*,#123,.F.);
#146=ORIENTED_EDGE($,*,*,#124,.T.);
#147=ORIENTED_EDGE($,*,*,#125,.F.);
#148=ORIENTED_EDGE($,*,*,#119,.F.);
#149=ORIENTED_EDGE($,*,*,#114,.T.);
#150=ORIENTED_EDGE($,*,*,#111,.T.);
#151=ORIENTED_EDGE($,*,*,#113,.F.);
#152=ORIENTED_EDGE($,*,*,#120,.T.);
#153=ORIENTED_EDGE($,*,*,#122,.F.);
#154=ORIENTED_EDGE($,*,*,#121,.T.);
#155=ORIENTED_EDGE($,*,*,#124,.F.);
#156=ORIENTED_EDGE($,*,*,#112,.T.);
#157=ORIENTED_EDGE($,*,*,#123,.T.);
#158=ORIENTED_EDGE($,*,*,#110,.T.);
#159=ORIENTED_EDGE($,*,*,#125,.T.);
#160=CYLINDRICAL_SURFACE($,#183,9.5);
#161=CYLINDRICAL_SURFACE($,#185,15.5);
#162=CYLINDRICAL_SURFACE($,#188,16.);
#163=CYLINDRICAL_SURFACE($,#191,20.5);
#164=CYLINDRICAL_SURFACE($,#194,14.);
#165=CYLINDRICAL_SURFACE($,#196,16.);
#166=CYLINDRICAL_SURFACE($,#199,10.);
#167=ADVANCED_FACE($,(#51,#19),#160,.F.);
#168=ADVANCED_FACE($,(#20,#21,#22),#161,.F.);
#169=ADVANCED_FACE($,(#52,#23),#162,.F.);
#170=ADVANCED_FACE($,(#24,#25,#26),#163,.T.);
#171=ADVANCED_FACE($,(#53,#27),#164,.T.);
#172=ADVANCED_FACE($,(#54,#28),#165,.F.);
#173=ADVANCED_FACE($,(#55,#29),#166,.F.);
#174=ADVANCED_FACE($,(#56,#30),#13,.T.);
#175=ADVANCED_FACE($,(#31,#32),#14,.T.);
#176=ADVANCED_FACE($,(#57,#33),#15,.T.);
#177=ADVANCED_FACE($,(#58,#34),#16,.T.);
#178=ADVANCED_FACE($,(#35,#36),#17,.T.);
#179=ADVANCED_FACE($,(#37,#38),#18,.T.);
#180=CLOSED_SHELL($,(#167,#168,#169,#170,#171,#172,#173,#174,#175,#176,
#177,#178,#179));
#181=MANIFOLD_SOLID_BREP('Solido1',#180);
#182=AXIS2_PLACEMENT_3D('placement',#260,#208,#209);
#183=AXIS2_PLACEMENT_3D($,#261,#210,#211);
#184=AXIS2_PLACEMENT_3D($,#306,#212,#213);
#185=AXIS2_PLACEMENT_3D($,#307,#214,#215);
#186=AXIS2_PLACEMENT_3D($,#309,#216,#217);
#187=AXIS2_PLACEMENT_3D($,#311,#218,#219);
#188=AXIS2_PLACEMENT_3D($,#312,#220,#221);
#189=AXIS2_PLACEMENT_3D($,#314,#222,#223);
#190=AXIS2_PLACEMENT_3D($,#316,#224,#225);
#191=AXIS2_PLACEMENT_3D($,#317,#226,#227);
#192=AXIS2_PLACEMENT_3D($,#379,#228,#229);
#193=AXIS2_PLACEMENT_3D($,#381,#230,#231);
#194=AXIS2_PLACEMENT_3D($,#382,#232,#233);
#195=AXIS2_PLACEMENT_3D($,#384,#234,#235);
#196=AXIS2_PLACEMENT_3D($,#385,#236,#237);
#197=AXIS2_PLACEMENT_3D($,#387,#238,#239);
#198=AXIS2_PLACEMENT_3D($,#389,#240,#241);
#199=AXIS2_PLACEMENT_3D($,#390,#242,#243);
#200=AXIS2_PLACEMENT_3D($,#392,#244,#245);
#201=AXIS2_PLACEMENT_3D($,#394,#246,#247);
#202=AXIS2_PLACEMENT_3D($,#395,#248,#249);
#203=AXIS2_PLACEMENT_3D($,#396,#250,#251);
#204=AXIS2_PLACEMENT_3D($,#397,#252,#253);
#205=AXIS2_PLACEMENT_3D($,#398,#254,#255);
#206=AXIS2_PLACEMENT_3D($,#399,#256,#257);
#207=AXIS2_PLACEMENT_3D($,#400,#258,#259);
#208=DIRECTION('axis',(0.,0.,1.));
#209=DIRECTION('refdir',(1.,0.,0.));
#210=DIRECTION('center_axis',(-1.,0.,-4.48965180652706E-011));
#211=DIRECTION('ref_axis',(-4.48965180652706E-011,0.,1.));
#212=DIRECTION('center_axis',(-1.,0.,-4.489664E-011));
#213=DIRECTION('ref_axis',(-4.48965180652706E-011,0.,1.));
#214=DIRECTION('center_axis',(0.,0.,-1.));
#215=DIRECTION('ref_axis',(-1.,0.,0.));
#216=DIRECTION('center_axis',(0.,0.,1.));
#217=DIRECTION('ref_axis',(-1.,0.,0.));
#218=DIRECTION('center_axis',(0.,0.,-1.));
#219=DIRECTION('ref_axis',(-1.,0.,0.));
#220=DIRECTION('center_axis',(0.,0.,1.));
#221=DIRECTION('ref_axis',(1.,0.,0.));
#222=DIRECTION('center_axis',(0.,0.,1.));
#223=DIRECTION('ref_axis',(1.,0.,0.));
#224=DIRECTION('center_axis',(0.,0.,1.));
#225=DIRECTION('ref_axis',(1.,0.,0.));
#226=DIRECTION('center_axis',(0.,0.,1.));
#227=DIRECTION('ref_axis',(1.,0.,0.));
#228=DIRECTION('center_axis',(0.,0.,1.));
#229=DIRECTION('ref_axis',(1.,0.,0.));
#230=DIRECTION('center_axis',(0.,0.,1.));
#231=DIRECTION('ref_axis',(1.,0.,0.));
#232=DIRECTION('center_axis',(1.,0.,4.489664E-011));
#233=DIRECTION('ref_axis',(4.489664E-011,0.,-1.));
#234=DIRECTION('center_axis',(1.,0.,4.489664E-011));
#235=DIRECTION('ref_axis',(4.489664E-011,0.,-1.));
#236=DIRECTION('center_axis',(0.,0.,1.));
#237=DIRECTION('ref_axis',(1.,0.,0.));
#238=DIRECTION('center_axis',(0.,0.,1.));
#239=DIRECTION('ref_axis',(1.,0.,0.));
#240=DIRECTION('center_axis',(0.,0.,1.));
#241=DIRECTION('ref_axis',(1.,0.,0.));
#242=DIRECTION('center_axis',(1.,2.21565352695509E-015,4.48978228333048E-011));
#243=DIRECTION('ref_axis',(4.48978632050512E-011,0.,-1.));
#244=DIRECTION('center_axis',(1.,0.,4.489664E-011));
#245=DIRECTION('ref_axis',(4.489664E-011,0.,-1.));
#246=DIRECTION('center_axis',(1.,0.,4.489664E-011));
#247=DIRECTION('ref_axis',(4.489664E-011,0.,-1.));
#248=DIRECTION('center_axis',(0.,0.,-1.));
#249=DIRECTION('ref_axis',(-1.,0.,0.));
#250=DIRECTION('center_axis',(0.,0.,-1.));
#251=DIRECTION('ref_axis',(-1.,0.,0.));
#252=DIRECTION('center_axis',(0.,0.,1.));
#253=DIRECTION('ref_axis',(1.,0.,0.));
#254=DIRECTION('center_axis',(1.,0.,4.489664E-011));
#255=DIRECTION('ref_axis',(4.48963533017377E-011,0.,-1.));
#256=DIRECTION('center_axis',(0.,0.,1.));
#257=DIRECTION('ref_axis',(1.,0.,0.));
#258=DIRECTION('center_axis',(1.,0.,4.489664E-011));
#259=DIRECTION('ref_axis',(4.48967085731056E-011,0.,-1.));
#260=CARTESIAN_POINT('',(0.,0.,0.));
#261=CARTESIAN_POINT('Origin',(17.5,0.,39.500000000786));
#262=CARTESIAN_POINT('',(12.2474487139159,9.5,39.5000000005502));
#263=CARTESIAN_POINT('Ctrl Pts',(12.2474487139159,9.5,39.5000000005502));
#264=CARTESIAN_POINT('Ctrl Pts',(12.2474487139159,9.5,40.1185536802424));
#265=CARTESIAN_POINT('Ctrl Pts',(12.2957403506614,9.43870191568664,40.7497184360049));
#266=CARTESIAN_POINT('Ctrl Pts',(12.4831787035649,9.18937287759506,41.9912479504026));
#267=CARTESIAN_POINT('Ctrl Pts',(12.621850224811,9.00147675091028,42.6017114764241));
#268=CARTESIAN_POINT('Ctrl Pts',(13.1237211112836,8.26853223406556,44.3446102326688));
#269=CARTESIAN_POINT('Ctrl Pts',(13.5704389369984,7.54570846875855,45.3893203744003));
#270=CARTESIAN_POINT('Ctrl Pts',(14.3641365563441,5.89525635491916,47.0397724882656));
#271=CARTESIAN_POINT('Ctrl Pts',(14.7708852377436,4.84896957758552,47.7666934882647));
#272=CARTESIAN_POINT('Ctrl Pts',(15.3414184326899,2.51643385057779,48.7476101629737));
#273=CARTESIAN_POINT('Ctrl Pts',(15.5,1.22824054125645,49.0000000006962));
#274=CARTESIAN_POINT('Ctrl Pts',(15.5,-1.22824054125645,49.0000000006962));
#275=CARTESIAN_POINT('Ctrl Pts',(15.3414184326899,-2.51643385057778,48.7476101629738));
#276=CARTESIAN_POINT('Ctrl Pts',(14.7708852377436,-4.84896957758552,47.7666934882647));
#277=CARTESIAN_POINT('Ctrl Pts',(14.3641365563441,-5.89525635491916,47.0397724882656));
#278=CARTESIAN_POINT('Ctrl Pts',(13.5704389369984,-7.54570846875855,45.3893203744003));
#279=CARTESIAN_POINT('Ctrl Pts',(13.1237211112836,-8.26853223406556,44.3446102326688));
#280=CARTESIAN_POINT('Ctrl Pts',(12.621850224811,-9.00147675091028,42.6017114764241));
#281=CARTESIAN_POINT('Ctrl Pts',(12.4831787035649,-9.18937287759506,41.9912479504026));
#282=CARTESIAN_POINT('Ctrl Pts',(12.2957403506614,-9.43870191568664,40.7497184360049));
#283=CARTESIAN_POINT('Ctrl Pts',(12.2474487139159,-9.5,40.1185536802424));
#284=CARTESIAN_POINT('Ctrl Pts',(12.2474487139159,-9.5,38.8814463208727));
#285=CARTESIAN_POINT('Ctrl Pts',(12.2957403506592,-9.43870191568945,38.2502815651244));
#286=CARTESIAN_POINT('Ctrl Pts',(12.4831787035578,-9.18937287760471,37.0087520507563));
#287=CARTESIAN_POINT('Ctrl Pts',(12.6218502248012,-9.00147675092392,36.39828852475));
#288=CARTESIAN_POINT('Ctrl Pts',(13.1237211112675,-8.26853223409052,34.6553897685542));
#289=CARTESIAN_POINT('Ctrl Pts',(13.5704389369808,-7.54570846878928,33.6106796268593));
#290=CARTESIAN_POINT('Ctrl Pts',(14.3641365563327,-5.89525635494871,31.9602275130447));
#291=CARTESIAN_POINT('Ctrl Pts',(14.7708852377384,-4.84896957760356,31.2333065130714));
#292=CARTESIAN_POINT('Ctrl Pts',(15.3414184326902,-2.51643385058,30.2523898384038));
#293=CARTESIAN_POINT('Ctrl Pts',(15.5,-1.22824054125476,30.0000000006962));
#294=CARTESIAN_POINT('Ctrl Pts',(15.5,1.22824054125476,30.0000000006962));
#295=CARTESIAN_POINT('Ctrl Pts',(15.3414184326902,2.51643385058,30.2523898384038));
#296=CARTESIAN_POINT('Ctrl Pts',(14.7708852377384,4.84896957760356,31.2333065130714));
#297=CARTESIAN_POINT('Ctrl Pts',(14.3641365563327,5.89525635494871,31.9602275130447));
#298=CARTESIAN_POINT('Ctrl Pts',(13.5704389369808,7.54570846878928,33.6106796268593));
#299=CARTESIAN_POINT('Ctrl Pts',(13.1237211112675,8.26853223409052,34.6553897685542));
#300=CARTESIAN_POINT('Ctrl Pts',(12.6218502248012,9.00147675092392,36.39828852475));
#301=CARTESIAN_POINT('Ctrl Pts',(12.4831787035578,9.18937287760471,37.0087520507563));
#302=CARTESIAN_POINT('Ctrl Pts',(12.2957403506592,9.43870191568945,38.2502815651244));
#303=CARTESIAN_POINT('Ctrl Pts',(12.2474487139159,9.5,38.8814463208727));
#304=CARTESIAN_POINT('Ctrl Pts',(12.2474487139159,9.5,39.5000000005502));
#305=CARTESIAN_POINT('',(17.5000000004265,1.16341445918999E-015,30.000000000786));
#306=CARTESIAN_POINT('Origin',(17.5,0.,39.500000000786));
#307=CARTESIAN_POINT('Origin',(0.,0.,57.));
#308=CARTESIAN_POINT('',(15.5,1.8982025386784E-015,22.));
#309=CARTESIAN_POINT('Origin',(0.,0.,22.));
#310=CARTESIAN_POINT('',(15.5,1.8982025386784E-015,57.));
#311=CARTESIAN_POINT('Origin',(0.,0.,57.));
#312=CARTESIAN_POINT('Origin',(2.22044604925031E-015,0.,11.));
#313=CARTESIAN_POINT('',(-16.,-1.95937E-015,22.));
#314=CARTESIAN_POINT('Origin',(0.,0.,22.));
#315=CARTESIAN_POINT('',(-16.,-1.95937E-015,0.));
#316=CARTESIAN_POINT('Origin',(0.,0.,0.));
#317=CARTESIAN_POINT('Origin',(0.,0.,0.));
#318=CARTESIAN_POINT('',(14.974979131872,-14.,39.500000000672));
#319=CARTESIAN_POINT('',(20.5,-4.224892E-015,25.50000000092));
#320=CARTESIAN_POINT('Ctrl Pts',(14.9749791318719,-14.,39.5000000006723));
#321=CARTESIAN_POINT('Ctrl Pts',(14.974979131872,-14.,38.5762429406001));
#322=CARTESIAN_POINT('Ctrl Pts',(15.0631127686914,-13.9073745550757,37.6397477882142));
#323=CARTESIAN_POINT('Ctrl Pts',(15.3976097715429,-13.5361015790962,35.8054688984653));
#324=CARTESIAN_POINT('Ctrl Pts',(15.6428489371686,-13.2576819825178,34.9074342053232));
#325=CARTESIAN_POINT('Ctrl Pts',(16.5176659812772,-12.1768626973534,32.3477022983508));
#326=CARTESIAN_POINT('Ctrl Pts',(17.2801221014763,-11.1166222271394,30.8176323546919));
#327=CARTESIAN_POINT('Ctrl Pts',(18.6141371720599,-8.69757603670346,28.3985861643158));
#328=CARTESIAN_POINT('Ctrl Pts',(19.2897507163501,-7.16444405731473,27.3284524480519));
#329=CARTESIAN_POINT('Ctrl Pts',(19.9997850948614,-4.58824959935663,26.2404024090467));
#330=CARTESIAN_POINT('Ctrl Pts',(20.1876048430883,-3.68385831206062,25.9608708388775));
#331=CARTESIAN_POINT('Ctrl Pts',(20.437783163028,-1.84586585398079,25.5905927602984));
#332=CARTESIAN_POINT('Ctrl Pts',(20.5,-0.91221442331064,25.5000000009204));
#333=CARTESIAN_POINT('Ctrl Pts',(20.5,-1.38777878078145E-016,25.5000000009204));
#334=CARTESIAN_POINT('',(20.5,-5.020886E-015,53.50000000092));
#335=CARTESIAN_POINT('Ctrl Pts',(14.9749791318719,-14.,39.5000000006723));
#336=CARTESIAN_POINT('Ctrl Pts',(14.9749791318719,-14.,40.4237570607569));
#337=CARTESIAN_POINT('Ctrl Pts',(15.0631127686935,-13.9073745550735,41.360252213155));
#338=CARTESIAN_POINT('Ctrl Pts',(15.3976097715466,-13.5361015790921,43.1945311029323));
#339=CARTESIAN_POINT('Ctrl Pts',(15.6428489371717,-13.2576819825141,44.0925657960908));
#340=CARTESIAN_POINT('Ctrl Pts',(16.517665981274,-12.1768626973573,46.652297703122));
#341=CARTESIAN_POINT('Ctrl Pts',(17.2801221014628,-11.1166222271585,48.1823676468325));
#342=CARTESIAN_POINT('Ctrl Pts',(18.614137172038,-8.69757603674837,50.6014138373187));
#343=CARTESIAN_POINT('Ctrl Pts',(19.2897507163311,-7.16444405736713,51.6715475536505));
#344=CARTESIAN_POINT('Ctrl Pts',(19.9997850948509,-4.58824959940285,52.7595975927334));
#345=CARTESIAN_POINT('Ctrl Pts',(20.1876048430812,-3.68385831210183,53.0391291629246));
#346=CARTESIAN_POINT('Ctrl Pts',(20.4377831630261,-1.84586585400582,53.4094072415341));
#347=CARTESIAN_POINT('Ctrl Pts',(20.5,-0.912214423324494,53.5000000009204));
#348=CARTESIAN_POINT('Ctrl Pts',(20.5,-1.52655665885959E-015,53.5000000009204));
#349=CARTESIAN_POINT('',(14.974979131872,14.,39.500000000672));
#350=CARTESIAN_POINT('Ctrl Pts',(20.5,1.45716771982052E-015,53.5000000009204));
#351=CARTESIAN_POINT('Ctrl Pts',(20.5,0.912214423324494,53.5000000009204));
#352=CARTESIAN_POINT('Ctrl Pts',(20.4377831630261,1.84586585400582,53.4094072415341));
#353=CARTESIAN_POINT('Ctrl Pts',(20.1876048430812,3.68385831210183,53.0391291629246));
#354=CARTESIAN_POINT('Ctrl Pts',(19.9997850948509,4.58824959940285,52.7595975927334));
#355=CARTESIAN_POINT('Ctrl Pts',(19.2897507163311,7.16444405736713,51.6715475536505));
#356=CARTESIAN_POINT('Ctrl Pts',(18.614137172038,8.69757603674837,50.6014138373187));
#357=CARTESIAN_POINT('Ctrl Pts',(17.2801221014628,11.1166222271585,48.1823676468325));
#358=CARTESIAN_POINT('Ctrl Pts',(16.517665981274,12.1768626973573,46.6522977031221));
#359=CARTESIAN_POINT('Ctrl Pts',(15.6428489371717,13.2576819825141,44.0925657960909));
#360=CARTESIAN_POINT('Ctrl Pts',(15.3976097715466,13.536101579092,43.1945311029323));
#361=CARTESIAN_POINT('Ctrl Pts',(15.0631127686935,13.9073745550735,41.360252213155));
#362=CARTESIAN_POINT('Ctrl Pts',(14.9749791318719,14.,40.4237570607569));
#363=CARTESIAN_POINT('Ctrl Pts',(14.9749791318719,14.,39.5000000006723));
#364=CARTESIAN_POINT('Ctrl Pts',(20.5,-3.33066907387547E-015,25.5000000009204));
#365=CARTESIAN_POINT('Ctrl Pts',(20.5,0.912214423306395,25.5000000009204));
#366=CARTESIAN_POINT('Ctrl Pts',(20.4377831630285,1.84586585397244,25.5905927602975));
#367=CARTESIAN_POINT('Ctrl Pts',(20.1876048430911,3.68385831204476,25.9608708388735));
#368=CARTESIAN_POINT('Ctrl Pts',(19.9997850948656,4.58824959933737,26.2404024090403));
#369=CARTESIAN_POINT('Ctrl Pts',(19.2897507163599,7.16444405728676,27.3284524480366));
#370=CARTESIAN_POINT('Ctrl Pts',(18.6141371720745,8.69757603667171,28.3985861642921));
#371=CARTESIAN_POINT('Ctrl Pts',(17.280122101492,11.1166222271161,30.8176323546605));
#372=CARTESIAN_POINT('Ctrl Pts',(16.5176659812887,12.1768626973384,32.3477022983234));
#373=CARTESIAN_POINT('Ctrl Pts',(15.642848937174,13.2576819825115,34.9074342053043));
#374=CARTESIAN_POINT('Ctrl Pts',(15.3976097715465,13.5361015790922,35.8054688984497));
#375=CARTESIAN_POINT('Ctrl Pts',(15.0631127686922,13.9073745550749,37.6397477882058));
#376=CARTESIAN_POINT('Ctrl Pts',(14.9749791318719,14.,38.5762429405959));
#377=CARTESIAN_POINT('Ctrl Pts',(14.9749791318719,14.,39.5000000006723));
#378=CARTESIAN_POINT('',(20.5,-5.020886E-015,0.));
#379=CARTESIAN_POINT('Origin',(0.,0.,0.));
#380=CARTESIAN_POINT('',(-20.5,-2.510443E-015,79.));
#381=CARTESIAN_POINT('Origin',(0.,0.,79.));
#382=CARTESIAN_POINT('Origin',(0.,0.,39.5));
#383=CARTESIAN_POINT('',(33.4999999993714,-1.714449E-015,53.500000001504));
#384=CARTESIAN_POINT('Origin',(33.5,0.,39.500000001504));
#385=CARTESIAN_POINT('Origin',(2.22044604925031E-015,0.,68.));
#386=CARTESIAN_POINT('',(-16.,-1.95937E-015,79.));
#387=CARTESIAN_POINT('Origin',(0.,0.,79.));
#388=CARTESIAN_POINT('',(-16.,-1.95937E-015,57.));
#389=CARTESIAN_POINT('Origin',(0.,0.,57.));
#390=CARTESIAN_POINT('Origin',(25.5,0.,39.5000000011452));
#391=CARTESIAN_POINT('',(33.499999999551,-1.224606E-015,49.5000000015043));
#392=CARTESIAN_POINT('Origin',(33.5,0.,39.500000001504));
#393=CARTESIAN_POINT('',(17.499999999551,-1.224606E-015,49.500000000786));
#394=CARTESIAN_POINT('Origin',(17.5,0.,39.500000000786));
#395=CARTESIAN_POINT('Origin',(0.,0.,0.));
#396=CARTESIAN_POINT('Origin',(0.,0.,22.));
#397=CARTESIAN_POINT('Origin',(0.,0.,79.));
#398=CARTESIAN_POINT('Origin',(33.5,0.,39.500000001504));
#399=CARTESIAN_POINT('Origin',(0.,0.,57.));
#400=CARTESIAN_POINT('Origin',(17.5,0.,39.500000000786));
#401=UNCERTAINTY_MEASURE_WITH_UNIT(LENGTH_MEASURE(0.01),#403,
'DISTANCE_ACCURACY_VALUE',
'Maximum model space distance between geometric entities at asserted c
onnectivities');
#402=(
GEOMETRIC_REPRESENTATION_CONTEXT(3)
GLOBAL_UNCERTAINTY_ASSIGNED_CONTEXT((#401))
GLOBAL_UNIT_ASSIGNED_CONTEXT((#403,#406,#404))
REPRESENTATION_CONTEXT('','3D')
);
#403=(
LENGTH_UNIT()
NAMED_UNIT(*)
SI_UNIT(.MILLI.,.METRE.)
);
#404=(
NAMED_UNIT(*)
SI_UNIT($,.STERADIAN.)
SOLID_ANGLE_UNIT()
);
#405=DIMENSIONAL_EXPONENTS(0.,0.,0.,0.,0.,0.,0.);
#406=(
CONVERSION_BASED_UNIT('degree',#408)
NAMED_UNIT(#405)
PLANE_ANGLE_UNIT()
);
#407=(
NAMED_UNIT(*)
PLANE_ANGLE_UNIT()
SI_UNIT($,.RADIAN.)
);
#408=PLANE_ANGLE_MEASURE_WITH_UNIT(PLANE_ANGLE_MEASURE(0.01745329252),#407);
#409=SHAPE_DEFINITION_REPRESENTATION(#410,#411);
#410=PRODUCT_DEFINITION_SHAPE('',$,#413);
#411=SHAPE_REPRESENTATION('',(#182),#402);
#412=PRODUCT_DEFINITION_CONTEXT('3D Mechanical Parts',#416,'design');
#413=PRODUCT_DEFINITION('TRIV032020','TRIV032020',#414,#412);
#414=PRODUCT_DEFINITION_FORMATION('',$,#418);
#415=APPLICATION_PROTOCOL_DEFINITION('international standard',
'automotive_design',2009,#416);
#416=APPLICATION_CONTEXT(
'Core Data for Automotive Mechanical Design Process');
#417=PRODUCT_CONTEXT('3D Mechanical Parts',#416,'mechanical');
#418=PRODUCT('TRIV032020','TRIV032020',$,(#417));
#419=PRESENTATION_STYLE_ASSIGNMENT((#420));
#420=SURFACE_STYLE_USAGE(.BOTH.,#421);
#421=SURFACE_SIDE_STYLE($,(#422));
#422=SURFACE_STYLE_FILL_AREA(#423);
#423=FILL_AREA_STYLE($,(#424));
#424=FILL_AREA_STYLE_COLOUR($,#425);
#425=COLOUR_RGB('',0.509803921568627,0.509803921568627,0.588235294117647);
ENDSEC;
END-ISO-10303-21;
